ISO-10303-21;
HEADER;
FILE_DESCRIPTION (( 'STEP AP214' ),
    '1' );
FILE_NAME ('06285.STEP',
    '2023-07-05T16:01:36',
    ( '' ),
    ( '' ),
    'SwSTEP 2.0',
    'SolidWorks 2023',
    '' );
FILE_SCHEMA (( 'AUTOMOTIVE_DESIGN' ));
ENDSEC;

DATA;
#1 = EDGE_CURVE ( 'NONE', #184, #107, #148, .T. ) ;
#2 = COLOUR_RGB ( '',0.7921568627450980005, 0.8196078431372548767, 0.9333333333333333481 ) ;
#3 = PRODUCT_DEFINITION_FORMATION_WITH_SPECIFIED_SOURCE ( 'ANY', '', #244, .NOT_KNOWN. ) ;
#4 =( LENGTH_UNIT ( ) NAMED_UNIT ( * ) SI_UNIT ( $, .METRE. ) );
#5 = DIMENSIONAL_EXPONENTS ( 1.000000000000000000, 0.000000000000000000, 0.000000000000000000, 0.000000000000000000, 0.000000000000000000, 0.000000000000000000, 0.000000000000000000 ) ;
#6 = AXIS2_PLACEMENT_3D ( 'NONE', #158, #122, #14 ) ;
#7 =( LENGTH_UNIT ( ) NAMED_UNIT ( * ) SI_UNIT ( $, .METRE. ) );
#8 = STYLED_ITEM ( 'NONE', ( #96 ), #146 ) ;
#9 = CARTESIAN_POINT ( 'NONE',  ( 0.000000000000000000, 39.37007874015748143, 0.000000000000000000 ) ) ;
#10 = DIRECTION ( 'NONE',  ( -1.252875704100928464E-16, 1.000000000000000000, -0.000000000000000000 ) ) ;
#11 = CONICAL_SURFACE ( 'NONE', #168, 22.73032555864674364, 0.5235987755983000369 ) ;
#12 = PRESENTATION_LAYER_ASSIGNMENT (  '', '', ( #38 ) ) ;
#13 = SURFACE_SIDE_STYLE ('',( #64 ) ) ;
#14 = DIRECTION ( 'NONE',  ( -1.000000000000000000, -1.252875704100928464E-16, 0.000000000000000000 ) ) ;
#15 = ORIENTED_EDGE ( 'NONE', *, *, #1, .F. ) ;
#16 = FILL_AREA_STYLE_COLOUR ( '', #2 ) ;
#17 = STYLED_ITEM ( 'NONE', ( #100 ), #229 ) ;
#18 = ORIENTED_EDGE ( 'NONE', *, *, #223, .F. ) ;
#19 = DIRECTION ( 'NONE',  ( -0.000000000000000000, -1.000000000000000000, -0.000000000000000000 ) ) ;
#20 = ORIENTED_EDGE ( 'NONE', *, *, #46, .T. ) ;
#21 =( NAMED_UNIT ( * ) PLANE_ANGLE_UNIT ( ) SI_UNIT ( $, .RADIAN. ) );
#22 = ORIENTED_EDGE ( 'NONE', *, *, #69, .T. ) ;
#23 = FILL_AREA_STYLE ('',( #241 ) ) ;
#24 = PRESENTATION_LAYER_ASSIGNMENT (  '', '', ( #126 ) ) ;
#25 = LINE ( 'NONE', #254, #113 ) ;
#26 = PRESENTATION_STYLE_ASSIGNMENT (( #176 ) ) ;
#27 = DIMENSIONAL_EXPONENTS ( 1.000000000000000000, 0.000000000000000000, 0.000000000000000000, 0.000000000000000000, 0.000000000000000000, 0.000000000000000000, 0.000000000000000000 ) ;
#28 = CIRCLE ( 'NONE', #134, 0.2499999999999999722 ) ;
#29 = STYLED_ITEM ( 'NONE', ( #172 ), #261 ) ;
#30 = ADVANCED_FACE ( 'NONE', ( #185 ), #101, .F. ) ;
#31 = FILL_AREA_STYLE_COLOUR ( '', #180 ) ;
#32 = FILL_AREA_STYLE ('',( #31 ) ) ;
#33 = PRESENTATION_LAYER_ASSIGNMENT (  '', '', ( #8 ) ) ;
#34 = FILL_AREA_STYLE_COLOUR ( '', #217 ) ;
#35 = CARTESIAN_POINT ( 'NONE',  ( 3.061616997868382402E-17, 0.4330127018922180770, -0.2499999999999999722 ) ) ;
#36 = EDGE_CURVE ( 'NONE', #71, #190, #102, .T. ) ;
#37 = DIRECTION ( 'NONE',  ( 0.000000000000000000, 1.000000000000000000, 0.000000000000000000 ) ) ;
#38 = STYLED_ITEM ( 'NONE', ( #258 ), #231 ) ;
#39 = COLOUR_RGB ( '',1.000000000000000000, 0.000000000000000000, 0.000000000000000000 ) ;
#40 = EDGE_CURVE ( 'NONE', #71, #164, #25, .T. ) ;
#41 =( CONVERSION_BASED_UNIT ( 'INCH', #99 ) LENGTH_UNIT ( ) NAMED_UNIT ( #27 ) );
#42 = ORIENTED_EDGE ( 'NONE', *, *, #87, .T. ) ;
#43 = CARTESIAN_POINT ( 'NONE',  ( 0.000000000000000000, 0.000000000000000000, 0.000000000000000000 ) ) ;
#44 = UNCERTAINTY_MEASURE_WITH_UNIT (LENGTH_MEASURE( 1.000000000000000082E-05 ), #84, 'distance_accuracy_value', 'NONE');
#45 = CLOSED_SHELL ( 'NONE', ( #159, #179, #133, #30 ) ) ;
#46 = EDGE_CURVE ( 'NONE', #107, #187, #207, .T. ) ;
#47 = ORIENTED_EDGE ( 'NONE', *, *, #40, .F. ) ;
#48 = DIRECTION ( 'NONE',  ( 0.000000000000000000, -0.000000000000000000, 1.000000000000000000 ) ) ;
#49 = EDGE_LOOP ( 'NONE', ( #203, #219 ) ) ;
#50 = SURFACE_STYLE_USAGE ( .BOTH. , #70 ) ;
#51 = DIRECTION ( 'NONE',  ( 1.252875704100928464E-16, -1.000000000000000000, 0.000000000000000000 ) ) ;
#52 = MECHANICAL_DESIGN_GEOMETRIC_PRESENTATION_REPRESENTATION (  '', ( #126 ), #140 ) ;
#53 = CARTESIAN_POINT ( 'NONE',  ( -6.123233995736770966E-17, 3.000000000000000444, 0.000000000000000000 ) ) ;
#54 = DIMENSIONAL_EXPONENTS ( 1.000000000000000000, 0.000000000000000000, 0.000000000000000000, 0.000000000000000000, 0.000000000000000000, 0.000000000000000000, 0.000000000000000000 ) ;
#55 =( GEOMETRIC_REPRESENTATION_CONTEXT ( 3 ) GLOBAL_UNCERTAINTY_ASSIGNED_CONTEXT ( ( #81 ) ) GLOBAL_UNIT_ASSIGNED_CONTEXT ( ( #251, #243, #147 ) ) REPRESENTATION_CONTEXT ( 'NONE', 'WORKASPACE' ) );
#56 = SURFACE_SIDE_STYLE ('',( #256 ) ) ;
#57 = DIRECTION ( 'NONE',  ( -1.252875704100928464E-16, 1.000000000000000000, -0.000000000000000000 ) ) ;
#58 = MECHANICAL_DESIGN_GEOMETRIC_PRESENTATION_REPRESENTATION (  '', ( #17 ), #112 ) ;
#59 = DIRECTION ( 'NONE',  ( 1.000000000000000000, 0.000000000000000000, 0.000000000000000000 ) ) ;
#60 = CARTESIAN_POINT ( 'NONE',  ( 2.603792618961250418E-16, 0.4330127018922179105, 0.000000000000000000 ) ) ;
#61 = FILL_AREA_STYLE ('',( #79 ) ) ;
#62 =( NAMED_UNIT ( * ) PLANE_ANGLE_UNIT ( ) SI_UNIT ( $, .RADIAN. ) );
#63 =( CONVERSION_BASED_UNIT ( 'INCH', #163 ) LENGTH_UNIT ( ) NAMED_UNIT ( #5 ) );
#64 = SURFACE_STYLE_FILL_AREA ( #61 ) ;
#65 = ORIENTED_EDGE ( 'NONE', *, *, #87, .F. ) ;
#66 =( NAMED_UNIT ( * ) SI_UNIT ( $, .STERADIAN. ) SOLID_ANGLE_UNIT ( ) );
#67 = EDGE_LOOP ( 'NONE', ( #65, #201, #104, #225 ) ) ;
#68 =( GEOMETRIC_REPRESENTATION_CONTEXT ( 3 ) GLOBAL_UNCERTAINTY_ASSIGNED_CONTEXT ( ( #44 ) ) GLOBAL_UNIT_ASSIGNED_CONTEXT ( ( #84, #248, #90 ) ) REPRESENTATION_CONTEXT ( 'NONE', 'WORKASPACE' ) );
#69 = EDGE_CURVE ( 'NONE', #80, #164, #93, .T. ) ;
#70 = SURFACE_SIDE_STYLE ('',( #150 ) ) ;
#71 = VERTEX_POINT ( 'NONE', #121 ) ;
#72 = DIRECTION ( 'NONE',  ( -1.000000000000000000, 0.000000000000000000, 0.000000000000000000 ) ) ;
#73 = DIRECTION ( 'NONE',  ( 0.000000000000000000, 1.000000000000000000, 0.000000000000000000 ) ) ;
#74 = DIMENSIONAL_EXPONENTS ( 1.000000000000000000, 0.000000000000000000, 0.000000000000000000, 0.000000000000000000, 0.000000000000000000, 0.000000000000000000, 0.000000000000000000 ) ;
#75 = CARTESIAN_POINT ( 'NONE',  ( -6.123233995736770966E-17, 3.000000000000000444, 0.000000000000000000 ) ) ;
#76 = DIRECTION ( 'NONE',  ( -0.000000000000000000, -1.000000000000000000, -0.000000000000000000 ) ) ;
#77 = CLOSED_SHELL ( 'NONE', ( #166, #261, #229 ) ) ;
#78 = SURFACE_STYLE_USAGE ( .BOTH. , #13 ) ;
#79 = FILL_AREA_STYLE_COLOUR ( '', #138 ) ;
#80 = VERTEX_POINT ( 'NONE', #213 ) ;
#81 = UNCERTAINTY_MEASURE_WITH_UNIT (LENGTH_MEASURE( 1.000000000000000082E-05 ), #251, 'distance_accuracy_value', 'NONE');
#82 = LENGTH_MEASURE_WITH_UNIT ( LENGTH_MEASURE( 0.02539999999999999897 ), #227 );
#83 = CARTESIAN_POINT ( 'NONE',  ( 2.603792618961250418E-16, 0.4330127018922179105, 0.000000000000000000 ) ) ;
#84 =( CONVERSION_BASED_UNIT ( 'INCH', #170 ) LENGTH_UNIT ( ) NAMED_UNIT ( #54 ) );
#85 = DIRECTION ( 'NONE',  ( -1.000000000000000000, 0.000000000000000000, 0.000000000000000000 ) ) ;
#86 = PRODUCT_DEFINITION_SHAPE ( 'NONE', 'NONE',  #245 ) ;
#87 = EDGE_CURVE ( 'NONE', #190, #80, #94, .T. ) ;
#88 = CARTESIAN_POINT ( 'NONE',  ( 0.000000000000000000, 0.4330127018922180770, 0.000000000000000000 ) ) ;
#89 = CYLINDRICAL_SURFACE ( 'NONE', #153, 0.2499999999999998612 ) ;
#90 =( NAMED_UNIT ( * ) SI_UNIT ( $, .STERADIAN. ) SOLID_ANGLE_UNIT ( ) );
#91 = DIRECTION ( 'NONE',  ( 0.000000000000000000, 0.000000000000000000, 1.000000000000000000 ) ) ;
#92 = DIRECTION ( 'NONE',  ( -1.252875704100928464E-16, 1.000000000000000000, -0.000000000000000000 ) ) ;
#93 = CIRCLE ( 'NONE', #117, 0.2500000000000000555 ) ;
#94 = LINE ( 'NONE', #255, #149 ) ;
#95 = CARTESIAN_POINT ( 'NONE',  ( 0.000000000000000000, 0.4330127018922180770, 0.000000000000000000 ) ) ;
#96 = PRESENTATION_STYLE_ASSIGNMENT (( #156 ) ) ;
#97 = AXIS2_PLACEMENT_3D ( 'NONE', #265, #51, #206 ) ;
#98 = MECHANICAL_DESIGN_GEOMETRIC_PRESENTATION_REPRESENTATION (  '', ( #29 ), #55 ) ;
#99 = LENGTH_MEASURE_WITH_UNIT ( LENGTH_MEASURE( 0.02539999999999999897 ), #160 );
#100 = PRESENTATION_STYLE_ASSIGNMENT (( #78 ) ) ;
#101 = PLANE ( 'NONE',  #97 ) ;
#102 = CIRCLE ( 'NONE', #236, 0.2499999999999997224 ) ;
#103 = FILL_AREA_STYLE ('',( #16 ) ) ;
#104 = ORIENTED_EDGE ( 'NONE', *, *, #40, .T. ) ;
#105 = CARTESIAN_POINT ( 'NONE',  ( 0.2500000000000000000, 0.4330127018922179105, 3.061616997868383018E-17 ) ) ;
#106 = CARTESIAN_POINT ( 'NONE',  ( 0.000000000000000000, 0.000000000000000000, 0.000000000000000000 ) ) ;
#107 = VERTEX_POINT ( 'NONE', #35 ) ;
#108 = MECHANICAL_DESIGN_GEOMETRIC_PRESENTATION_REPRESENTATION (  '', ( #38 ), #68 ) ;
#109 = ORIENTED_EDGE ( 'NONE', *, *, #136, .F. ) ;
#110 =( NAMED_UNIT ( * ) SI_UNIT ( $, .STERADIAN. ) SOLID_ANGLE_UNIT ( ) );
#111 = DIRECTION ( 'NONE',  ( 0.000000000000000000, 0.000000000000000000, -1.000000000000000000 ) ) ;
#112 =( GEOMETRIC_REPRESENTATION_CONTEXT ( 3 ) GLOBAL_UNCERTAINTY_ASSIGNED_CONTEXT ( ( #165 ) ) GLOBAL_UNIT_ASSIGNED_CONTEXT ( ( #41, #239, #199 ) ) REPRESENTATION_CONTEXT ( 'NONE', 'WORKASPACE' ) );
#113 = VECTOR ( 'NONE', #191, 39.37007874015748143 ) ;
#114 = PRODUCT_CONTEXT ( 'NONE', #118, 'mechanical' ) ;
#115 = FACE_OUTER_BOUND ( 'NONE', #240, .T. ) ;
#116 = CARTESIAN_POINT ( 'NONE',  ( -6.123233995736772199E-17, 3.000000000000000444, 0.000000000000000000 ) ) ;
#117 = AXIS2_PLACEMENT_3D ( 'NONE', #53, #212, #72 ) ;
#118 = APPLICATION_CONTEXT ( 'automotive_design' ) ;
#119 = APPLICATION_PROTOCOL_DEFINITION ( 'draft international standard', 'automotive_design', 1998, #221 ) ;
#120 = FILL_AREA_STYLE ('',( #34 ) ) ;
#121 = CARTESIAN_POINT ( 'NONE',  ( -0.2499999999999994449, 0.4330127018922179105, 0.000000000000000000 ) ) ;
#122 = DIRECTION ( 'NONE',  ( -1.252875704100928464E-16, 1.000000000000000000, 0.000000000000000000 ) ) ;
#123 =( GEOMETRIC_REPRESENTATION_CONTEXT ( 3 ) GLOBAL_UNCERTAINTY_ASSIGNED_CONTEXT ( ( #224 ) ) GLOBAL_UNIT_ASSIGNED_CONTEXT ( ( #151, #194, #175 ) ) REPRESENTATION_CONTEXT ( 'NONE', 'WORKASPACE' ) );
#124 = AXIS2_PLACEMENT_3D ( 'NONE', #264, #91, #59 ) ;
#125 = DIRECTION ( 'NONE',  ( 0.000000000000000000, 0.000000000000000000, 1.000000000000000000 ) ) ;
#126 = STYLED_ITEM ( 'NONE', ( #26 ), #166 ) ;
#127 = DIRECTION ( 'NONE',  ( 0.000000000000000000, 0.000000000000000000, 1.000000000000000000 ) ) ;
#128 = UNCERTAINTY_MEASURE_WITH_UNIT (LENGTH_MEASURE( 1.000000000000000082E-05 ), #63, 'distance_accuracy_value', 'NONE');
#129 = EDGE_LOOP ( 'NONE', ( #247, #22 ) ) ;
#130 = ORIENTED_EDGE ( 'NONE', *, *, #204, .F. ) ;
#131 =( CONVERSION_BASED_UNIT ( 'INCH', #82 ) LENGTH_UNIT ( ) NAMED_UNIT ( #157 ) );
#132 = DIRECTION ( 'NONE',  ( -1.252875704100928464E-16, 1.000000000000000000, -0.000000000000000000 ) ) ;
#133 = ADVANCED_FACE ( 'NONE', ( #155 ), #177, .T. ) ;
#134 = AXIS2_PLACEMENT_3D ( 'NONE', #235, #19, #259 ) ;
#135 = AXIS2_PLACEMENT_3D ( 'NONE', #88, #73, #48 ) ;
#136 = EDGE_CURVE ( 'NONE', #164, #80, #145, .T. ) ;
#137 = DIRECTION ( 'NONE',  ( -1.000000000000000000, 0.000000000000000000, 0.000000000000000000 ) ) ;
#138 = COLOUR_RGB ( '',1.000000000000000000, 0.000000000000000000, 0.000000000000000000 ) ;
#139 = DIRECTION ( 'NONE',  ( -1.252875704100928464E-16, 1.000000000000000000, -0.000000000000000000 ) ) ;
#140 =( GEOMETRIC_REPRESENTATION_CONTEXT ( 3 ) GLOBAL_UNCERTAINTY_ASSIGNED_CONTEXT ( ( #128 ) ) GLOBAL_UNIT_ASSIGNED_CONTEXT ( ( #63, #62, #66 ) ) REPRESENTATION_CONTEXT ( 'NONE', 'WORKASPACE' ) );
#141 = EDGE_LOOP ( 'NONE', ( #18, #205, #20 ) ) ;
#142 = EDGE_LOOP ( 'NONE', ( #15, #246, #263 ) ) ;
#143 = DIRECTION ( 'NONE',  ( 0.000000000000000000, 0.8660254037844380415, 0.5000000000000009992 ) ) ;
#144 = ORIENTED_EDGE ( 'NONE', *, *, #46, .F. ) ;
#145 = CIRCLE ( 'NONE', #234, 0.2500000000000000555 ) ;
#146 = MANIFOLD_SOLID_BREP ( 'Revolve - Cutting Edge', #77 ) ;
#147 =( NAMED_UNIT ( * ) SI_UNIT ( $, .STERADIAN. ) SOLID_ANGLE_UNIT ( ) );
#148 = LINE ( 'NONE', #106, #253 ) ;
#149 = VECTOR ( 'NONE', #92, 39.37007874015748143 ) ;
#150 = SURFACE_STYLE_FILL_AREA ( #23 ) ;
#151 =( CONVERSION_BASED_UNIT ( 'INCH', #232 ) LENGTH_UNIT ( ) NAMED_UNIT ( #209 ) );
#152 =( LENGTH_UNIT ( ) NAMED_UNIT ( * ) SI_UNIT ( $, .METRE. ) );
#153 = AXIS2_PLACEMENT_3D ( 'NONE', #116, #132, #228 ) ;
#154 = DIRECTION ( 'NONE',  ( -1.000000000000000000, 0.000000000000000000, 0.000000000000000000 ) ) ;
#155 = FACE_OUTER_BOUND ( 'NONE', #67, .T. ) ;
#156 = SURFACE_STYLE_USAGE ( .BOTH. , #56 ) ;
#157 = DIMENSIONAL_EXPONENTS ( 1.000000000000000000, 0.000000000000000000, 0.000000000000000000, 0.000000000000000000, 0.000000000000000000, 0.000000000000000000, 0.000000000000000000 ) ;
#158 = CARTESIAN_POINT ( 'NONE',  ( 2.603792618961250911E-16, 0.4330127018922180770, 0.000000000000000000 ) ) ;
#159 = ADVANCED_FACE ( 'NONE', ( #115 ), #89, .T. ) ;
#160 =( LENGTH_UNIT ( ) NAMED_UNIT ( * ) SI_UNIT ( $, .METRE. ) );
#161 = CIRCLE ( 'NONE', #214, 0.2499999999999997224 ) ;
#162 = EDGE_CURVE ( 'NONE', #190, #71, #161, .T. ) ;
#163 = LENGTH_MEASURE_WITH_UNIT ( LENGTH_MEASURE( 0.02539999999999999897 ), #7 );
#164 = VERTEX_POINT ( 'NONE', #192 ) ;
#165 = UNCERTAINTY_MEASURE_WITH_UNIT (LENGTH_MEASURE( 1.000000000000000082E-05 ), #41, 'distance_accuracy_value', 'NONE');
#166 = ADVANCED_FACE ( 'NONE', ( #215 ), #230, .T. ) ;
#167 = DIRECTION ( 'NONE',  ( -1.252875704100928464E-16, 1.000000000000000000, -0.000000000000000000 ) ) ;
#168 = AXIS2_PLACEMENT_3D ( 'NONE', #220, #260, #125 ) ;
#169 = EDGE_LOOP ( 'NONE', ( #130, #144 ) ) ;
#170 = LENGTH_MEASURE_WITH_UNIT ( LENGTH_MEASURE( 0.02539999999999999897 ), #152 );
#171 = PRESENTATION_LAYER_ASSIGNMENT (  '', '', ( #17 ) ) ;
#172 = PRESENTATION_STYLE_ASSIGNMENT (( #50 ) ) ;
#173 = SHAPE_DEFINITION_REPRESENTATION ( #86, #252 ) ;
#174 = SURFACE_STYLE_FILL_AREA ( #120 ) ;
#175 =( NAMED_UNIT ( * ) SI_UNIT ( $, .STERADIAN. ) SOLID_ANGLE_UNIT ( ) );
#176 = SURFACE_STYLE_USAGE ( .BOTH. , #249 ) ;
#177 = CYLINDRICAL_SURFACE ( 'NONE', #188, 0.2499999999999998612 ) ;
#178 = CARTESIAN_POINT ( 'NONE',  ( 0.000000000000000000, 0.000000000000000000, 0.000000000000000000 ) ) ;
#179 = ADVANCED_FACE ( 'NONE', ( #198 ), #237, .F. ) ;
#180 = COLOUR_RGB ( '',0.7921568627450980005, 0.8196078431372548767, 0.9333333333333333481 ) ;
#181 = DIRECTION ( 'NONE',  ( 6.123233995736778362E-17, 0.8660254037844380415, -0.5000000000000009992 ) ) ;
#182 = PRODUCT_DEFINITION_CONTEXT ( 'detailed design', #221, 'design' ) ;
#183 = SURFACE_SIDE_STYLE ('',( #222 ) ) ;
#184 = VERTEX_POINT ( 'NONE', #178 ) ;
#185 = FACE_OUTER_BOUND ( 'NONE', #129, .T. ) ;
#186 = FACE_OUTER_BOUND ( 'NONE', #169, .T. ) ;
#187 = VERTEX_POINT ( 'NONE', #196 ) ;
#188 = AXIS2_PLACEMENT_3D ( 'NONE', #195, #10, #233 ) ;
#189 = LENGTH_MEASURE_WITH_UNIT ( LENGTH_MEASURE( 0.02539999999999999897 ), #4 );
#190 = VERTEX_POINT ( 'NONE', #105 ) ;
#191 = DIRECTION ( 'NONE',  ( -1.252875704100928464E-16, 1.000000000000000000, -0.000000000000000000 ) ) ;
#192 = CARTESIAN_POINT ( 'NONE',  ( -0.2500000000000001110, 3.000000000000000444, 0.000000000000000000 ) ) ;
#193 = AXIS2_PLACEMENT_3D ( 'NONE', #9, #37, #127 ) ;
#194 =( NAMED_UNIT ( * ) PLANE_ANGLE_UNIT ( ) SI_UNIT ( $, .RADIAN. ) );
#195 = CARTESIAN_POINT ( 'NONE',  ( -6.123233995736772199E-17, 3.000000000000000444, 0.000000000000000000 ) ) ;
#196 = CARTESIAN_POINT ( 'NONE',  ( 0.000000000000000000, 0.4330127018922180770, 0.2499999999999999722 ) ) ;
#197 =( GEOMETRIC_REPRESENTATION_CONTEXT ( 3 ) GLOBAL_UNCERTAINTY_ASSIGNED_CONTEXT ( ( #238 ) ) GLOBAL_UNIT_ASSIGNED_CONTEXT ( ( #131, #21, #110 ) ) REPRESENTATION_CONTEXT ( 'NONE', 'WORKASPACE' ) );
#198 = FACE_OUTER_BOUND ( 'NONE', #49, .T. ) ;
#199 =( NAMED_UNIT ( * ) SI_UNIT ( $, .STERADIAN. ) SOLID_ANGLE_UNIT ( ) );
#200 = PLANE ( 'NONE',  #135 ) ;
#201 = ORIENTED_EDGE ( 'NONE', *, *, #162, .T. ) ;
#202 = FACE_OUTER_BOUND ( 'NONE', #142, .T. ) ;
#203 = ORIENTED_EDGE ( 'NONE', *, *, #36, .F. ) ;
#204 = EDGE_CURVE ( 'NONE', #187, #107, #28, .T. ) ;
#205 = ORIENTED_EDGE ( 'NONE', *, *, #1, .T. ) ;
#206 = DIRECTION ( 'NONE',  ( 1.000000000000000000, 1.252875704100928464E-16, 0.000000000000000000 ) ) ;
#207 = CIRCLE ( 'NONE', #257, 0.2499999999999999722 ) ;
#208 =( LENGTH_UNIT ( ) NAMED_UNIT ( * ) SI_UNIT ( $, .METRE. ) );
#209 = DIMENSIONAL_EXPONENTS ( 1.000000000000000000, 0.000000000000000000, 0.000000000000000000, 0.000000000000000000, 0.000000000000000000, 0.000000000000000000, 0.000000000000000000 ) ;
#210 = APPLICATION_PROTOCOL_DEFINITION ( 'draft international standard', 'automotive_design', 1998, #118 ) ;
#211 = PRESENTATION_LAYER_ASSIGNMENT (  '', '', ( #29 ) ) ;
#212 = DIRECTION ( 'NONE',  ( -1.252875704100928464E-16, 1.000000000000000000, -0.000000000000000000 ) ) ;
#213 = CARTESIAN_POINT ( 'NONE',  ( 0.2499999999999999722, 3.000000000000000444, 3.061616997868383018E-17 ) ) ;
#214 = AXIS2_PLACEMENT_3D ( 'NONE', #60, #139, #137 ) ;
#215 = FACE_OUTER_BOUND ( 'NONE', #141, .T. ) ;
#216 = PRODUCT_RELATED_PRODUCT_CATEGORY ( 'part', '', ( #244 ) ) ;
#217 = COLOUR_RGB ( '',1.000000000000000000, 0.000000000000000000, 0.000000000000000000 ) ;
#218 = LINE ( 'NONE', #43, #250 ) ;
#219 = ORIENTED_EDGE ( 'NONE', *, *, #162, .F. ) ;
#220 = CARTESIAN_POINT ( 'NONE',  ( 0.000000000000000000, 39.37007874015748143, 0.000000000000000000 ) ) ;
#221 = APPLICATION_CONTEXT ( 'automotive_design' ) ;
#222 = SURFACE_STYLE_FILL_AREA ( #103 ) ;
#223 = EDGE_CURVE ( 'NONE', #184, #187, #218, .T. ) ;
#224 = UNCERTAINTY_MEASURE_WITH_UNIT (LENGTH_MEASURE( 1.000000000000000082E-05 ), #151, 'distance_accuracy_value', 'NONE');
#225 = ORIENTED_EDGE ( 'NONE', *, *, #69, .F. ) ;
#226 = ORIENTED_EDGE ( 'NONE', *, *, #36, .T. ) ;
#227 =( LENGTH_UNIT ( ) NAMED_UNIT ( * ) SI_UNIT ( $, .METRE. ) );
#228 = DIRECTION ( 'NONE',  ( -1.000000000000000000, 0.000000000000000000, 0.000000000000000000 ) ) ;
#229 = ADVANCED_FACE ( 'NONE', ( #202 ), #11, .T. ) ;
#230 = CONICAL_SURFACE ( 'NONE', #193, 22.73032555864674364, 0.5235987755983000369 ) ;
#231 = MANIFOLD_SOLID_BREP ( 'Revolve - Tool Body (Pointed)', #45 ) ;
#232 = LENGTH_MEASURE_WITH_UNIT ( LENGTH_MEASURE( 0.02539999999999999897 ), #208 );
#233 = DIRECTION ( 'NONE',  ( -1.000000000000000000, 0.000000000000000000, 0.000000000000000000 ) ) ;
#234 = AXIS2_PLACEMENT_3D ( 'NONE', #75, #57, #154 ) ;
#235 = CARTESIAN_POINT ( 'NONE',  ( 0.000000000000000000, 0.4330127018922180770, 0.000000000000000000 ) ) ;
#236 = AXIS2_PLACEMENT_3D ( 'NONE', #83, #167, #85 ) ;
#237 = PLANE ( 'NONE',  #6 ) ;
#238 = UNCERTAINTY_MEASURE_WITH_UNIT (LENGTH_MEASURE( 1.000000000000000082E-05 ), #131, 'distance_accuracy_value', 'NONE');
#239 =( NAMED_UNIT ( * ) PLANE_ANGLE_UNIT ( ) SI_UNIT ( $, .RADIAN. ) );
#240 = EDGE_LOOP ( 'NONE', ( #226, #42, #109, #47 ) ) ;
#241 = FILL_AREA_STYLE_COLOUR ( '', #39 ) ;
#242 = MECHANICAL_DESIGN_GEOMETRIC_PRESENTATION_REPRESENTATION (  '', ( #8 ), #123 ) ;
#243 =( NAMED_UNIT ( * ) PLANE_ANGLE_UNIT ( ) SI_UNIT ( $, .RADIAN. ) );
#244 = PRODUCT ( '06285', '06285', '', ( #114 ) ) ;
#245 = PRODUCT_DEFINITION ( 'UNKNOWN', '', #3, #182 ) ;
#246 = ORIENTED_EDGE ( 'NONE', *, *, #223, .T. ) ;
#247 = ORIENTED_EDGE ( 'NONE', *, *, #136, .T. ) ;
#248 =( NAMED_UNIT ( * ) PLANE_ANGLE_UNIT ( ) SI_UNIT ( $, .RADIAN. ) );
#249 = SURFACE_SIDE_STYLE ('',( #174 ) ) ;
#250 = VECTOR ( 'NONE', #143, 39.37007874015748143 ) ;
#251 =( CONVERSION_BASED_UNIT ( 'INCH', #189 ) LENGTH_UNIT ( ) NAMED_UNIT ( #74 ) );
#252 = ADVANCED_BREP_SHAPE_REPRESENTATION ( '06285', ( #146, #231, #124 ), #197 ) ;
#253 = VECTOR ( 'NONE', #181, 39.37007874015748143 ) ;
#254 = CARTESIAN_POINT ( 'NONE',  ( -0.2499999999999999167, 3.000000000000000444, 0.000000000000000000 ) ) ;
#255 = CARTESIAN_POINT ( 'NONE',  ( 0.2499999999999998057, 3.000000000000000444, 3.061616997868381785E-17 ) ) ;
#256 = SURFACE_STYLE_FILL_AREA ( #32 ) ;
#257 = AXIS2_PLACEMENT_3D ( 'NONE', #95, #76, #111 ) ;
#258 = PRESENTATION_STYLE_ASSIGNMENT (( #262 ) ) ;
#259 = DIRECTION ( 'NONE',  ( 0.000000000000000000, 0.000000000000000000, -1.000000000000000000 ) ) ;
#260 = DIRECTION ( 'NONE',  ( 0.000000000000000000, 1.000000000000000000, 0.000000000000000000 ) ) ;
#261 = ADVANCED_FACE ( 'NONE', ( #186 ), #200, .T. ) ;
#262 = SURFACE_STYLE_USAGE ( .BOTH. , #183 ) ;
#263 = ORIENTED_EDGE ( 'NONE', *, *, #204, .T. ) ;
#264 = CARTESIAN_POINT ( 'NONE',  ( 0.000000000000000000, 0.000000000000000000, 0.000000000000000000 ) ) ;
#265 = CARTESIAN_POINT ( 'NONE',  ( 0.2499999999999999722, 3.000000000000000444, 0.000000000000000000 ) ) ;
ENDSEC;
END-ISO-10303-21;
