ISO-10303-21;
HEADER;
FILE_DESCRIPTION (( 'STEP AP214' ),
    '1' );
FILE_NAME ('Micro_RSCM-060-2X.STEP',
    '2021-09-03T17:59:07',
    ( '' ),
    ( '' ),
    'SwSTEP 2.0',
    'SolidWorks 2020',
    '' );
FILE_SCHEMA (( 'AUTOMOTIVE_DESIGN' ));
ENDSEC;

DATA;
#1 =( LENGTH_UNIT ( ) NAMED_UNIT ( * ) SI_UNIT ( $, .METRE. ) );
#2 = DIMENSIONAL_EXPONENTS ( 1.000000000000000000, 0.0000000000000000000, 0.0000000000000000000, 0.0000000000000000000, 0.0000000000000000000, 0.0000000000000000000, 0.0000000000000000000 ) ;
#3 = VERTEX_POINT ( 'NONE', #227 ) ;
#4 = ORIENTED_EDGE ( 'NONE', *, *, #87, .T. ) ;
#5 = PRODUCT_DEFINITION_SHAPE ( 'NONE', 'NONE',  #20 ) ;
#6 =( GEOMETRIC_REPRESENTATION_CONTEXT ( 3 ) GLOBAL_UNCERTAINTY_ASSIGNED_CONTEXT ( ( #47 ) ) GLOBAL_UNIT_ASSIGNED_CONTEXT ( ( #220, #124, #202 ) ) REPRESENTATION_CONTEXT ( 'NONE', 'WORKASPACE' ) );
#7 = ADVANCED_BREP_SHAPE_REPRESENTATION ( 'Micro_RSCM-060-2X', ( #99, #137 ), #6 ) ;
#8 = DIRECTION ( 'NONE',  ( 0.0000000000000000000, 0.0000000000000000000, -1.000000000000000000 ) ) ;
#9 = ORIENTED_EDGE ( 'NONE', *, *, #95, .F. ) ;
#10 = DIRECTION ( 'NONE',  ( -0.5000000000000013323, 6.123233995736782060E-17, 0.8660254037844377084 ) ) ;
#11 = CARTESIAN_POINT ( 'NONE',  ( 0.003936999999999995191, 0.0000000000000000000, 2.244094000000000033 ) ) ;
#12 =( LENGTH_UNIT ( ) NAMED_UNIT ( * ) SI_UNIT ( $, .METRE. ) );
#13 = CARTESIAN_POINT ( 'NONE',  ( 0.0000000000000000000, 0.0000000000000000000, 0.1977534368525607211 ) ) ;
#14 = DIRECTION ( 'NONE',  ( -1.000000000000000000, 0.0000000000000000000, 0.0000000000000000000 ) ) ;
#15 = CIRCLE ( 'NONE', #69, 0.1181100000000000066 ) ;
#16 = ADVANCED_FACE ( 'NONE', ( #52 ), #24, .T. ) ;
#17 = DIRECTION ( 'NONE',  ( 1.000000000000000000, 0.0000000000000000000, -0.0000000000000000000 ) ) ;
#18 = FACE_OUTER_BOUND ( 'NONE', #23, .T. ) ;
#19 =( CONVERSION_BASED_UNIT ( 'INCH', #50 ) LENGTH_UNIT ( ) NAMED_UNIT ( #225 ) );
#20 = PRODUCT_DEFINITION ( 'UNKNOWN', '', #94, #219 ) ;
#21 = COLOUR_RGB ( '',0.7921568627450980005, 0.8196078431372548767, 0.9333333333333333481 ) ;
#22 = APPLICATION_CONTEXT ( 'automotive_design' ) ;
#23 = EDGE_LOOP ( 'NONE', ( #110, #41 ) ) ;
#24 = CYLINDRICAL_SURFACE ( 'NONE', #238, 0.1181100000000000066 ) ;
#25 = ORIENTED_EDGE ( 'NONE', *, *, #87, .F. ) ;
#26 = FACE_OUTER_BOUND ( 'NONE', #136, .T. ) ;
#27 = EDGE_LOOP ( 'NONE', ( #168, #115 ) ) ;
#28 = DIRECTION ( 'NONE',  ( -0.0000000000000000000, -0.0000000000000000000, -1.000000000000000000 ) ) ;
#29 =( CONVERSION_BASED_UNIT ( 'INCH', #140 ) LENGTH_UNIT ( ) NAMED_UNIT ( #89 ) );
#30 = AXIS2_PLACEMENT_3D ( 'NONE', #13, #153, #57 ) ;
#31 = DIRECTION ( 'NONE',  ( 0.0000000000000000000, 0.0000000000000000000, -1.000000000000000000 ) ) ;
#32 = SURFACE_STYLE_FILL_AREA ( #249 ) ;
#33 = FILL_AREA_STYLE ('',( #44 ) ) ;
#34 = ADVANCED_FACE ( 'NONE', ( #209 ), #116, .T. ) ;
#35 = ORIENTED_EDGE ( 'NONE', *, *, #112, .T. ) ;
#36 = DIRECTION ( 'NONE',  ( 0.0000000000000000000, 0.0000000000000000000, 1.000000000000000000 ) ) ;
#37 = ADVANCED_FACE ( 'NONE', ( #26 ), #161, .T. ) ;
#38 = SHAPE_DEFINITION_REPRESENTATION ( #5, #7 ) ;
#39 = ORIENTED_EDGE ( 'NONE', *, *, #187, .F. ) ;
#40 = ORIENTED_EDGE ( 'NONE', *, *, #234, .F. ) ;
#41 = ORIENTED_EDGE ( 'NONE', *, *, #101, .F. ) ;
#42 = EDGE_LOOP ( 'NONE', ( #230, #231, #132, #214 ) ) ;
#43 = ORIENTED_EDGE ( 'NONE', *, *, #131, .F. ) ;
#44 = FILL_AREA_STYLE_COLOUR ( '', #21 ) ;
#45 = AXIS2_PLACEMENT_3D ( 'NONE', #118, #8, #96 ) ;
#46 = SURFACE_SIDE_STYLE ('',( #178 ) ) ;
#47 = UNCERTAINTY_MEASURE_WITH_UNIT (LENGTH_MEASURE( 1.000000000000000082E-05 ), #220, 'distance_accuracy_value', 'NONE');
#48 = DIRECTION ( 'NONE',  ( -0.0000000000000000000, -0.0000000000000000000, -1.000000000000000000 ) ) ;
#49 = CLOSED_SHELL ( 'NONE', ( #174, #242, #156, #16, #34, #221, #37, #148 ) ) ;
#50 = LENGTH_MEASURE_WITH_UNIT ( LENGTH_MEASURE( 0.02539999999999999897 ), #127 );
#51 = VECTOR ( 'NONE', #10, 39.37007874015748854 ) ;
#52 = FACE_OUTER_BOUND ( 'NONE', #42, .T. ) ;
#53 = AXIS2_PLACEMENT_3D ( 'NONE', #139, #78, #195 ) ;
#54 = CARTESIAN_POINT ( 'NONE',  ( 0.003936999999999995191, 0.0000000000000000000, 2.244094000000000033 ) ) ;
#55 = EDGE_LOOP ( 'NONE', ( #189, #58, #4, #167 ) ) ;
#56 = DIRECTION ( 'NONE',  ( -0.0000000000000000000, -0.0000000000000000000, -1.000000000000000000 ) ) ;
#57 = DIRECTION ( 'NONE',  ( -1.000000000000000000, 0.0000000000000000000, 0.0000000000000000000 ) ) ;
#58 = ORIENTED_EDGE ( 'NONE', *, *, #142, .F. ) ;
#59 = VECTOR ( 'NONE', #48, 39.37007874015748143 ) ;
#60 = ORIENTED_EDGE ( 'NONE', *, *, #112, .F. ) ;
#61 = CARTESIAN_POINT ( 'NONE',  ( 0.0000000000000000000, 0.0000000000000000000, 2.244094000000000033 ) ) ;
#62 = CARTESIAN_POINT ( 'NONE',  ( 0.0000000000000000000, 0.0000000000000000000, 2.046340563147439173 ) ) ;
#63 = EDGE_CURVE ( 'NONE', #190, #72, #196, .T. ) ;
#64 = DIRECTION ( 'NONE',  ( -1.000000000000000000, 0.0000000000000000000, 0.0000000000000000000 ) ) ;
#65 = VECTOR ( 'NONE', #182, 39.37007874015748854 ) ;
#66 = DIRECTION ( 'NONE',  ( 0.0000000000000000000, 0.0000000000000000000, -1.000000000000000000 ) ) ;
#67 = FILL_AREA_STYLE_COLOUR ( '', #155 ) ;
#68 = MECHANICAL_DESIGN_GEOMETRIC_PRESENTATION_REPRESENTATION (  '', ( #199 ), #191 ) ;
#69 = AXIS2_PLACEMENT_3D ( 'NONE', #134, #97, #197 ) ;
#70 = PLANE ( 'NONE',  #122 ) ;
#71 = APPLICATION_PROTOCOL_DEFINITION ( 'draft international standard', 'automotive_design', 1998, #130 ) ;
#72 = VERTEX_POINT ( 'NONE', #76 ) ;
#73 = EDGE_LOOP ( 'NONE', ( #35, #113, #40, #43 ) ) ;
#74 = ORIENTED_EDGE ( 'NONE', *, *, #212, .F. ) ;
#75 = VERTEX_POINT ( 'NONE', #207 ) ;
#76 = CARTESIAN_POINT ( 'NONE',  ( -0.1181100000000000066, 0.0000000000000000000, 0.1977534368525607211 ) ) ;
#77 =( GEOMETRIC_REPRESENTATION_CONTEXT ( 3 ) GLOBAL_UNCERTAINTY_ASSIGNED_CONTEXT ( ( #144 ) ) GLOBAL_UNIT_ASSIGNED_CONTEXT ( ( #19, #222, #126 ) ) REPRESENTATION_CONTEXT ( 'NONE', 'WORKASPACE' ) );
#78 = DIRECTION ( 'NONE',  ( -0.0000000000000000000, -0.0000000000000000000, -1.000000000000000000 ) ) ;
#79 = DIRECTION ( 'NONE',  ( -1.000000000000000000, 0.0000000000000000000, 0.0000000000000000000 ) ) ;
#80 = CIRCLE ( 'NONE', #102, 0.003936999999999995191 ) ;
#81 = MECHANICAL_DESIGN_GEOMETRIC_PRESENTATION_REPRESENTATION (  '', ( #88 ), #77 ) ;
#82 = DIRECTION ( 'NONE',  ( -0.0000000000000000000, -0.0000000000000000000, -1.000000000000000000 ) ) ;
#83 = UNCERTAINTY_MEASURE_WITH_UNIT (LENGTH_MEASURE( 1.000000000000000082E-05 ), #29, 'distance_accuracy_value', 'NONE');
#84 = FACE_OUTER_BOUND ( 'NONE', #27, .T. ) ;
#85 = CARTESIAN_POINT ( 'NONE',  ( 0.0000000000000000000, 0.0000000000000000000, 0.0000000000000000000 ) ) ;
#86 = AXIS2_PLACEMENT_3D ( 'NONE', #223, #82, #243 ) ;
#87 = EDGE_CURVE ( 'NONE', #3, #133, #154, .T. ) ;
#88 = STYLED_ITEM ( 'NONE', ( #205 ), #7 ) ;
#89 = DIMENSIONAL_EXPONENTS ( 1.000000000000000000, 0.0000000000000000000, 0.0000000000000000000, 0.0000000000000000000, 0.0000000000000000000, 0.0000000000000000000, 0.0000000000000000000 ) ;
#90 = ORIENTED_EDGE ( 'NONE', *, *, #63, .T. ) ;
#91 = DIRECTION ( 'NONE',  ( -1.000000000000000000, 0.0000000000000000000, 0.0000000000000000000 ) ) ;
#92 = EDGE_LOOP ( 'NONE', ( #229, #117, #74, #151 ) ) ;
#93 = PRESENTATION_LAYER_ASSIGNMENT (  '', '', ( #88 ) ) ;
#94 = PRODUCT_DEFINITION_FORMATION_WITH_SPECIFIED_SOURCE ( 'ANY', '', #216, .NOT_KNOWN. ) ;
#95 = EDGE_CURVE ( 'NONE', #75, #152, #158, .T. ) ;
#96 = DIRECTION ( 'NONE',  ( 1.000000000000000000, 0.0000000000000000000, 0.0000000000000000000 ) ) ;
#97 = DIRECTION ( 'NONE',  ( 0.0000000000000000000, 0.0000000000000000000, -1.000000000000000000 ) ) ;
#98 = CARTESIAN_POINT ( 'NONE',  ( -0.003936999999999995191, 4.821434448243123477E-19, 0.0000000000000000000 ) ) ;
#99 = MANIFOLD_SOLID_BREP ( 'Mirror1', #49 ) ;
#100 =( NAMED_UNIT ( * ) SI_UNIT ( $, .STERADIAN. ) SOLID_ANGLE_UNIT ( ) );
#101 = EDGE_CURVE ( 'NONE', #75, #172, #180, .T. ) ;
#102 = AXIS2_PLACEMENT_3D ( 'NONE', #240, #201, #119 ) ;
#103 = DIRECTION ( 'NONE',  ( 0.0000000000000000000, 0.0000000000000000000, -1.000000000000000000 ) ) ;
#104 = DIRECTION ( 'NONE',  ( -1.000000000000000000, 0.0000000000000000000, 0.0000000000000000000 ) ) ;
#105 = DIRECTION ( 'NONE',  ( 0.0000000000000000000, 0.0000000000000000000, -1.000000000000000000 ) ) ;
#106 = LINE ( 'NONE', #159, #59 ) ;
#107 = AXIS2_PLACEMENT_3D ( 'NONE', #224, #143, #246 ) ;
#108 = PRODUCT_CONTEXT ( 'NONE', #130, 'mechanical' ) ;
#109 = DIRECTION ( 'NONE',  ( 0.5000000000000013323, 0.0000000000000000000, 0.8660254037844377084 ) ) ;
#110 = ORIENTED_EDGE ( 'NONE', *, *, #185, .F. ) ;
#111 = DIRECTION ( 'NONE',  ( 1.000000000000000000, 0.0000000000000000000, 0.0000000000000000000 ) ) ;
#112 = EDGE_CURVE ( 'NONE', #152, #175, #145, .T. ) ;
#113 = ORIENTED_EDGE ( 'NONE', *, *, #147, .T. ) ;
#114 = DIRECTION ( 'NONE',  ( 0.0000000000000000000, 0.0000000000000000000, 1.000000000000000000 ) ) ;
#115 = ORIENTED_EDGE ( 'NONE', *, *, #187, .T. ) ;
#116 = CONICAL_SURFACE ( 'NONE', #121, 0.003936999999999995191, 0.5235987755983005920 ) ;
#117 = ORIENTED_EDGE ( 'NONE', *, *, #95, .T. ) ;
#118 = CARTESIAN_POINT ( 'NONE',  ( 0.0000000000000000000, 0.0000000000000000000, 2.244094000000000033 ) ) ;
#119 = DIRECTION ( 'NONE',  ( -1.000000000000000000, 0.0000000000000000000, 0.0000000000000000000 ) ) ;
#120 = CYLINDRICAL_SURFACE ( 'NONE', #213, 0.1181100000000000066 ) ;
#121 = AXIS2_PLACEMENT_3D ( 'NONE', #193, #114, #170 ) ;
#122 = AXIS2_PLACEMENT_3D ( 'NONE', #85, #179, #17 ) ;
#123 = FACE_OUTER_BOUND ( 'NONE', #188, .T. ) ;
#124 =( NAMED_UNIT ( * ) PLANE_ANGLE_UNIT ( ) SI_UNIT ( $, .RADIAN. ) );
#125 = CIRCLE ( 'NONE', #30, 0.1181100000000000066 ) ;
#126 =( NAMED_UNIT ( * ) SI_UNIT ( $, .STERADIAN. ) SOLID_ANGLE_UNIT ( ) );
#127 =( LENGTH_UNIT ( ) NAMED_UNIT ( * ) SI_UNIT ( $, .METRE. ) );
#128 = AXIS2_PLACEMENT_3D ( 'NONE', #61, #103, #64 ) ;
#129 = CARTESIAN_POINT ( 'NONE',  ( 0.0000000000000000000, 0.0000000000000000000, 2.244094000000000033 ) ) ;
#130 = APPLICATION_CONTEXT ( 'automotive_design' ) ;
#131 = EDGE_CURVE ( 'NONE', #152, #72, #165, .T. ) ;
#132 = ORIENTED_EDGE ( 'NONE', *, *, #131, .T. ) ;
#133 = VERTEX_POINT ( 'NONE', #200 ) ;
#134 = CARTESIAN_POINT ( 'NONE',  ( 0.0000000000000000000, 0.0000000000000000000, 2.046340563147439173 ) ) ;
#135 = CONICAL_SURFACE ( 'NONE', #203, 0.003936999999999995191, 0.5235987755983005920 ) ;
#136 = EDGE_LOOP ( 'NONE', ( #9, #211, #149, #60 ) ) ;
#137 = AXIS2_PLACEMENT_3D ( 'NONE', #206, #36, #111 ) ;
#138 = DIRECTION ( 'NONE',  ( 0.0000000000000000000, 0.0000000000000000000, 1.000000000000000000 ) ) ;
#139 = CARTESIAN_POINT ( 'NONE',  ( 0.0000000000000000000, 0.0000000000000000000, 0.0000000000000000000 ) ) ;
#140 = LENGTH_MEASURE_WITH_UNIT ( LENGTH_MEASURE( 0.02539999999999999897 ), #12 );
#141 = VECTOR ( 'NONE', #241, 39.37007874015748854 ) ;
#142 = EDGE_CURVE ( 'NONE', #3, #190, #80, .T. ) ;
#143 = DIRECTION ( 'NONE',  ( 0.0000000000000000000, 0.0000000000000000000, 1.000000000000000000 ) ) ;
#144 = UNCERTAINTY_MEASURE_WITH_UNIT (LENGTH_MEASURE( 1.000000000000000082E-05 ), #19, 'distance_accuracy_value', 'NONE');
#145 = CIRCLE ( 'NONE', #169, 0.1181100000000000066 ) ;
#146 = CONICAL_SURFACE ( 'NONE', #107, 0.003936999999999995191, 0.5235987755983005920 ) ;
#147 = EDGE_CURVE ( 'NONE', #175, #133, #106, .T. ) ;
#148 = ADVANCED_FACE ( 'NONE', ( #18 ), #163, .T. ) ;
#149 = ORIENTED_EDGE ( 'NONE', *, *, #150, .T. ) ;
#150 = EDGE_CURVE ( 'NONE', #172, #175, #235, .T. ) ;
#151 = ORIENTED_EDGE ( 'NONE', *, *, #150, .F. ) ;
#152 = VERTEX_POINT ( 'NONE', #245 ) ;
#153 = DIRECTION ( 'NONE',  ( -0.0000000000000000000, -0.0000000000000000000, -1.000000000000000000 ) ) ;
#154 = LINE ( 'NONE', #233, #184 ) ;
#155 = COLOUR_RGB ( '',0.7921568627450980005, 0.8196078431372548767, 0.9333333333333333481 ) ;
#156 = ADVANCED_FACE ( 'NONE', ( #248 ), #120, .T. ) ;
#157 = FACE_OUTER_BOUND ( 'NONE', #92, .T. ) ;
#158 = LINE ( 'NONE', #181, #141 ) ;
#159 = CARTESIAN_POINT ( 'NONE',  ( 0.1181100000000000066, 1.446430334472939084E-17, 2.244094000000000033 ) ) ;
#160 = CARTESIAN_POINT ( 'NONE',  ( -0.1181100000000000066, 0.0000000000000000000, 2.244094000000000033 ) ) ;
#161 = CONICAL_SURFACE ( 'NONE', #45, 0.003936999999999995191, 0.5235987755983005920 ) ;
#162 = LENGTH_MEASURE_WITH_UNIT ( LENGTH_MEASURE( 0.02539999999999999897 ), #1 );
#163 = PLANE ( 'NONE',  #232 ) ;
#164 = APPLICATION_PROTOCOL_DEFINITION ( 'draft international standard', 'automotive_design', 1998, #22 ) ;
#165 = LINE ( 'NONE', #160, #208 ) ;
#166 = SURFACE_STYLE_USAGE ( .BOTH. , #183 ) ;
#167 = ORIENTED_EDGE ( 'NONE', *, *, #204, .T. ) ;
#168 = ORIENTED_EDGE ( 'NONE', *, *, #142, .T. ) ;
#169 = AXIS2_PLACEMENT_3D ( 'NONE', #62, #105, #79 ) ;
#170 = DIRECTION ( 'NONE',  ( 1.000000000000000000, 0.0000000000000000000, 0.0000000000000000000 ) ) ;
#171 = CARTESIAN_POINT ( 'NONE',  ( 0.0000000000000000000, 0.0000000000000000000, 2.244094000000000033 ) ) ;
#172 = VERTEX_POINT ( 'NONE', #11 ) ;
#173 = CARTESIAN_POINT ( 'NONE',  ( 0.1181100000000000066, 1.446430334472939084E-17, 2.046340563147439173 ) ) ;
#174 = ADVANCED_FACE ( 'NONE', ( #157 ), #135, .T. ) ;
#175 = VERTEX_POINT ( 'NONE', #173 ) ;
#176 = PRESENTATION_LAYER_ASSIGNMENT (  '', '', ( #199 ) ) ;
#177 = CARTESIAN_POINT ( 'NONE',  ( 0.0000000000000000000, 0.0000000000000000000, 2.244094000000000033 ) ) ;
#178 = SURFACE_STYLE_FILL_AREA ( #33 ) ;
#179 = DIRECTION ( 'NONE',  ( 0.0000000000000000000, 0.0000000000000000000, 1.000000000000000000 ) ) ;
#180 = CIRCLE ( 'NONE', #186, 0.003936999999999995191 ) ;
#181 = CARTESIAN_POINT ( 'NONE',  ( -0.003936999999999995191, -4.821434448243123477E-19, 2.244094000000000033 ) ) ;
#182 = DIRECTION ( 'NONE',  ( 0.5000000000000013323, 0.0000000000000000000, -0.8660254037844377084 ) ) ;
#183 = SURFACE_SIDE_STYLE ('',( #32 ) ) ;
#184 = VECTOR ( 'NONE', #109, 39.37007874015748854 ) ;
#185 = EDGE_CURVE ( 'NONE', #172, #75, #247, .T. ) ;
#186 = AXIS2_PLACEMENT_3D ( 'NONE', #177, #31, #14 ) ;
#187 = EDGE_CURVE ( 'NONE', #190, #3, #228, .T. ) ;
#188 = EDGE_LOOP ( 'NONE', ( #39, #90, #210, #25 ) ) ;
#189 = ORIENTED_EDGE ( 'NONE', *, *, #63, .F. ) ;
#190 = VERTEX_POINT ( 'NONE', #239 ) ;
#191 =( GEOMETRIC_REPRESENTATION_CONTEXT ( 3 ) GLOBAL_UNCERTAINTY_ASSIGNED_CONTEXT ( ( #83 ) ) GLOBAL_UNIT_ASSIGNED_CONTEXT ( ( #29, #218, #100 ) ) REPRESENTATION_CONTEXT ( 'NONE', 'WORKASPACE' ) );
#192 = DIRECTION ( 'NONE',  ( 1.000000000000000000, 0.0000000000000000000, 0.0000000000000000000 ) ) ;
#193 = CARTESIAN_POINT ( 'NONE',  ( 0.0000000000000000000, 0.0000000000000000000, 0.0000000000000000000 ) ) ;
#194 = PRODUCT_RELATED_PRODUCT_CATEGORY ( 'part', '', ( #216 ) ) ;
#195 = DIRECTION ( 'NONE',  ( -1.000000000000000000, 0.0000000000000000000, 0.0000000000000000000 ) ) ;
#196 = LINE ( 'NONE', #98, #51 ) ;
#197 = DIRECTION ( 'NONE',  ( -1.000000000000000000, 0.0000000000000000000, 0.0000000000000000000 ) ) ;
#198 = CARTESIAN_POINT ( 'NONE',  ( 0.0000000000000000000, 0.0000000000000000000, 2.244094000000000033 ) ) ;
#199 = STYLED_ITEM ( 'NONE', ( #215 ), #99 ) ;
#200 = CARTESIAN_POINT ( 'NONE',  ( 0.1181100000000000066, 1.446430334472939084E-17, 0.1977534368525607211 ) ) ;
#201 = DIRECTION ( 'NONE',  ( -0.0000000000000000000, -0.0000000000000000000, -1.000000000000000000 ) ) ;
#202 =( NAMED_UNIT ( * ) SI_UNIT ( $, .STERADIAN. ) SOLID_ANGLE_UNIT ( ) );
#203 = AXIS2_PLACEMENT_3D ( 'NONE', #236, #66, #192 ) ;
#204 = EDGE_CURVE ( 'NONE', #133, #72, #125, .T. ) ;
#205 = PRESENTATION_STYLE_ASSIGNMENT (( #166 ) ) ;
#206 = CARTESIAN_POINT ( 'NONE',  ( 0.0000000000000000000, 0.0000000000000000000, 0.0000000000000000000 ) ) ;
#207 = CARTESIAN_POINT ( 'NONE',  ( -0.003936999999999995191, -7.473223394776848033E-18, 2.244094000000000033 ) ) ;
#208 = VECTOR ( 'NONE', #244, 39.37007874015748143 ) ;
#209 = FACE_OUTER_BOUND ( 'NONE', #55, .T. ) ;
#210 = ORIENTED_EDGE ( 'NONE', *, *, #234, .T. ) ;
#211 = ORIENTED_EDGE ( 'NONE', *, *, #101, .T. ) ;
#212 = EDGE_CURVE ( 'NONE', #175, #152, #15, .T. ) ;
#213 = AXIS2_PLACEMENT_3D ( 'NONE', #171, #28, #104 ) ;
#214 = ORIENTED_EDGE ( 'NONE', *, *, #204, .F. ) ;
#215 = PRESENTATION_STYLE_ASSIGNMENT (( #237 ) ) ;
#216 = PRODUCT ( 'Micro_RSCM-060-2X', 'Micro_RSCM-060-2X', '', ( #108 ) ) ;
#217 = DIRECTION ( 'NONE',  ( 1.000000000000000000, 0.0000000000000000000, -0.0000000000000000000 ) ) ;
#218 =( NAMED_UNIT ( * ) PLANE_ANGLE_UNIT ( ) SI_UNIT ( $, .RADIAN. ) );
#219 = PRODUCT_DEFINITION_CONTEXT ( 'detailed design', #22, 'design' ) ;
#220 =( CONVERSION_BASED_UNIT ( 'INCH', #162 ) LENGTH_UNIT ( ) NAMED_UNIT ( #2 ) );
#221 = ADVANCED_FACE ( 'NONE', ( #84 ), #70, .F. ) ;
#222 =( NAMED_UNIT ( * ) PLANE_ANGLE_UNIT ( ) SI_UNIT ( $, .RADIAN. ) );
#223 = CARTESIAN_POINT ( 'NONE',  ( 0.0000000000000000000, 0.0000000000000000000, 0.1977534368525607211 ) ) ;
#224 = CARTESIAN_POINT ( 'NONE',  ( 0.0000000000000000000, 0.0000000000000000000, 0.0000000000000000000 ) ) ;
#225 = DIMENSIONAL_EXPONENTS ( 1.000000000000000000, 0.0000000000000000000, 0.0000000000000000000, 0.0000000000000000000, 0.0000000000000000000, 0.0000000000000000000, 0.0000000000000000000 ) ;
#226 = CIRCLE ( 'NONE', #86, 0.1181100000000000066 ) ;
#227 = CARTESIAN_POINT ( 'NONE',  ( 0.003936999999999995191, 0.0000000000000000000, 0.0000000000000000000 ) ) ;
#228 = CIRCLE ( 'NONE', #53, 0.003936999999999995191 ) ;
#229 = ORIENTED_EDGE ( 'NONE', *, *, #185, .T. ) ;
#230 = ORIENTED_EDGE ( 'NONE', *, *, #147, .F. ) ;
#231 = ORIENTED_EDGE ( 'NONE', *, *, #212, .T. ) ;
#232 = AXIS2_PLACEMENT_3D ( 'NONE', #198, #138, #217 ) ;
#233 = CARTESIAN_POINT ( 'NONE',  ( 0.003936999999999995191, 0.0000000000000000000, 0.0000000000000000000 ) ) ;
#234 = EDGE_CURVE ( 'NONE', #72, #133, #226, .T. ) ;
#235 = LINE ( 'NONE', #54, #65 ) ;
#236 = CARTESIAN_POINT ( 'NONE',  ( 0.0000000000000000000, 0.0000000000000000000, 2.244094000000000033 ) ) ;
#237 = SURFACE_STYLE_USAGE ( .BOTH. , #46 ) ;
#238 = AXIS2_PLACEMENT_3D ( 'NONE', #129, #56, #91 ) ;
#239 = CARTESIAN_POINT ( 'NONE',  ( -0.003936999999999995191, 7.473223394776852656E-18, 0.0000000000000000000 ) ) ;
#240 = CARTESIAN_POINT ( 'NONE',  ( 0.0000000000000000000, 0.0000000000000000000, 0.0000000000000000000 ) ) ;
#241 = DIRECTION ( 'NONE',  ( -0.5000000000000013323, -6.123233995736782060E-17, -0.8660254037844377084 ) ) ;
#242 = ADVANCED_FACE ( 'NONE', ( #123 ), #146, .T. ) ;
#243 = DIRECTION ( 'NONE',  ( -1.000000000000000000, 0.0000000000000000000, 0.0000000000000000000 ) ) ;
#244 = DIRECTION ( 'NONE',  ( -0.0000000000000000000, -0.0000000000000000000, -1.000000000000000000 ) ) ;
#245 = CARTESIAN_POINT ( 'NONE',  ( -0.1181100000000000066, 0.0000000000000000000, 2.046340563147439173 ) ) ;
#246 = DIRECTION ( 'NONE',  ( 1.000000000000000000, 0.0000000000000000000, 0.0000000000000000000 ) ) ;
#247 = CIRCLE ( 'NONE', #128, 0.003936999999999995191 ) ;
#248 = FACE_OUTER_BOUND ( 'NONE', #73, .T. ) ;
#249 = FILL_AREA_STYLE ('',( #67 ) ) ;
ENDSEC;
END-ISO-10303-21;
