ISO-10303-21;
HEADER;
FILE_DESCRIPTION (( 'STEP AP214' ),
    '1' );
FILE_NAME ('86072.STEP',
    '2023-06-23T16:33:18',
    ( '' ),
    ( '' ),
    'SwSTEP 2.0',
    'SolidWorks 2023',
    '' );
FILE_SCHEMA (( 'AUTOMOTIVE_DESIGN' ));
ENDSEC;

DATA;
#1 = PRODUCT_DEFINITION_CONTEXT ( 'detailed design', #147, 'design' ) ;
#2 = MANIFOLD_SOLID_BREP ( 'Revolve - Tool Body (Straight Shanked)', #264 ) ;
#3 = ORIENTED_EDGE ( 'NONE', *, *, #266, .T. ) ;
#4 = UNCERTAINTY_MEASURE_WITH_UNIT (LENGTH_MEASURE( 1.000000000000000082E-05 ), #20, 'distance_accuracy_value', 'NONE');
#5 = VERTEX_POINT ( 'NONE', #194 ) ;
#6 = STYLED_ITEM ( 'NONE', ( #101 ), #306 ) ;
#7 = EDGE_CURVE ( 'NONE', #146, #5, #128, .T. ) ;
#8 = COLOUR_RGB ( '',1.000000000000000000, 0.000000000000000000, 0.000000000000000000 ) ;
#9 = DIRECTION ( 'NONE',  ( -0.000000000000000000, -1.000000000000000000, -0.000000000000000000 ) ) ;
#10 = FACE_OUTER_BOUND ( 'NONE', #203, .T. ) ;
#11 = LENGTH_MEASURE_WITH_UNIT ( LENGTH_MEASURE( 0.02539999999999999897 ), #137 );
#12 = CARTESIAN_POINT ( 'NONE',  ( 0.000000000000000000, 4.250000000000000000, 0.000000000000000000 ) ) ;
#13 = AXIS2_PLACEMENT_3D ( 'NONE', #74, #269, #267 ) ;
#14 = LINE ( 'NONE', #204, #106 ) ;
#15 = PLANE ( 'NONE',  #13 ) ;
#16 = EDGE_LOOP ( 'NONE', ( #219, #307 ) ) ;
#17 = CLOSED_SHELL ( 'NONE', ( #118, #252, #221, #306 ) ) ;
#18 = LENGTH_MEASURE_WITH_UNIT ( LENGTH_MEASURE( 0.02539999999999999897 ), #236 );
#19 = EDGE_LOOP ( 'NONE', ( #60, #158 ) ) ;
#20 =( CONVERSION_BASED_UNIT ( 'INCH', #18 ) LENGTH_UNIT ( ) NAMED_UNIT ( #209 ) );
#21 = SURFACE_STYLE_USAGE ( .BOTH. , #44 ) ;
#22 = CIRCLE ( 'NONE', #206, 0.5000000000000000000 ) ;
#23 = APPLICATION_PROTOCOL_DEFINITION ( 'draft international standard', 'automotive_design', 1998, #147 ) ;
#24 = DIMENSIONAL_EXPONENTS ( 1.000000000000000000, 0.000000000000000000, 0.000000000000000000, 0.000000000000000000, 0.000000000000000000, 0.000000000000000000, 0.000000000000000000 ) ;
#25 =( GEOMETRIC_REPRESENTATION_CONTEXT ( 3 ) GLOBAL_UNCERTAINTY_ASSIGNED_CONTEXT ( ( #102 ) ) GLOBAL_UNIT_ASSIGNED_CONTEXT ( ( #36, #153, #255 ) ) REPRESENTATION_CONTEXT ( 'NONE', 'WORKASPACE' ) );
#26 = ADVANCED_FACE ( 'NONE', ( #114 ), #199, .T. ) ;
#27 = CARTESIAN_POINT ( 'NONE',  ( -1.224646799147351975E-16, 7.000000000000000000, 0.000000000000000000 ) ) ;
#28 = COLOUR_RGB ( '',0.7921568627450980005, 0.8196078431372548767, 0.9333333333333333481 ) ;
#29 = FILL_AREA_STYLE_COLOUR ( '', #64 ) ;
#30 = SURFACE_SIDE_STYLE ('',( #168 ) ) ;
#31 = DIRECTION ( 'NONE',  ( -1.000000000000000000, 0.000000000000000000, 0.000000000000000000 ) ) ;
#32 = PRODUCT_DEFINITION ( 'UNKNOWN', '', #135, #1 ) ;
#33 =( NAMED_UNIT ( * ) PLANE_ANGLE_UNIT ( ) SI_UNIT ( $, .RADIAN. ) );
#34 = AXIS2_PLACEMENT_3D ( 'NONE', #90, #231, #193 ) ;
#35 = PLANE ( 'NONE',  #245 ) ;
#36 =( CONVERSION_BASED_UNIT ( 'INCH', #175 ) LENGTH_UNIT ( ) NAMED_UNIT ( #151 ) );
#37 = SURFACE_STYLE_USAGE ( .BOTH. , #229 ) ;
#38 = FILL_AREA_STYLE ('',( #253 ) ) ;
#39 = PLANE ( 'NONE',  #239 ) ;
#40 = VERTEX_POINT ( 'NONE', #92 ) ;
#41 = AXIS2_PLACEMENT_3D ( 'NONE', #189, #222, #251 ) ;
#42 = AXIS2_PLACEMENT_3D ( 'NONE', #172, #58, #104 ) ;
#43 = EDGE_LOOP ( 'NONE', ( #112, #88, #217, #48 ) ) ;
#44 = SURFACE_SIDE_STYLE ('',( #191 ) ) ;
#45 = CARTESIAN_POINT ( 'NONE',  ( 0.000000000000000000, 0.000000000000000000, 0.000000000000000000 ) ) ;
#46 = EDGE_LOOP ( 'NONE', ( #285, #178 ) ) ;
#47 = PRESENTATION_LAYER_ASSIGNMENT (  '', '', ( #68 ) ) ;
#48 = ORIENTED_EDGE ( 'NONE', *, *, #226, .F. ) ;
#49 = PRODUCT ( '86072', '86072', '', ( #218 ) ) ;
#50 = ORIENTED_EDGE ( 'NONE', *, *, #167, .F. ) ;
#51 = FILL_AREA_STYLE ('',( #94 ) ) ;
#52 = DIRECTION ( 'NONE',  ( -4.453261087808552747E-17, 1.000000000000000000, -0.000000000000000000 ) ) ;
#53 = MECHANICAL_DESIGN_GEOMETRIC_PRESENTATION_REPRESENTATION (  '', ( #68 ), #25 ) ;
#54 =( LENGTH_UNIT ( ) NAMED_UNIT ( * ) SI_UNIT ( $, .METRE. ) );
#55 = PRESENTATION_STYLE_ASSIGNMENT (( #124 ) ) ;
#56 =( NAMED_UNIT ( * ) PLANE_ANGLE_UNIT ( ) SI_UNIT ( $, .RADIAN. ) );
#57 = FACE_OUTER_BOUND ( 'NONE', #210, .T. ) ;
#58 = DIRECTION ( 'NONE',  ( -0.000000000000000000, -1.000000000000000000, -0.000000000000000000 ) ) ;
#59 = FACE_OUTER_BOUND ( 'NONE', #127, .T. ) ;
#60 = ORIENTED_EDGE ( 'NONE', *, *, #7, .T. ) ;
#61 = CIRCLE ( 'NONE', #76, 0.5000000000000000000 ) ;
#62 = LENGTH_MEASURE_WITH_UNIT ( LENGTH_MEASURE( 0.02539999999999999897 ), #308 );
#63 = PRESENTATION_LAYER_ASSIGNMENT (  '', '', ( #244 ) ) ;
#64 = COLOUR_RGB ( '',1.000000000000000000, 0.000000000000000000, 0.000000000000000000 ) ;
#65 = FILL_AREA_STYLE ('',( #288 ) ) ;
#66 = PRODUCT_RELATED_PRODUCT_CATEGORY ( 'part', '', ( #49 ) ) ;
#67 = DIRECTION ( 'NONE',  ( -4.453261087808552747E-17, 1.000000000000000000, -0.000000000000000000 ) ) ;
#68 = STYLED_ITEM ( 'NONE', ( #247 ), #118 ) ;
#69 = LENGTH_MEASURE_WITH_UNIT ( LENGTH_MEASURE( 0.02539999999999999897 ), #54 );
#70 = CARTESIAN_POINT ( 'NONE',  ( -0.5000000000000000000, 4.250000000000000000, 0.000000000000000000 ) ) ;
#71 = DIRECTION ( 'NONE',  ( 0.000000000000000000, 0.000000000000000000, -1.000000000000000000 ) ) ;
#72 = DIRECTION ( 'NONE',  ( -1.000000000000000000, 0.000000000000000000, 0.000000000000000000 ) ) ;
#73 = EDGE_CURVE ( 'NONE', #84, #146, #89, .T. ) ;
#74 = CARTESIAN_POINT ( 'NONE',  ( 4.957883579047453271E-34, 4.250000000000000000, 0.000000000000000000 ) ) ;
#75 = DIRECTION ( 'NONE',  ( -1.000000000000000000, 0.000000000000000000, 0.000000000000000000 ) ) ;
#76 = AXIS2_PLACEMENT_3D ( 'NONE', #12, #93, #71 ) ;
#77 = FACE_OUTER_BOUND ( 'NONE', #46, .T. ) ;
#78 = CARTESIAN_POINT ( 'NONE',  ( 0.4999999999999999445, 7.000000000000000000, 6.123233995736767268E-17 ) ) ;
#79 = DIRECTION ( 'NONE',  ( -0.000000000000000000, -1.000000000000000000, -0.000000000000000000 ) ) ;
#80 = CARTESIAN_POINT ( 'NONE',  ( 0.000000000000000000, 0.000000000000000000, 0.000000000000000000 ) ) ;
#81 = FILL_AREA_STYLE_COLOUR ( '', #134 ) ;
#82 = ADVANCED_FACE ( 'NONE', ( #196 ), #192, .T. ) ;
#83 = CIRCLE ( 'NONE', #304, 0.5000000000000000000 ) ;
#84 = VERTEX_POINT ( 'NONE', #70 ) ;
#85 = PRESENTATION_LAYER_ASSIGNMENT (  '', '', ( #160 ) ) ;
#86 = CIRCLE ( 'NONE', #140, 0.5000000000000000000 ) ;
#87 = ORIENTED_EDGE ( 'NONE', *, *, #149, .F. ) ;
#88 = ORIENTED_EDGE ( 'NONE', *, *, #91, .T. ) ;
#89 = LINE ( 'NONE', #142, #220 ) ;
#90 = CARTESIAN_POINT ( 'NONE',  ( -1.224646799147351975E-16, 7.000000000000000000, 0.000000000000000000 ) ) ;
#91 = EDGE_CURVE ( 'NONE', #105, #84, #296, .T. ) ;
#92 = CARTESIAN_POINT ( 'NONE',  ( 6.123233995736766036E-17, 0.000000000000000000, 0.5000000000000000000 ) ) ;
#93 = DIRECTION ( 'NONE',  ( -0.000000000000000000, -1.000000000000000000, -0.000000000000000000 ) ) ;
#94 = FILL_AREA_STYLE_COLOUR ( '', #205 ) ;
#95 = MECHANICAL_DESIGN_GEOMETRIC_PRESENTATION_REPRESENTATION (  '', ( #160 ), #139 ) ;
#96 = STYLED_ITEM ( 'NONE', ( #214 ), #303 ) ;
#97 = PLANE ( 'NONE',  #270 ) ;
#98 = UNCERTAINTY_MEASURE_WITH_UNIT (LENGTH_MEASURE( 1.000000000000000082E-05 ), #188, 'distance_accuracy_value', 'NONE');
#99 = DIRECTION ( 'NONE',  ( -0.000000000000000000, -1.000000000000000000, -0.000000000000000000 ) ) ;
#100 = DIRECTION ( 'NONE',  ( -0.000000000000000000, -1.000000000000000000, -0.000000000000000000 ) ) ;
#101 = PRESENTATION_STYLE_ASSIGNMENT (( #131 ) ) ;
#102 = UNCERTAINTY_MEASURE_WITH_UNIT (LENGTH_MEASURE( 1.000000000000000082E-05 ), #36, 'distance_accuracy_value', 'NONE');
#103 = SURFACE_SIDE_STYLE ('',( #180 ) ) ;
#104 = DIRECTION ( 'NONE',  ( 0.000000000000000000, 0.000000000000000000, -1.000000000000000000 ) ) ;
#105 = VERTEX_POINT ( 'NONE', #166 ) ;
#106 = VECTOR ( 'NONE', #99, 39.37007874015748143 ) ;
#107 = ORIENTED_EDGE ( 'NONE', *, *, #110, .F. ) ;
#108 = AXIS2_PLACEMENT_3D ( 'NONE', #272, #79, #233 ) ;
#109 = UNCERTAINTY_MEASURE_WITH_UNIT (LENGTH_MEASURE( 1.000000000000000082E-05 ), #241, 'distance_accuracy_value', 'NONE');
#110 = EDGE_CURVE ( 'NONE', #84, #105, #83, .T. ) ;
#111 = LENGTH_MEASURE_WITH_UNIT ( LENGTH_MEASURE( 0.02539999999999999897 ), #126 );
#112 = ORIENTED_EDGE ( 'NONE', *, *, #266, .F. ) ;
#113 = FACE_OUTER_BOUND ( 'NONE', #16, .T. ) ;
#114 = FACE_OUTER_BOUND ( 'NONE', #154, .T. ) ;
#115 = LENGTH_MEASURE_WITH_UNIT ( LENGTH_MEASURE( 0.02539999999999999897 ), #297 );
#116 =( NAMED_UNIT ( * ) PLANE_ANGLE_UNIT ( ) SI_UNIT ( $, .RADIAN. ) );
#117 = CARTESIAN_POINT ( 'NONE',  ( 0.000000000000000000, 4.250000000000000000, -0.5000000000000000000 ) ) ;
#118 = ADVANCED_FACE ( 'NONE', ( #10 ), #263, .T. ) ;
#119 = ADVANCED_BREP_SHAPE_REPRESENTATION ( '86072', ( #303, #2, #279 ), #156 ) ;
#120 = SURFACE_STYLE_FILL_AREA ( #143 ) ;
#121 = CARTESIAN_POINT ( 'NONE',  ( 0.000000000000000000, 0.000000000000000000, -0.5000000000000000000 ) ) ;
#122 = CARTESIAN_POINT ( 'NONE',  ( -0.5000000000000002220, 7.000000000000000000, 0.000000000000000000 ) ) ;
#123 =( GEOMETRIC_REPRESENTATION_CONTEXT ( 3 ) GLOBAL_UNCERTAINTY_ASSIGNED_CONTEXT ( ( #260 ) ) GLOBAL_UNIT_ASSIGNED_CONTEXT ( ( #195, #116, #200 ) ) REPRESENTATION_CONTEXT ( 'NONE', 'WORKASPACE' ) );
#124 = SURFACE_STYLE_USAGE ( .BOTH. , #30 ) ;
#125 = DIRECTION ( 'NONE',  ( 0.000000000000000000, -1.000000000000000000, -0.000000000000000000 ) ) ;
#126 =( LENGTH_UNIT ( ) NAMED_UNIT ( * ) SI_UNIT ( $, .METRE. ) );
#127 = EDGE_LOOP ( 'NONE', ( #87, #280, #301, #50 ) ) ;
#128 = CIRCLE ( 'NONE', #41, 0.5000000000000001110 ) ;
#129 = MECHANICAL_DESIGN_GEOMETRIC_PRESENTATION_REPRESENTATION (  '', ( #190 ), #123 ) ;
#130 = PRESENTATION_STYLE_ASSIGNMENT (( #37 ) ) ;
#131 = SURFACE_STYLE_USAGE ( .BOTH. , #103 ) ;
#132 = EDGE_CURVE ( 'NONE', #259, #152, #309, .T. ) ;
#133 = DIRECTION ( 'NONE',  ( 0.000000000000000000, 0.000000000000000000, 1.000000000000000000 ) ) ;
#134 = COLOUR_RGB ( '',0.7921568627450980005, 0.8196078431372548767, 0.9333333333333333481 ) ;
#135 = PRODUCT_DEFINITION_FORMATION_WITH_SPECIFIED_SOURCE ( 'ANY', '', #49, .NOT_KNOWN. ) ;
#136 = DIRECTION ( 'NONE',  ( 0.000000000000000000, 0.000000000000000000, -1.000000000000000000 ) ) ;
#137 =( LENGTH_UNIT ( ) NAMED_UNIT ( * ) SI_UNIT ( $, .METRE. ) );
#138 = FACE_OUTER_BOUND ( 'NONE', #19, .T. ) ;
#139 =( GEOMETRIC_REPRESENTATION_CONTEXT ( 3 ) GLOBAL_UNCERTAINTY_ASSIGNED_CONTEXT ( ( #157 ) ) GLOBAL_UNIT_ASSIGNED_CONTEXT ( ( #246, #56, #141 ) ) REPRESENTATION_CONTEXT ( 'NONE', 'WORKASPACE' ) );
#140 = AXIS2_PLACEMENT_3D ( 'NONE', #145, #292, #136 ) ;
#141 =( NAMED_UNIT ( * ) SI_UNIT ( $, .STERADIAN. ) SOLID_ANGLE_UNIT ( ) );
#142 = CARTESIAN_POINT ( 'NONE',  ( -0.5000000000000002220, 7.000000000000000000, 0.000000000000000000 ) ) ;
#143 = FILL_AREA_STYLE ('',( #29 ) ) ;
#144 = CYLINDRICAL_SURFACE ( 'NONE', #198, 0.5000000000000000000 ) ;
#145 = CARTESIAN_POINT ( 'NONE',  ( 0.000000000000000000, 0.000000000000000000, 0.000000000000000000 ) ) ;
#146 = VERTEX_POINT ( 'NONE', #122 ) ;
#147 = APPLICATION_CONTEXT ( 'automotive_design' ) ;
#148 = DIRECTION ( 'NONE',  ( 0.000000000000000000, 1.000000000000000000, 0.000000000000000000 ) ) ;
#149 = EDGE_CURVE ( 'NONE', #152, #40, #14, .T. ) ;
#150 = DIRECTION ( 'NONE',  ( 0.000000000000000000, -0.000000000000000000, 1.000000000000000000 ) ) ;
#151 = DIMENSIONAL_EXPONENTS ( 1.000000000000000000, 0.000000000000000000, 0.000000000000000000, 0.000000000000000000, 0.000000000000000000, 0.000000000000000000, 0.000000000000000000 ) ;
#152 = VERTEX_POINT ( 'NONE', #201 ) ;
#153 =( NAMED_UNIT ( * ) PLANE_ANGLE_UNIT ( ) SI_UNIT ( $, .RADIAN. ) );
#154 = EDGE_LOOP ( 'NONE', ( #305, #3, #257, #187 ) ) ;
#155 = AXIS2_PLACEMENT_3D ( 'NONE', #228, #67, #31 ) ;
#156 =( GEOMETRIC_REPRESENTATION_CONTEXT ( 3 ) GLOBAL_UNCERTAINTY_ASSIGNED_CONTEXT ( ( #109 ) ) GLOBAL_UNIT_ASSIGNED_CONTEXT ( ( #241, #213, #287 ) ) REPRESENTATION_CONTEXT ( 'NONE', 'WORKASPACE' ) );
#157 = UNCERTAINTY_MEASURE_WITH_UNIT (LENGTH_MEASURE( 1.000000000000000082E-05 ), #246, 'distance_accuracy_value', 'NONE');
#158 = ORIENTED_EDGE ( 'NONE', *, *, #226, .T. ) ;
#159 =( CONVERSION_BASED_UNIT ( 'INCH', #62 ) LENGTH_UNIT ( ) NAMED_UNIT ( #185 ) );
#160 = STYLED_ITEM ( 'NONE', ( #211 ), #2 ) ;
#161 = DIRECTION ( 'NONE',  ( 1.000000000000000000, 0.000000000000000000, 0.000000000000000000 ) ) ;
#162 =( GEOMETRIC_REPRESENTATION_CONTEXT ( 3 ) GLOBAL_UNCERTAINTY_ASSIGNED_CONTEXT ( ( #4 ) ) GLOBAL_UNIT_ASSIGNED_CONTEXT ( ( #20, #181, #274 ) ) REPRESENTATION_CONTEXT ( 'NONE', 'WORKASPACE' ) );
#163 = SHAPE_DEFINITION_REPRESENTATION ( #286, #119 ) ;
#164 = DIRECTION ( 'NONE',  ( -4.453261087808552747E-17, 1.000000000000000000, -0.000000000000000000 ) ) ;
#165 = COLOUR_RGB ( '',1.000000000000000000, 0.000000000000000000, 0.000000000000000000 ) ;
#166 = CARTESIAN_POINT ( 'NONE',  ( 0.5000000000000000000, 4.250000000000000000, 6.123233995736767268E-17 ) ) ;
#167 = EDGE_CURVE ( 'NONE', #40, #290, #86, .T. ) ;
#168 = SURFACE_STYLE_FILL_AREA ( #273 ) ;
#169 = MECHANICAL_DESIGN_GEOMETRIC_PRESENTATION_REPRESENTATION (  '', ( #6 ), #162 ) ;
#170 = SURFACE_SIDE_STYLE ('',( #250 ) ) ;
#171 = DIRECTION ( 'NONE',  ( -4.453261087808552747E-17, 1.000000000000000000, -0.000000000000000000 ) ) ;
#172 = CARTESIAN_POINT ( 'NONE',  ( 0.000000000000000000, 4.250000000000000000, 0.000000000000000000 ) ) ;
#173 = DIRECTION ( 'NONE',  ( -0.000000000000000000, -1.000000000000000000, -0.000000000000000000 ) ) ;
#174 = FILL_AREA_STYLE ('',( #81 ) ) ;
#175 = LENGTH_MEASURE_WITH_UNIT ( LENGTH_MEASURE( 0.02539999999999999897 ), #182 );
#176 = CARTESIAN_POINT ( 'NONE',  ( 0.000000000000000000, 0.000000000000000000, 0.000000000000000000 ) ) ;
#177 = VECTOR ( 'NONE', #173, 39.37007874015748143 ) ;
#178 = ORIENTED_EDGE ( 'NONE', *, *, #232, .F. ) ;
#179 = EDGE_CURVE ( 'NONE', #290, #40, #22, .T. ) ;
#180 = SURFACE_STYLE_FILL_AREA ( #38 ) ;
#181 =( NAMED_UNIT ( * ) PLANE_ANGLE_UNIT ( ) SI_UNIT ( $, .RADIAN. ) );
#182 =( LENGTH_UNIT ( ) NAMED_UNIT ( * ) SI_UNIT ( $, .METRE. ) );
#183 = ADVANCED_FACE ( 'NONE', ( #57 ), #15, .F. ) ;
#184 =( GEOMETRIC_REPRESENTATION_CONTEXT ( 3 ) GLOBAL_UNCERTAINTY_ASSIGNED_CONTEXT ( ( #98 ) ) GLOBAL_UNIT_ASSIGNED_CONTEXT ( ( #188, #33, #237 ) ) REPRESENTATION_CONTEXT ( 'NONE', 'WORKASPACE' ) );
#185 = DIMENSIONAL_EXPONENTS ( 1.000000000000000000, 0.000000000000000000, 0.000000000000000000, 0.000000000000000000, 0.000000000000000000, 0.000000000000000000, 0.000000000000000000 ) ;
#186 = ORIENTED_EDGE ( 'NONE', *, *, #216, .F. ) ;
#187 = ORIENTED_EDGE ( 'NONE', *, *, #73, .F. ) ;
#188 =( CONVERSION_BASED_UNIT ( 'INCH', #69 ) LENGTH_UNIT ( ) NAMED_UNIT ( #281 ) );
#189 = CARTESIAN_POINT ( 'NONE',  ( -1.224646799147351975E-16, 7.000000000000000000, 0.000000000000000000 ) ) ;
#190 = STYLED_ITEM ( 'NONE', ( #55 ), #221 ) ;
#191 = SURFACE_STYLE_FILL_AREA ( #65 ) ;
#192 = CYLINDRICAL_SURFACE ( 'NONE', #249, 0.5000000000000001110 ) ;
#193 = DIRECTION ( 'NONE',  ( -1.000000000000000000, 0.000000000000000000, 0.000000000000000000 ) ) ;
#194 = CARTESIAN_POINT ( 'NONE',  ( 0.5000000000000000000, 7.000000000000000000, 6.123233995736767268E-17 ) ) ;
#195 =( CONVERSION_BASED_UNIT ( 'INCH', #115 ) LENGTH_UNIT ( ) NAMED_UNIT ( #240 ) );
#196 = FACE_OUTER_BOUND ( 'NONE', #43, .T. ) ;
#197 = DIRECTION ( 'NONE',  ( 4.453261087808552747E-17, -1.000000000000000000, 0.000000000000000000 ) ) ;
#198 = AXIS2_PLACEMENT_3D ( 'NONE', #176, #9, #227 ) ;
#199 = CYLINDRICAL_SURFACE ( 'NONE', #282, 0.5000000000000001110 ) ;
#200 =( NAMED_UNIT ( * ) SI_UNIT ( $, .STERADIAN. ) SOLID_ANGLE_UNIT ( ) );
#201 = CARTESIAN_POINT ( 'NONE',  ( 6.123233995736766036E-17, 4.250000000000000000, 0.5000000000000000000 ) ) ;
#202 = LINE ( 'NONE', #294, #177 ) ;
#203 = EDGE_LOOP ( 'NONE', ( #215, #235, #208, #186 ) ) ;
#204 = CARTESIAN_POINT ( 'NONE',  ( 6.123233995736766036E-17, 0.000000000000000000, 0.5000000000000000000 ) ) ;
#205 = COLOUR_RGB ( '',1.000000000000000000, 0.000000000000000000, 0.000000000000000000 ) ;
#206 = AXIS2_PLACEMENT_3D ( 'NONE', #80, #100, #298 ) ;
#207 = CARTESIAN_POINT ( 'NONE',  ( 0.000000000000000000, 0.000000000000000000, 0.000000000000000000 ) ) ;
#208 = ORIENTED_EDGE ( 'NONE', *, *, #179, .F. ) ;
#209 = DIMENSIONAL_EXPONENTS ( 1.000000000000000000, 0.000000000000000000, 0.000000000000000000, 0.000000000000000000, 0.000000000000000000, 0.000000000000000000, 0.000000000000000000 ) ;
#210 = EDGE_LOOP ( 'NONE', ( #107, #242 ) ) ;
#211 = PRESENTATION_STYLE_ASSIGNMENT (( #21 ) ) ;
#212 = MECHANICAL_DESIGN_GEOMETRIC_PRESENTATION_REPRESENTATION (  '', ( #244 ), #278 ) ;
#213 =( NAMED_UNIT ( * ) PLANE_ANGLE_UNIT ( ) SI_UNIT ( $, .RADIAN. ) );
#214 = PRESENTATION_STYLE_ASSIGNMENT (( #238 ) ) ;
#215 = ORIENTED_EDGE ( 'NONE', *, *, #132, .T. ) ;
#216 = EDGE_CURVE ( 'NONE', #259, #290, #202, .T. ) ;
#217 = ORIENTED_EDGE ( 'NONE', *, *, #73, .T. ) ;
#218 = PRODUCT_CONTEXT ( 'NONE', #262, 'mechanical' ) ;
#219 = ORIENTED_EDGE ( 'NONE', *, *, #179, .T. ) ;
#220 = VECTOR ( 'NONE', #268, 39.37007874015748143 ) ;
#221 = ADVANCED_FACE ( 'NONE', ( #59 ), #144, .T. ) ;
#222 = DIRECTION ( 'NONE',  ( -4.453261087808552747E-17, 1.000000000000000000, -0.000000000000000000 ) ) ;
#223 = DIRECTION ( 'NONE',  ( -1.000000000000000000, 0.000000000000000000, 0.000000000000000000 ) ) ;
#224 = PRESENTATION_LAYER_ASSIGNMENT (  '', '', ( #6 ) ) ;
#225 = CARTESIAN_POINT ( 'NONE',  ( 0.000000000000000000, 4.250000000000000000, 0.000000000000000000 ) ) ;
#226 = EDGE_CURVE ( 'NONE', #5, #146, #230, .T. ) ;
#227 = DIRECTION ( 'NONE',  ( 0.000000000000000000, 0.000000000000000000, -1.000000000000000000 ) ) ;
#228 = CARTESIAN_POINT ( 'NONE',  ( 0.000000000000000000, 4.250000000000000000, 0.000000000000000000 ) ) ;
#229 = SURFACE_SIDE_STYLE ('',( #120 ) ) ;
#230 = CIRCLE ( 'NONE', #34, 0.5000000000000001110 ) ;
#231 = DIRECTION ( 'NONE',  ( -4.453261087808552747E-17, 1.000000000000000000, -0.000000000000000000 ) ) ;
#232 = EDGE_CURVE ( 'NONE', #152, #259, #61, .T. ) ;
#233 = DIRECTION ( 'NONE',  ( 0.000000000000000000, 0.000000000000000000, -1.000000000000000000 ) ) ;
#234 =( NAMED_UNIT ( * ) SI_UNIT ( $, .STERADIAN. ) SOLID_ANGLE_UNIT ( ) );
#235 = ORIENTED_EDGE ( 'NONE', *, *, #149, .T. ) ;
#236 =( LENGTH_UNIT ( ) NAMED_UNIT ( * ) SI_UNIT ( $, .METRE. ) );
#237 =( NAMED_UNIT ( * ) SI_UNIT ( $, .STERADIAN. ) SOLID_ANGLE_UNIT ( ) );
#238 = SURFACE_STYLE_USAGE ( .BOTH. , #284 ) ;
#239 = AXIS2_PLACEMENT_3D ( 'NONE', #300, #148, #150 ) ;
#240 = DIMENSIONAL_EXPONENTS ( 1.000000000000000000, 0.000000000000000000, 0.000000000000000000, 0.000000000000000000, 0.000000000000000000, 0.000000000000000000, 0.000000000000000000 ) ;
#241 =( CONVERSION_BASED_UNIT ( 'INCH', #111 ) LENGTH_UNIT ( ) NAMED_UNIT ( #261 ) );
#242 = ORIENTED_EDGE ( 'NONE', *, *, #91, .F. ) ;
#243 = ADVANCED_FACE ( 'NONE', ( #138 ), #97, .F. ) ;
#244 = STYLED_ITEM ( 'NONE', ( #130 ), #252 ) ;
#245 = AXIS2_PLACEMENT_3D ( 'NONE', #207, #125, #299 ) ;
#246 =( CONVERSION_BASED_UNIT ( 'INCH', #11 ) LENGTH_UNIT ( ) NAMED_UNIT ( #24 ) );
#247 = PRESENTATION_STYLE_ASSIGNMENT (( #271 ) ) ;
#248 = DIRECTION ( 'NONE',  ( 1.000000000000000000, 4.453261087808552747E-17, 0.000000000000000000 ) ) ;
#249 = AXIS2_PLACEMENT_3D ( 'NONE', #291, #52, #75 ) ;
#250 = SURFACE_STYLE_FILL_AREA ( #51 ) ;
#251 = DIRECTION ( 'NONE',  ( -1.000000000000000000, 0.000000000000000000, 0.000000000000000000 ) ) ;
#252 = ADVANCED_FACE ( 'NONE', ( #77 ), #39, .T. ) ;
#253 = FILL_AREA_STYLE_COLOUR ( '', #8 ) ;
#254 = LINE ( 'NONE', #78, #256 ) ;
#255 =( NAMED_UNIT ( * ) SI_UNIT ( $, .STERADIAN. ) SOLID_ANGLE_UNIT ( ) );
#256 = VECTOR ( 'NONE', #171, 39.37007874015748143 ) ;
#257 = ORIENTED_EDGE ( 'NONE', *, *, #7, .F. ) ;
#258 = APPLICATION_PROTOCOL_DEFINITION ( 'draft international standard', 'automotive_design', 1998, #262 ) ;
#259 = VERTEX_POINT ( 'NONE', #117 ) ;
#260 = UNCERTAINTY_MEASURE_WITH_UNIT (LENGTH_MEASURE( 1.000000000000000082E-05 ), #195, 'distance_accuracy_value', 'NONE');
#261 = DIMENSIONAL_EXPONENTS ( 1.000000000000000000, 0.000000000000000000, 0.000000000000000000, 0.000000000000000000, 0.000000000000000000, 0.000000000000000000, 0.000000000000000000 ) ;
#262 = APPLICATION_CONTEXT ( 'automotive_design' ) ;
#263 = CYLINDRICAL_SURFACE ( 'NONE', #108, 0.5000000000000000000 ) ;
#264 = CLOSED_SHELL ( 'NONE', ( #26, #183, #82, #243 ) ) ;
#265 = PRESENTATION_LAYER_ASSIGNMENT (  '', '', ( #190 ) ) ;
#266 = EDGE_CURVE ( 'NONE', #105, #5, #254, .T. ) ;
#267 = DIRECTION ( 'NONE',  ( -1.000000000000000000, -4.453261087808552747E-17, 0.000000000000000000 ) ) ;
#268 = DIRECTION ( 'NONE',  ( -4.453261087808552747E-17, 1.000000000000000000, -0.000000000000000000 ) ) ;
#269 = DIRECTION ( 'NONE',  ( -4.453261087808552747E-17, 1.000000000000000000, 0.000000000000000000 ) ) ;
#270 = AXIS2_PLACEMENT_3D ( 'NONE', #295, #197, #248 ) ;
#271 = SURFACE_STYLE_USAGE ( .BOTH. , #170 ) ;
#272 = CARTESIAN_POINT ( 'NONE',  ( 0.000000000000000000, 0.000000000000000000, 0.000000000000000000 ) ) ;
#273 = FILL_AREA_STYLE ('',( #276 ) ) ;
#274 =( NAMED_UNIT ( * ) SI_UNIT ( $, .STERADIAN. ) SOLID_ANGLE_UNIT ( ) );
#275 = SURFACE_STYLE_FILL_AREA ( #174 ) ;
#276 = FILL_AREA_STYLE_COLOUR ( '', #165 ) ;
#277 = UNCERTAINTY_MEASURE_WITH_UNIT (LENGTH_MEASURE( 1.000000000000000082E-05 ), #159, 'distance_accuracy_value', 'NONE');
#278 =( GEOMETRIC_REPRESENTATION_CONTEXT ( 3 ) GLOBAL_UNCERTAINTY_ASSIGNED_CONTEXT ( ( #277 ) ) GLOBAL_UNIT_ASSIGNED_CONTEXT ( ( #159, #302, #234 ) ) REPRESENTATION_CONTEXT ( 'NONE', 'WORKASPACE' ) );
#279 = AXIS2_PLACEMENT_3D ( 'NONE', #45, #133, #161 ) ;
#280 = ORIENTED_EDGE ( 'NONE', *, *, #232, .T. ) ;
#281 = DIMENSIONAL_EXPONENTS ( 1.000000000000000000, 0.000000000000000000, 0.000000000000000000, 0.000000000000000000, 0.000000000000000000, 0.000000000000000000, 0.000000000000000000 ) ;
#282 = AXIS2_PLACEMENT_3D ( 'NONE', #27, #164, #72 ) ;
#283 = MECHANICAL_DESIGN_GEOMETRIC_PRESENTATION_REPRESENTATION (  '', ( #96 ), #184 ) ;
#284 = SURFACE_SIDE_STYLE ('',( #275 ) ) ;
#285 = ORIENTED_EDGE ( 'NONE', *, *, #132, .F. ) ;
#286 = PRODUCT_DEFINITION_SHAPE ( 'NONE', 'NONE',  #32 ) ;
#287 =( NAMED_UNIT ( * ) SI_UNIT ( $, .STERADIAN. ) SOLID_ANGLE_UNIT ( ) );
#288 = FILL_AREA_STYLE_COLOUR ( '', #28 ) ;
#289 = PRESENTATION_LAYER_ASSIGNMENT (  '', '', ( #96 ) ) ;
#290 = VERTEX_POINT ( 'NONE', #121 ) ;
#291 = CARTESIAN_POINT ( 'NONE',  ( -1.224646799147351975E-16, 7.000000000000000000, 0.000000000000000000 ) ) ;
#292 = DIRECTION ( 'NONE',  ( -0.000000000000000000, -1.000000000000000000, -0.000000000000000000 ) ) ;
#293 = DIRECTION ( 'NONE',  ( -4.453261087808552747E-17, 1.000000000000000000, -0.000000000000000000 ) ) ;
#294 = CARTESIAN_POINT ( 'NONE',  ( 0.000000000000000000, 0.000000000000000000, -0.5000000000000000000 ) ) ;
#295 = CARTESIAN_POINT ( 'NONE',  ( 0.5000000000000000000, 7.000000000000000000, 0.000000000000000000 ) ) ;
#296 = CIRCLE ( 'NONE', #155, 0.5000000000000000000 ) ;
#297 =( LENGTH_UNIT ( ) NAMED_UNIT ( * ) SI_UNIT ( $, .METRE. ) );
#298 = DIRECTION ( 'NONE',  ( 0.000000000000000000, 0.000000000000000000, -1.000000000000000000 ) ) ;
#299 = DIRECTION ( 'NONE',  ( 0.000000000000000000, 0.000000000000000000, -1.000000000000000000 ) ) ;
#300 = CARTESIAN_POINT ( 'NONE',  ( 0.000000000000000000, 4.250000000000000000, 0.000000000000000000 ) ) ;
#301 = ORIENTED_EDGE ( 'NONE', *, *, #216, .T. ) ;
#302 =( NAMED_UNIT ( * ) PLANE_ANGLE_UNIT ( ) SI_UNIT ( $, .RADIAN. ) );
#303 = MANIFOLD_SOLID_BREP ( 'Revolve - Cutting Edge', #17 ) ;
#304 = AXIS2_PLACEMENT_3D ( 'NONE', #225, #293, #223 ) ;
#305 = ORIENTED_EDGE ( 'NONE', *, *, #110, .T. ) ;
#306 = ADVANCED_FACE ( 'NONE', ( #113 ), #35, .T. ) ;
#307 = ORIENTED_EDGE ( 'NONE', *, *, #167, .T. ) ;
#308 =( LENGTH_UNIT ( ) NAMED_UNIT ( * ) SI_UNIT ( $, .METRE. ) );
#309 = CIRCLE ( 'NONE', #42, 0.5000000000000000000 ) ;
ENDSEC;
END-ISO-10303-21;
