ISO-10303-21;
HEADER;
FILE_DESCRIPTION (( 'STEP AP214' ),
    '1' );
FILE_NAME ('17240.STEP',
    '2023-06-30T21:53:03',
    ( '' ),
    ( '' ),
    'SwSTEP 2.0',
    'SolidWorks 2023',
    '' );
FILE_SCHEMA (( 'AUTOMOTIVE_DESIGN' ));
ENDSEC;

DATA;
#1 = LENGTH_MEASURE_WITH_UNIT ( LENGTH_MEASURE( 0.02539999999999999897 ), #269 );
#2 = COLOUR_RGB ( '',0.7921568627450980005, 0.8196078431372548767, 0.9333333333333333481 ) ;
#3 = DIRECTION ( 'NONE',  ( 1.225583758747666601E-16, -1.000000000000000000, 0.000000000000000000 ) ) ;
#4 = EDGE_LOOP ( 'NONE', ( #149, #357, #330, #307, #55 ) ) ;
#5 = ORIENTED_EDGE ( 'NONE', *, *, #264, .T. ) ;
#6 = AXIS2_PLACEMENT_3D ( 'NONE', #177, #21, #238 ) ;
#7 = DIRECTION ( 'NONE',  ( -1.225583758747666601E-16, 1.000000000000000000, -0.000000000000000000 ) ) ;
#8 = VERTEX_POINT ( 'NONE', #304 ) ;
#9 = DIRECTION ( 'NONE',  ( 0.000000000000000000, 0.000000000000000000, -1.000000000000000000 ) ) ;
#10 =( CONVERSION_BASED_UNIT ( 'INCH', #164 ) LENGTH_UNIT ( ) NAMED_UNIT ( #180 ) );
#11 =( NAMED_UNIT ( * ) PLANE_ANGLE_UNIT ( ) SI_UNIT ( $, .RADIAN. ) );
#12 = ORIENTED_EDGE ( 'NONE', *, *, #342, .T. ) ;
#13 = AXIS2_PLACEMENT_3D ( 'NONE', #102, #312, #44 ) ;
#14 = AXIS2_PLACEMENT_3D ( 'NONE', #306, #300, #93 ) ;
#15 = CYLINDRICAL_SURFACE ( 'NONE', #99, 0.1562499999999998057 ) ;
#16 = CARTESIAN_POINT ( 'NONE',  ( 0.1562499999999998612, 2.000000000000000000, 1.913510623667736998E-17 ) ) ;
#17 = DIRECTION ( 'NONE',  ( -0.000000000000000000, -1.000000000000000000, -0.000000000000000000 ) ) ;
#18 = STYLED_ITEM ( 'NONE', ( #60 ), #53 ) ;
#19 = STYLED_ITEM ( 'NONE', ( #344 ), #136 ) ;
#20 = DIRECTION ( 'NONE',  ( 0.000000000000000000, 0.000000000000000000, -1.000000000000000000 ) ) ;
#21 = DIRECTION ( 'NONE',  ( -1.225583758747666601E-16, 1.000000000000000000, -0.000000000000000000 ) ) ;
#22 = DIRECTION ( 'NONE',  ( -1.000000000000000000, 0.000000000000000000, 0.000000000000000000 ) ) ;
#23 = CIRCLE ( 'NONE', #250, 0.1562499999999996947 ) ;
#24 = CIRCLE ( 'NONE', #169, 0.1562500000000000000 ) ;
#25 = UNCERTAINTY_MEASURE_WITH_UNIT (LENGTH_MEASURE( 1.000000000000000082E-05 ), #245, 'distance_accuracy_value', 'NONE');
#26 = PRODUCT_DEFINITION ( 'UNKNOWN', '', #162, #246 ) ;
#27 = DIRECTION ( 'NONE',  ( -1.000000000000000000, 0.000000000000000000, 0.000000000000000000 ) ) ;
#28 =( CONVERSION_BASED_UNIT ( 'INCH', #266 ) LENGTH_UNIT ( ) NAMED_UNIT ( #173 ) );
#29 = PRESENTATION_LAYER_ASSIGNMENT (  '', '', ( #208 ) ) ;
#30 = CARTESIAN_POINT ( 'NONE',  ( -0.1562499999999994726, 0.4374999999999998890, 0.000000000000000000 ) ) ;
#31 = ORIENTED_EDGE ( 'NONE', *, *, #90, .T. ) ;
#32 = APPLICATION_PROTOCOL_DEFINITION ( 'draft international standard', 'automotive_design', 1998, #120 ) ;
#33 = APPLICATION_CONTEXT ( 'automotive_design' ) ;
#34 = FILL_AREA_STYLE_COLOUR ( '', #77 ) ;
#35 = ORIENTED_EDGE ( 'NONE', *, *, #172, .F. ) ;
#36 = DIRECTION ( 'NONE',  ( -1.225583758747666601E-16, 1.000000000000000000, -0.000000000000000000 ) ) ;
#37 = VECTOR ( 'NONE', #79, 39.37007874015748143 ) ;
#38 = CYLINDRICAL_SURFACE ( 'NONE', #321, 0.1562500000000000000 ) ;
#39 = ORIENTED_EDGE ( 'NONE', *, *, #189, .T. ) ;
#40 =( CONVERSION_BASED_UNIT ( 'INCH', #232 ) LENGTH_UNIT ( ) NAMED_UNIT ( #78 ) );
#41 =( NAMED_UNIT ( * ) SI_UNIT ( $, .STERADIAN. ) SOLID_ANGLE_UNIT ( ) );
#42 = PRESENTATION_STYLE_ASSIGNMENT (( #133 ) ) ;
#43 = AXIS2_PLACEMENT_3D ( 'NONE', #49, #150, #346 ) ;
#44 = DIRECTION ( 'NONE',  ( -1.000000000000000000, -1.225583758747666601E-16, 0.000000000000000000 ) ) ;
#45 = DIRECTION ( 'NONE',  ( -0.000000000000000000, -1.000000000000000000, -0.000000000000000000 ) ) ;
#46 = DIRECTION ( 'NONE',  ( -1.225583758747666601E-16, 1.000000000000000000, -0.000000000000000000 ) ) ;
#47 = VECTOR ( 'NONE', #270, 39.37007874015748143 ) ;
#48 = FILL_AREA_STYLE_COLOUR ( '', #80 ) ;
#49 = CARTESIAN_POINT ( 'NONE',  ( -1.913510623667739771E-17, 0.1562500000000000278, 0.000000000000000000 ) ) ;
#50 = CYLINDRICAL_SURFACE ( 'NONE', #176, 0.1562499999999998057 ) ;
#51 =( GEOMETRIC_REPRESENTATION_CONTEXT ( 3 ) GLOBAL_UNCERTAINTY_ASSIGNED_CONTEXT ( ( #181 ) ) GLOBAL_UNIT_ASSIGNED_CONTEXT ( ( #204, #175, #234 ) ) REPRESENTATION_CONTEXT ( 'NONE', 'WORKASPACE' ) );
#52 = STYLED_ITEM ( 'NONE', ( #42 ), #345 ) ;
#53 = ADVANCED_FACE ( 'NONE', ( #158 ), #38, .T. ) ;
#54 = LINE ( 'NONE', #152, #47 ) ;
#55 = ORIENTED_EDGE ( 'NONE', *, *, #178, .F. ) ;
#56 = MECHANICAL_DESIGN_GEOMETRIC_PRESENTATION_REPRESENTATION (  '', ( #286 ), #51 ) ;
#57 = AXIS2_PLACEMENT_3D ( 'NONE', #68, #74, #201 ) ;
#58 = VERTEX_POINT ( 'NONE', #196 ) ;
#59 = PRODUCT ( '17240', '17240', '', ( #144 ) ) ;
#60 = PRESENTATION_STYLE_ASSIGNMENT (( #251 ) ) ;
#61 = LENGTH_MEASURE_WITH_UNIT ( LENGTH_MEASURE( 0.02539999999999999897 ), #216 );
#62 =( LENGTH_UNIT ( ) NAMED_UNIT ( * ) SI_UNIT ( $, .METRE. ) );
#63 = PRESENTATION_LAYER_ASSIGNMENT (  '', '', ( #18 ) ) ;
#64 = CIRCLE ( 'NONE', #313, 0.1562499999999999722 ) ;
#65 = FACE_OUTER_BOUND ( 'NONE', #282, .T. ) ;
#66 = ADVANCED_FACE ( 'NONE', ( #287 ), #98, .F. ) ;
#67 = ORIENTED_EDGE ( 'NONE', *, *, #297, .F. ) ;
#68 = CARTESIAN_POINT ( 'NONE',  ( -1.913510623667739771E-17, 0.1562500000000000278, 0.000000000000000000 ) ) ;
#69 = EDGE_CURVE ( 'NONE', #248, #301, #64, .T. ) ;
#70 = PRESENTATION_STYLE_ASSIGNMENT (( #337 ) ) ;
#71 = SURFACE_SIDE_STYLE ('',( #358 ) ) ;
#72 =( NAMED_UNIT ( * ) SI_UNIT ( $, .STERADIAN. ) SOLID_ANGLE_UNIT ( ) );
#73 = CARTESIAN_POINT ( 'NONE',  ( 0.000000000000000000, 0.4375000000000000000, 0.000000000000000000 ) ) ;
#74 = DIRECTION ( 'NONE',  ( 0.000000000000000000, 0.000000000000000000, 1.000000000000000000 ) ) ;
#75 =( GEOMETRIC_REPRESENTATION_CONTEXT ( 3 ) GLOBAL_UNCERTAINTY_ASSIGNED_CONTEXT ( ( #296 ) ) GLOBAL_UNIT_ASSIGNED_CONTEXT ( ( #10, #333, #41 ) ) REPRESENTATION_CONTEXT ( 'NONE', 'WORKASPACE' ) );
#76 =( NAMED_UNIT ( * ) SI_UNIT ( $, .STERADIAN. ) SOLID_ANGLE_UNIT ( ) );
#77 = COLOUR_RGB ( '',0.7921568627450980005, 0.8196078431372548767, 0.9333333333333333481 ) ;
#78 = DIMENSIONAL_EXPONENTS ( 1.000000000000000000, 0.000000000000000000, 0.000000000000000000, 0.000000000000000000, 0.000000000000000000, 0.000000000000000000, 0.000000000000000000 ) ;
#79 = DIRECTION ( 'NONE',  ( -1.225583758747666601E-16, 1.000000000000000000, -0.000000000000000000 ) ) ;
#80 = COLOUR_RGB ( '',1.000000000000000000, 0.000000000000000000, 0.000000000000000000 ) ;
#81 = EDGE_LOOP ( 'NONE', ( #309, #328, #12, #85 ) ) ;
#82 = PLANE ( 'NONE',  #153 ) ;
#83 = SURFACE_SIDE_STYLE ('',( #88 ) ) ;
#84 = ADVANCED_BREP_SHAPE_REPRESENTATION ( '17240', ( #345, #228, #299 ), #326 ) ;
#85 = ORIENTED_EDGE ( 'NONE', *, *, #172, .T. ) ;
#86 = AXIS2_PLACEMENT_3D ( 'NONE', #111, #293, #373 ) ;
#87 =( GEOMETRIC_REPRESENTATION_CONTEXT ( 3 ) GLOBAL_UNCERTAINTY_ASSIGNED_CONTEXT ( ( #212 ) ) GLOBAL_UNIT_ASSIGNED_CONTEXT ( ( #40, #170, #72 ) ) REPRESENTATION_CONTEXT ( 'NONE', 'WORKASPACE' ) );
#88 = SURFACE_STYLE_FILL_AREA ( #356 ) ;
#89 = EDGE_LOOP ( 'NONE', ( #359, #132, #39, #331 ) ) ;
#90 = EDGE_CURVE ( 'NONE', #355, #257, #167, .T. ) ;
#91 = FILL_AREA_STYLE_COLOUR ( '', #127 ) ;
#92 = ORIENTED_EDGE ( 'NONE', *, *, #122, .F. ) ;
#93 = DIRECTION ( 'NONE',  ( 0.000000000000000000, 0.000000000000000000, -1.000000000000000000 ) ) ;
#94 = PRESENTATION_LAYER_ASSIGNMENT (  '', '', ( #147 ) ) ;
#95 = ORIENTED_EDGE ( 'NONE', *, *, #225, .T. ) ;
#96 =( CONVERSION_BASED_UNIT ( 'INCH', #195 ) LENGTH_UNIT ( ) NAMED_UNIT ( #107 ) );
#97 = FILL_AREA_STYLE_COLOUR ( '', #322 ) ;
#98 = PLANE ( 'NONE',  #13 ) ;
#99 = AXIS2_PLACEMENT_3D ( 'NONE', #137, #46, #134 ) ;
#100 = SPHERICAL_SURFACE ( 'NONE', #57, 0.1562500000000000278 ) ;
#101 = VECTOR ( 'NONE', #128, 39.37007874015748143 ) ;
#102 = CARTESIAN_POINT ( 'NONE',  ( 2.527298022616905467E-16, 0.4375000000000000000, 0.000000000000000000 ) ) ;
#103 = SURFACE_STYLE_USAGE ( .BOTH. , #197 ) ;
#104 = DIRECTION ( 'NONE',  ( 0.000000000000000000, -0.000000000000000000, 1.000000000000000000 ) ) ;
#105 = SHAPE_DEFINITION_REPRESENTATION ( #219, #84 ) ;
#106 = FILL_AREA_STYLE_COLOUR ( '', #368 ) ;
#107 = DIMENSIONAL_EXPONENTS ( 1.000000000000000000, 0.000000000000000000, 0.000000000000000000, 0.000000000000000000, 0.000000000000000000, 0.000000000000000000, 0.000000000000000000 ) ;
#108 = DIRECTION ( 'NONE',  ( 1.000000000000000000, 0.000000000000000000, 0.000000000000000000 ) ) ;
#109 = EDGE_CURVE ( 'NONE', #278, #221, #213, .T. ) ;
#110 = MECHANICAL_DESIGN_GEOMETRIC_PRESENTATION_REPRESENTATION (  '', ( #19 ), #224 ) ;
#111 = CARTESIAN_POINT ( 'NONE',  ( -1.913510623667739771E-17, 0.1562500000000000278, 0.000000000000000000 ) ) ;
#112 = STYLED_ITEM ( 'NONE', ( #229 ), #360 ) ;
#113 = SPHERICAL_SURFACE ( 'NONE', #86, 0.1562500000000000278 ) ;
#114 = DIRECTION ( 'NONE',  ( -1.000000000000000000, 0.000000000000000000, 0.000000000000000000 ) ) ;
#115 = ORIENTED_EDGE ( 'NONE', *, *, #305, .F. ) ;
#116 = ADVANCED_FACE ( 'NONE', ( #290 ), #15, .T. ) ;
#117 =( CONVERSION_BASED_UNIT ( 'INCH', #1 ) LENGTH_UNIT ( ) NAMED_UNIT ( #263 ) );
#118 = MECHANICAL_DESIGN_GEOMETRIC_PRESENTATION_REPRESENTATION (  '', ( #18 ), #75 ) ;
#119 = CIRCLE ( 'NONE', #141, 0.1562499999999999167 ) ;
#120 = APPLICATION_CONTEXT ( 'automotive_design' ) ;
#121 = UNCERTAINTY_MEASURE_WITH_UNIT (LENGTH_MEASURE( 1.000000000000000082E-05 ), #117, 'distance_accuracy_value', 'NONE');
#122 = EDGE_CURVE ( 'NONE', #221, #8, #236, .T. ) ;
#123 = LINE ( 'NONE', #281, #101 ) ;
#124 = ORIENTED_EDGE ( 'NONE', *, *, #139, .F. ) ;
#125 = CARTESIAN_POINT ( 'NONE',  ( 0.1562499999999999722, 2.000000000000000000, 0.000000000000000000 ) ) ;
#126 = SURFACE_STYLE_FILL_AREA ( #166 ) ;
#127 = COLOUR_RGB ( '',1.000000000000000000, 0.000000000000000000, 0.000000000000000000 ) ;
#128 = DIRECTION ( 'NONE',  ( -0.000000000000000000, -1.000000000000000000, -0.000000000000000000 ) ) ;
#129 = ORIENTED_EDGE ( 'NONE', *, *, #69, .T. ) ;
#130 = DIRECTION ( 'NONE',  ( -1.000000000000000000, 0.000000000000000000, 0.000000000000000000 ) ) ;
#131 = ADVANCED_FACE ( 'NONE', ( #310 ), #207, .T. ) ;
#132 = ORIENTED_EDGE ( 'NONE', *, *, #267, .T. ) ;
#133 = SURFACE_STYLE_USAGE ( .BOTH. , #71 ) ;
#134 = DIRECTION ( 'NONE',  ( -1.000000000000000000, 0.000000000000000000, 0.000000000000000000 ) ) ;
#135 = LENGTH_MEASURE_WITH_UNIT ( LENGTH_MEASURE( 0.02539999999999999897 ), #314 );
#136 = ADVANCED_FACE ( 'NONE', ( #316 ), #113, .T. ) ;
#137 = CARTESIAN_POINT ( 'NONE',  ( 6.123233995736766036E-17, 2.000000000000000000, 0.000000000000000000 ) ) ;
#138 =( NAMED_UNIT ( * ) SI_UNIT ( $, .STERADIAN. ) SOLID_ANGLE_UNIT ( ) );
#139 = EDGE_CURVE ( 'NONE', #188, #257, #294, .T. ) ;
#140 = CARTESIAN_POINT ( 'NONE',  ( 0.000000000000000000, 0.1562500000000000833, 0.000000000000000000 ) ) ;
#141 = AXIS2_PLACEMENT_3D ( 'NONE', #183, #291, #27 ) ;
#142 =( LENGTH_UNIT ( ) NAMED_UNIT ( * ) SI_UNIT ( $, .METRE. ) );
#143 = CARTESIAN_POINT ( 'NONE',  ( 0.000000000000000000, 0.4375000000000000000, 0.000000000000000000 ) ) ;
#144 = PRODUCT_CONTEXT ( 'NONE', #33, 'mechanical' ) ;
#145 = DIMENSIONAL_EXPONENTS ( 1.000000000000000000, 0.000000000000000000, 0.000000000000000000, 0.000000000000000000, 0.000000000000000000, 0.000000000000000000, 0.000000000000000000 ) ;
#146 = CARTESIAN_POINT ( 'NONE',  ( -0.1562500000000000278, 0.1562500000000000833, 1.913510623667739463E-17 ) ) ;
#147 = STYLED_ITEM ( 'NONE', ( #215 ), #228 ) ;
#148 = DIRECTION ( 'NONE',  ( -1.225583758747666601E-16, 1.000000000000000000, -0.000000000000000000 ) ) ;
#149 = ORIENTED_EDGE ( 'NONE', *, *, #366, .T. ) ;
#150 = DIRECTION ( 'NONE',  ( 1.224646799147353207E-16, -0.000000000000000000, 1.000000000000000000 ) ) ;
#151 = ADVANCED_FACE ( 'NONE', ( #243 ), #50, .T. ) ;
#152 = CARTESIAN_POINT ( 'NONE',  ( 0.000000000000000000, 0.000000000000000000, -0.1562500000000000000 ) ) ;
#153 = AXIS2_PLACEMENT_3D ( 'NONE', #125, #3, #327 ) ;
#154 = EDGE_LOOP ( 'NONE', ( #115, #129, #272, #92, #160 ) ) ;
#155 = CIRCLE ( 'NONE', #200, 0.1562499999999999722 ) ;
#156 = CARTESIAN_POINT ( 'NONE',  ( 2.527298022616905960E-16, 0.4374999999999998890, 0.000000000000000000 ) ) ;
#157 = ORIENTED_EDGE ( 'NONE', *, *, #69, .F. ) ;
#158 = FACE_OUTER_BOUND ( 'NONE', #4, .T. ) ;
#159 = DIRECTION ( 'NONE',  ( -1.000000000000000000, 0.000000000000000000, 0.000000000000000000 ) ) ;
#160 = ORIENTED_EDGE ( 'NONE', *, *, #109, .F. ) ;
#161 = AXIS2_PLACEMENT_3D ( 'NONE', #140, #17, #171 ) ;
#162 = PRODUCT_DEFINITION_FORMATION_WITH_SPECIFIED_SOURCE ( 'ANY', '', #59, .NOT_KNOWN. ) ;
#163 =( NAMED_UNIT ( * ) SI_UNIT ( $, .STERADIAN. ) SOLID_ANGLE_UNIT ( ) );
#164 = LENGTH_MEASURE_WITH_UNIT ( LENGTH_MEASURE( 0.02539999999999999897 ), #62 );
#165 = DIRECTION ( 'NONE',  ( -0.000000000000000000, -1.000000000000000000, -0.000000000000000000 ) ) ;
#166 = FILL_AREA_STYLE ('',( #222 ) ) ;
#167 = LINE ( 'NONE', #16, #288 ) ;
#168 = CIRCLE ( 'NONE', #277, 0.1562500000000000278 ) ;
#169 = AXIS2_PLACEMENT_3D ( 'NONE', #354, #218, #9 ) ;
#170 =( NAMED_UNIT ( * ) PLANE_ANGLE_UNIT ( ) SI_UNIT ( $, .RADIAN. ) );
#171 = DIRECTION ( 'NONE',  ( 0.000000000000000000, 0.000000000000000000, -1.000000000000000000 ) ) ;
#172 = EDGE_CURVE ( 'NONE', #58, #220, #168, .T. ) ;
#173 = DIMENSIONAL_EXPONENTS ( 1.000000000000000000, 0.000000000000000000, 0.000000000000000000, 0.000000000000000000, 0.000000000000000000, 0.000000000000000000, 0.000000000000000000 ) ;
#174 =( NAMED_UNIT ( * ) PLANE_ANGLE_UNIT ( ) SI_UNIT ( $, .RADIAN. ) );
#175 =( NAMED_UNIT ( * ) PLANE_ANGLE_UNIT ( ) SI_UNIT ( $, .RADIAN. ) );
#176 = AXIS2_PLACEMENT_3D ( 'NONE', #351, #148, #22 ) ;
#177 = CARTESIAN_POINT ( 'NONE',  ( 6.123233995736766036E-17, 2.000000000000000000, 0.000000000000000000 ) ) ;
#178 = EDGE_CURVE ( 'NONE', #301, #8, #54, .T. ) ;
#179 = CARTESIAN_POINT ( 'NONE',  ( -1.913510623667739771E-17, 0.1562500000000000278, 0.000000000000000000 ) ) ;
#180 = DIMENSIONAL_EXPONENTS ( 1.000000000000000000, 0.000000000000000000, 0.000000000000000000, 0.000000000000000000, 0.000000000000000000, 0.000000000000000000, 0.000000000000000000 ) ;
#181 = UNCERTAINTY_MEASURE_WITH_UNIT (LENGTH_MEASURE( 1.000000000000000082E-05 ), #204, 'distance_accuracy_value', 'NONE');
#182 = CIRCLE ( 'NONE', #231, 0.1562499999999996947 ) ;
#183 = CARTESIAN_POINT ( 'NONE',  ( 6.123233995736766036E-17, 2.000000000000000000, 0.000000000000000000 ) ) ;
#184 = CARTESIAN_POINT ( 'NONE',  ( -9.567553118338698857E-18, 0.000000000000000000, 0.000000000000000000 ) ) ;
#185 = MECHANICAL_DESIGN_GEOMETRIC_PRESENTATION_REPRESENTATION (  '', ( #147 ), #308 ) ;
#186 = ORIENTED_EDGE ( 'NONE', *, *, #189, .F. ) ;
#187 =( NAMED_UNIT ( * ) PLANE_ANGLE_UNIT ( ) SI_UNIT ( $, .RADIAN. ) );
#188 = VERTEX_POINT ( 'NONE', #348 ) ;
#189 = EDGE_CURVE ( 'NONE', #255, #188, #240, .T. ) ;
#190 = COLOUR_RGB ( '',1.000000000000000000, 0.000000000000000000, 0.000000000000000000 ) ;
#191 = ORIENTED_EDGE ( 'NONE', *, *, #267, .F. ) ;
#192 = AXIS2_PLACEMENT_3D ( 'NONE', #143, #259, #104 ) ;
#193 = MECHANICAL_DESIGN_GEOMETRIC_PRESENTATION_REPRESENTATION (  '', ( #112 ), #87 ) ;
#194 = ORIENTED_EDGE ( 'NONE', *, *, #297, .T. ) ;
#195 = LENGTH_MEASURE_WITH_UNIT ( LENGTH_MEASURE( 0.02539999999999999897 ), #142 );
#196 = CARTESIAN_POINT ( 'NONE',  ( 0.1562500000000000000, 0.1562500000000000833, 0.000000000000000000 ) ) ;
#197 = SURFACE_SIDE_STYLE ('',( #261 ) ) ;
#198 = CARTESIAN_POINT ( 'NONE',  ( 0.000000000000000000, 0.1562500000000000833, 0.000000000000000000 ) ) ;
#199 = CIRCLE ( 'NONE', #364, 0.1562500000000000000 ) ;
#200 = AXIS2_PLACEMENT_3D ( 'NONE', #303, #363, #338 ) ;
#201 = DIRECTION ( 'NONE',  ( 1.000000000000000000, 0.000000000000000000, 0.000000000000000000 ) ) ;
#202 = SURFACE_SIDE_STYLE ('',( #227 ) ) ;
#203 =( CONVERSION_BASED_UNIT ( 'INCH', #135 ) LENGTH_UNIT ( ) NAMED_UNIT ( #145 ) );
#204 =( CONVERSION_BASED_UNIT ( 'INCH', #339 ) LENGTH_UNIT ( ) NAMED_UNIT ( #206 ) );
#205 = CARTESIAN_POINT ( 'NONE',  ( 0.1562499999999999445, 0.4374999999999998890, 1.913510623667737614E-17 ) ) ;
#206 = DIMENSIONAL_EXPONENTS ( 1.000000000000000000, 0.000000000000000000, 0.000000000000000000, 0.000000000000000000, 0.000000000000000000, 0.000000000000000000, 0.000000000000000000 ) ;
#207 = PLANE ( 'NONE',  #192 ) ;
#208 = STYLED_ITEM ( 'NONE', ( #361 ), #283 ) ;
#209 = SURFACE_STYLE_FILL_AREA ( #334 ) ;
#210 = EDGE_CURVE ( 'NONE', #257, #188, #119, .T. ) ;
#211 = DIRECTION ( 'NONE',  ( 0.000000000000000000, 0.000000000000000000, 1.000000000000000000 ) ) ;
#212 = UNCERTAINTY_MEASURE_WITH_UNIT (LENGTH_MEASURE( 1.000000000000000082E-05 ), #40, 'distance_accuracy_value', 'NONE');
#213 = CIRCLE ( 'NONE', #161, 0.1562500000000000000 ) ;
#214 = EDGE_LOOP ( 'NONE', ( #253, #95, #35, #5 ) ) ;
#215 = PRESENTATION_STYLE_ASSIGNMENT (( #295 ) ) ;
#216 =( LENGTH_UNIT ( ) NAMED_UNIT ( * ) SI_UNIT ( $, .METRE. ) );
#217 = PRODUCT_RELATED_PRODUCT_CATEGORY ( 'part', '', ( #59 ) ) ;
#218 = DIRECTION ( 'NONE',  ( -0.000000000000000000, -1.000000000000000000, -0.000000000000000000 ) ) ;
#219 = PRODUCT_DEFINITION_SHAPE ( 'NONE', 'NONE',  #26 ) ;
#220 = VERTEX_POINT ( 'NONE', #184 ) ;
#221 = VERTEX_POINT ( 'NONE', #146 ) ;
#222 = FILL_AREA_STYLE_COLOUR ( '', #190 ) ;
#223 = CARTESIAN_POINT ( 'NONE',  ( 2.527298022616905960E-16, 0.4374999999999998890, 0.000000000000000000 ) ) ;
#224 =( GEOMETRIC_REPRESENTATION_CONTEXT ( 3 ) GLOBAL_UNCERTAINTY_ASSIGNED_CONTEXT ( ( #292 ) ) GLOBAL_UNIT_ASSIGNED_CONTEXT ( ( #28, #320, #76 ) ) REPRESENTATION_CONTEXT ( 'NONE', 'WORKASPACE' ) );
#225 = EDGE_CURVE ( 'NONE', #221, #220, #372, .T. ) ;
#226 = EDGE_LOOP ( 'NONE', ( #194, #31, #124, #186 ) ) ;
#227 = SURFACE_STYLE_FILL_AREA ( #233 ) ;
#228 = MANIFOLD_SOLID_BREP ( 'Revolve - Tool Body (Straight Shanked)', #311 ) ;
#229 = PRESENTATION_STYLE_ASSIGNMENT (( #103 ) ) ;
#230 = DIRECTION ( 'NONE',  ( -1.225583758747666601E-16, 1.000000000000000000, -0.000000000000000000 ) ) ;
#231 = AXIS2_PLACEMENT_3D ( 'NONE', #156, #7, #159 ) ;
#232 = LENGTH_MEASURE_WITH_UNIT ( LENGTH_MEASURE( 0.02539999999999999897 ), #284 );
#233 = FILL_AREA_STYLE ('',( #48 ) ) ;
#234 =( NAMED_UNIT ( * ) SI_UNIT ( $, .STERADIAN. ) SOLID_ANGLE_UNIT ( ) );
#235 =( LENGTH_UNIT ( ) NAMED_UNIT ( * ) SI_UNIT ( $, .METRE. ) );
#236 = CIRCLE ( 'NONE', #349, 0.1562500000000000000 ) ;
#237 = PRESENTATION_LAYER_ASSIGNMENT (  '', '', ( #112 ) ) ;
#238 = DIRECTION ( 'NONE',  ( -1.000000000000000000, 0.000000000000000000, 0.000000000000000000 ) ) ;
#239 = CARTESIAN_POINT ( 'NONE',  ( -0.1562499999999997224, 2.000000000000000000, 0.000000000000000000 ) ) ;
#240 = LINE ( 'NONE', #239, #37 ) ;
#241 = ORIENTED_EDGE ( 'NONE', *, *, #210, .T. ) ;
#242 =( GEOMETRIC_REPRESENTATION_CONTEXT ( 3 ) GLOBAL_UNCERTAINTY_ASSIGNED_CONTEXT ( ( #347 ) ) GLOBAL_UNIT_ASSIGNED_CONTEXT ( ( #96, #11, #367 ) ) REPRESENTATION_CONTEXT ( 'NONE', 'WORKASPACE' ) );
#243 = FACE_OUTER_BOUND ( 'NONE', #226, .T. ) ;
#244 = ADVANCED_FACE ( 'NONE', ( #65 ), #82, .F. ) ;
#245 =( CONVERSION_BASED_UNIT ( 'INCH', #61 ) LENGTH_UNIT ( ) NAMED_UNIT ( #341 ) );
#246 = PRODUCT_DEFINITION_CONTEXT ( 'detailed design', #120, 'design' ) ;
#247 =( NAMED_UNIT ( * ) PLANE_ANGLE_UNIT ( ) SI_UNIT ( $, .RADIAN. ) );
#248 = VERTEX_POINT ( 'NONE', #329 ) ;
#249 = FACE_OUTER_BOUND ( 'NONE', #154, .T. ) ;
#250 = AXIS2_PLACEMENT_3D ( 'NONE', #223, #36, #130 ) ;
#251 = SURFACE_STYLE_USAGE ( .BOTH. , #275 ) ;
#252 = FILL_AREA_STYLE ('',( #34 ) ) ;
#253 = ORIENTED_EDGE ( 'NONE', *, *, #109, .T. ) ;
#254 = CARTESIAN_POINT ( 'NONE',  ( 1.913510623667739463E-17, 0.1562500000000000833, 0.1562500000000000000 ) ) ;
#255 = VERTEX_POINT ( 'NONE', #30 ) ;
#256 = FACE_OUTER_BOUND ( 'NONE', #81, .T. ) ;
#257 = VERTEX_POINT ( 'NONE', #325 ) ;
#258 = MECHANICAL_DESIGN_GEOMETRIC_PRESENTATION_REPRESENTATION (  '', ( #208 ), #336 ) ;
#259 = DIRECTION ( 'NONE',  ( 0.000000000000000000, 1.000000000000000000, 0.000000000000000000 ) ) ;
#260 = PRESENTATION_LAYER_ASSIGNMENT (  '', '', ( #19 ) ) ;
#261 = SURFACE_STYLE_FILL_AREA ( #369 ) ;
#262 = CARTESIAN_POINT ( 'NONE',  ( 0.000000000000000000, 0.000000000000000000, 0.000000000000000000 ) ) ;
#263 = DIMENSIONAL_EXPONENTS ( 1.000000000000000000, 0.000000000000000000, 0.000000000000000000, 0.000000000000000000, 0.000000000000000000, 0.000000000000000000, 0.000000000000000000 ) ;
#264 = EDGE_CURVE ( 'NONE', #58, #278, #199, .T. ) ;
#265 = FILL_AREA_STYLE_COLOUR ( '', #2 ) ;
#266 = LENGTH_MEASURE_WITH_UNIT ( LENGTH_MEASURE( 0.02539999999999999897 ), #235 );
#267 = EDGE_CURVE ( 'NONE', #355, #255, #23, .T. ) ;
#268 = ORIENTED_EDGE ( 'NONE', *, *, #139, .T. ) ;
#269 =( LENGTH_UNIT ( ) NAMED_UNIT ( * ) SI_UNIT ( $, .METRE. ) );
#270 = DIRECTION ( 'NONE',  ( -0.000000000000000000, -1.000000000000000000, -0.000000000000000000 ) ) ;
#271 = CARTESIAN_POINT ( 'NONE',  ( 0.000000000000000000, 0.4375000000000000000, -0.1562499999999999722 ) ) ;
#272 = ORIENTED_EDGE ( 'NONE', *, *, #178, .T. ) ;
#273 = UNCERTAINTY_MEASURE_WITH_UNIT (LENGTH_MEASURE( 1.000000000000000082E-05 ), #203, 'distance_accuracy_value', 'NONE');
#274 = DIRECTION ( 'NONE',  ( 0.000000000000000000, 0.000000000000000000, -1.000000000000000000 ) ) ;
#275 = SURFACE_SIDE_STYLE ('',( #126 ) ) ;
#276 = SURFACE_STYLE_USAGE ( .BOTH. , #83 ) ;
#277 = AXIS2_PLACEMENT_3D ( 'NONE', #179, #317, #114 ) ;
#278 = VERTEX_POINT ( 'NONE', #254 ) ;
#279 = CYLINDRICAL_SURFACE ( 'NONE', #14, 0.1562500000000000000 ) ;
#280 = EDGE_LOOP ( 'NONE', ( #362, #157 ) ) ;
#281 = CARTESIAN_POINT ( 'NONE',  ( 1.913510623667739463E-17, 0.000000000000000000, 0.1562500000000000000 ) ) ;
#282 = EDGE_LOOP ( 'NONE', ( #268, #241 ) ) ;
#283 = ADVANCED_FACE ( 'NONE', ( #249 ), #279, .T. ) ;
#284 =( LENGTH_UNIT ( ) NAMED_UNIT ( * ) SI_UNIT ( $, .METRE. ) );
#285 = DIRECTION ( 'NONE',  ( -0.000000000000000000, -1.000000000000000000, -0.000000000000000000 ) ) ;
#286 = STYLED_ITEM ( 'NONE', ( #70 ), #131 ) ;
#287 = FACE_OUTER_BOUND ( 'NONE', #365, .T. ) ;
#288 = VECTOR ( 'NONE', #230, 39.37007874015748143 ) ;
#289 = MECHANICAL_DESIGN_GEOMETRIC_PRESENTATION_REPRESENTATION (  '', ( #52 ), #242 ) ;
#290 = FACE_OUTER_BOUND ( 'NONE', #89, .T. ) ;
#291 = DIRECTION ( 'NONE',  ( -1.225583758747666601E-16, 1.000000000000000000, -0.000000000000000000 ) ) ;
#292 = UNCERTAINTY_MEASURE_WITH_UNIT (LENGTH_MEASURE( 1.000000000000000082E-05 ), #28, 'distance_accuracy_value', 'NONE');
#293 = DIRECTION ( 'NONE',  ( 0.000000000000000000, 0.000000000000000000, 1.000000000000000000 ) ) ;
#294 = CIRCLE ( 'NONE', #6, 0.1562499999999999167 ) ;
#295 = SURFACE_STYLE_USAGE ( .BOTH. , #324 ) ;
#296 = UNCERTAINTY_MEASURE_WITH_UNIT (LENGTH_MEASURE( 1.000000000000000082E-05 ), #10, 'distance_accuracy_value', 'NONE');
#297 = EDGE_CURVE ( 'NONE', #255, #355, #182, .T. ) ;
#298 = FILL_AREA_STYLE ('',( #265 ) ) ;
#299 = AXIS2_PLACEMENT_3D ( 'NONE', #302, #211, #108 ) ;
#300 = DIRECTION ( 'NONE',  ( -0.000000000000000000, -1.000000000000000000, -0.000000000000000000 ) ) ;
#301 = VERTEX_POINT ( 'NONE', #271 ) ;
#302 = CARTESIAN_POINT ( 'NONE',  ( 0.000000000000000000, 0.000000000000000000, 0.000000000000000000 ) ) ;
#303 = CARTESIAN_POINT ( 'NONE',  ( 0.000000000000000000, 0.4375000000000000000, 0.000000000000000000 ) ) ;
#304 = CARTESIAN_POINT ( 'NONE',  ( 0.000000000000000000, 0.1562500000000000833, -0.1562500000000000000 ) ) ;
#305 = EDGE_CURVE ( 'NONE', #248, #278, #123, .T. ) ;
#306 = CARTESIAN_POINT ( 'NONE',  ( 0.000000000000000000, 0.000000000000000000, 0.000000000000000000 ) ) ;
#307 = ORIENTED_EDGE ( 'NONE', *, *, #342, .F. ) ;
#308 =( GEOMETRIC_REPRESENTATION_CONTEXT ( 3 ) GLOBAL_UNCERTAINTY_ASSIGNED_CONTEXT ( ( #121 ) ) GLOBAL_UNIT_ASSIGNED_CONTEXT ( ( #117, #247, #332 ) ) REPRESENTATION_CONTEXT ( 'NONE', 'WORKASPACE' ) );
#309 = ORIENTED_EDGE ( 'NONE', *, *, #225, .F. ) ;
#310 = FACE_OUTER_BOUND ( 'NONE', #280, .T. ) ;
#311 = CLOSED_SHELL ( 'NONE', ( #151, #66, #116, #244 ) ) ;
#312 = DIRECTION ( 'NONE',  ( -1.225583758747666601E-16, 1.000000000000000000, 0.000000000000000000 ) ) ;
#313 = AXIS2_PLACEMENT_3D ( 'NONE', #73, #285, #20 ) ;
#314 =( LENGTH_UNIT ( ) NAMED_UNIT ( * ) SI_UNIT ( $, .METRE. ) );
#315 = DIRECTION ( 'NONE',  ( 0.000000000000000000, 0.000000000000000000, -1.000000000000000000 ) ) ;
#316 = FACE_OUTER_BOUND ( 'NONE', #214, .T. ) ;
#317 = DIRECTION ( 'NONE',  ( 0.000000000000000000, 0.000000000000000000, -1.000000000000000000 ) ) ;
#318 = APPLICATION_PROTOCOL_DEFINITION ( 'draft international standard', 'automotive_design', 1998, #33 ) ;
#319 = SURFACE_STYLE_USAGE ( .BOTH. , #323 ) ;
#320 =( NAMED_UNIT ( * ) PLANE_ANGLE_UNIT ( ) SI_UNIT ( $, .RADIAN. ) );
#321 = AXIS2_PLACEMENT_3D ( 'NONE', #262, #45, #340 ) ;
#322 = COLOUR_RGB ( '',1.000000000000000000, 0.000000000000000000, 0.000000000000000000 ) ;
#323 = SURFACE_SIDE_STYLE ('',( #209 ) ) ;
#324 = SURFACE_SIDE_STYLE ('',( #371 ) ) ;
#325 = CARTESIAN_POINT ( 'NONE',  ( 0.1562499999999999722, 2.000000000000000000, 1.913510623667737614E-17 ) ) ;
#326 =( GEOMETRIC_REPRESENTATION_CONTEXT ( 3 ) GLOBAL_UNCERTAINTY_ASSIGNED_CONTEXT ( ( #273 ) ) GLOBAL_UNIT_ASSIGNED_CONTEXT ( ( #203, #174, #138 ) ) REPRESENTATION_CONTEXT ( 'NONE', 'WORKASPACE' ) );
#327 = DIRECTION ( 'NONE',  ( 1.000000000000000000, 1.225583758747666601E-16, 0.000000000000000000 ) ) ;
#328 = ORIENTED_EDGE ( 'NONE', *, *, #122, .T. ) ;
#329 = CARTESIAN_POINT ( 'NONE',  ( 1.913510623667738847E-17, 0.4375000000000000000, 0.1562499999999999722 ) ) ;
#330 = ORIENTED_EDGE ( 'NONE', *, *, #264, .F. ) ;
#331 = ORIENTED_EDGE ( 'NONE', *, *, #210, .F. ) ;
#332 =( NAMED_UNIT ( * ) SI_UNIT ( $, .STERADIAN. ) SOLID_ANGLE_UNIT ( ) );
#333 =( NAMED_UNIT ( * ) PLANE_ANGLE_UNIT ( ) SI_UNIT ( $, .RADIAN. ) );
#334 = FILL_AREA_STYLE ('',( #106 ) ) ;
#335 = DIRECTION ( 'NONE',  ( -0.000000000000000000, -1.000000000000000000, -0.000000000000000000 ) ) ;
#336 =( GEOMETRIC_REPRESENTATION_CONTEXT ( 3 ) GLOBAL_UNCERTAINTY_ASSIGNED_CONTEXT ( ( #25 ) ) GLOBAL_UNIT_ASSIGNED_CONTEXT ( ( #245, #187, #163 ) ) REPRESENTATION_CONTEXT ( 'NONE', 'WORKASPACE' ) );
#337 = SURFACE_STYLE_USAGE ( .BOTH. , #202 ) ;
#338 = DIRECTION ( 'NONE',  ( 0.000000000000000000, 0.000000000000000000, -1.000000000000000000 ) ) ;
#339 = LENGTH_MEASURE_WITH_UNIT ( LENGTH_MEASURE( 0.02539999999999999897 ), #370 );
#340 = DIRECTION ( 'NONE',  ( 0.000000000000000000, 0.000000000000000000, -1.000000000000000000 ) ) ;
#341 = DIMENSIONAL_EXPONENTS ( 1.000000000000000000, 0.000000000000000000, 0.000000000000000000, 0.000000000000000000, 0.000000000000000000, 0.000000000000000000, 0.000000000000000000 ) ;
#342 = EDGE_CURVE ( 'NONE', #8, #58, #24, .T. ) ;
#343 = PRESENTATION_LAYER_ASSIGNMENT (  '', '', ( #286 ) ) ;
#344 = PRESENTATION_STYLE_ASSIGNMENT (( #319 ) ) ;
#345 = MANIFOLD_SOLID_BREP ( 'Revolve - Cutting Edge', #353 ) ;
#346 = DIRECTION ( 'NONE',  ( 1.000000000000000000, 0.000000000000000000, -1.224646799147353207E-16 ) ) ;
#347 = UNCERTAINTY_MEASURE_WITH_UNIT (LENGTH_MEASURE( 1.000000000000000082E-05 ), #96, 'distance_accuracy_value', 'NONE');
#348 = CARTESIAN_POINT ( 'NONE',  ( -0.1562499999999998335, 2.000000000000000000, 0.000000000000000000 ) ) ;
#349 = AXIS2_PLACEMENT_3D ( 'NONE', #198, #335, #315 ) ;
#350 = PRESENTATION_LAYER_ASSIGNMENT (  '', '', ( #52 ) ) ;
#351 = CARTESIAN_POINT ( 'NONE',  ( 6.123233995736766036E-17, 2.000000000000000000, 0.000000000000000000 ) ) ;
#352 = CARTESIAN_POINT ( 'NONE',  ( 0.000000000000000000, 0.1562500000000000833, 0.000000000000000000 ) ) ;
#353 = CLOSED_SHELL ( 'NONE', ( #136, #53, #131, #283, #360 ) ) ;
#354 = CARTESIAN_POINT ( 'NONE',  ( 0.000000000000000000, 0.1562500000000000833, 0.000000000000000000 ) ) ;
#355 = VERTEX_POINT ( 'NONE', #205 ) ;
#356 = FILL_AREA_STYLE ('',( #91 ) ) ;
#357 = ORIENTED_EDGE ( 'NONE', *, *, #305, .T. ) ;
#358 = SURFACE_STYLE_FILL_AREA ( #252 ) ;
#359 = ORIENTED_EDGE ( 'NONE', *, *, #90, .F. ) ;
#360 = ADVANCED_FACE ( 'NONE', ( #256 ), #100, .T. ) ;
#361 = PRESENTATION_STYLE_ASSIGNMENT (( #276 ) ) ;
#362 = ORIENTED_EDGE ( 'NONE', *, *, #366, .F. ) ;
#363 = DIRECTION ( 'NONE',  ( -0.000000000000000000, -1.000000000000000000, -0.000000000000000000 ) ) ;
#364 = AXIS2_PLACEMENT_3D ( 'NONE', #352, #165, #274 ) ;
#365 = EDGE_LOOP ( 'NONE', ( #67, #191 ) ) ;
#366 = EDGE_CURVE ( 'NONE', #301, #248, #155, .T. ) ;
#367 =( NAMED_UNIT ( * ) SI_UNIT ( $, .STERADIAN. ) SOLID_ANGLE_UNIT ( ) );
#368 = COLOUR_RGB ( '',1.000000000000000000, 0.000000000000000000, 0.000000000000000000 ) ;
#369 = FILL_AREA_STYLE ('',( #97 ) ) ;
#370 =( LENGTH_UNIT ( ) NAMED_UNIT ( * ) SI_UNIT ( $, .METRE. ) );
#371 = SURFACE_STYLE_FILL_AREA ( #298 ) ;
#372 = CIRCLE ( 'NONE', #43, 0.1562500000000000278 ) ;
#373 = DIRECTION ( 'NONE',  ( 1.000000000000000000, 0.000000000000000000, 0.000000000000000000 ) ) ;
ENDSEC;
END-ISO-10303-21;
