ISO-10303-21;
HEADER;
FILE_DESCRIPTION (( 'STEP AP214' ),
    '1' );
FILE_NAME ('Micro_EMS-156-3.STEP',
    '2021-09-01T17:44:00',
    ( '' ),
    ( '' ),
    'SwSTEP 2.0',
    'SolidWorks 2020',
    '' );
FILE_SCHEMA (( 'AUTOMOTIVE_DESIGN' ));
ENDSEC;

DATA;
#1 = FILL_AREA_STYLE ('',( #201 ) ) ;
#2 = APPLICATION_CONTEXT ( 'automotive_design' ) ;
#3 = EDGE_CURVE ( 'NONE', #82, #26, #55, .T. ) ;
#4 = LENGTH_MEASURE_WITH_UNIT ( LENGTH_MEASURE( 0.02539999999999999897 ), #131 );
#5 = CARTESIAN_POINT ( 'NONE',  ( -0.07874999999999980627, 0.0000000000000000000, 2.000000000000000000 ) ) ;
#6 = DIRECTION ( 'NONE',  ( -1.000000000000000000, 0.0000000000000000000, 0.0000000000000000000 ) ) ;
#7 = CARTESIAN_POINT ( 'NONE',  ( 0.0000000000000000000, 0.0000000000000000000, 2.000000000000000000 ) ) ;
#8 = DIRECTION ( 'NONE',  ( 0.0000000000000000000, 0.0000000000000000000, -1.000000000000000000 ) ) ;
#9 = DIRECTION ( 'NONE',  ( -1.000000000000000000, 0.0000000000000000000, 1.224646799147353207E-16 ) ) ;
#10 = DIRECTION ( 'NONE',  ( 0.0000000000000000000, 0.0000000000000000000, -1.000000000000000000 ) ) ;
#11 = ORIENTED_EDGE ( 'NONE', *, *, #296, .T. ) ;
#12 = CARTESIAN_POINT ( 'NONE',  ( 6.894761479199598081E-17, 0.0000000000000000000, 0.5629999999999999449 ) ) ;
#13 = CONICAL_SURFACE ( 'NONE', #77, 0.07874999999999980627, 0.7853981633974466137 ) ;
#14 = ORIENTED_EDGE ( 'NONE', *, *, #296, .F. ) ;
#15 = DIMENSIONAL_EXPONENTS ( 1.000000000000000000, 0.0000000000000000000, 0.0000000000000000000, 0.0000000000000000000, 0.0000000000000000000, 0.0000000000000000000, 0.0000000000000000000 ) ;
#16 = COLOUR_RGB ( '',0.7921568627450980005, 0.8196078431372548767, 0.9333333333333333481 ) ;
#17 =( LENGTH_UNIT ( ) NAMED_UNIT ( * ) SI_UNIT ( $, .METRE. ) );
#18 = CIRCLE ( 'NONE', #132, 0.09375000000000001388 ) ;
#19 = CARTESIAN_POINT ( 'NONE',  ( 0.0000000000000000000, 0.0000000000000000000, 2.000000000000000000 ) ) ;
#20 = SURFACE_SIDE_STYLE ('',( #41 ) ) ;
#21 = CARTESIAN_POINT ( 'NONE',  ( 7.987127902323220081E-17, 0.0000000000000000000, 0.6521984875871288390 ) ) ;
#22 = AXIS2_PLACEMENT_3D ( 'NONE', #12, #141, #70 ) ;
#23 = CARTESIAN_POINT ( 'NONE',  ( 0.07802190000000000514, 9.554927009839488851E-18, 0.0000000000000000000 ) ) ;
#24 = APPLICATION_CONTEXT ( 'automotive_design' ) ;
#25 = ADVANCED_FACE ( 'NONE', ( #137 ), #31, .T. ) ;
#26 = VERTEX_POINT ( 'NONE', #258 ) ;
#27 = DIRECTION ( 'NONE',  ( 1.000000000000000000, 0.0000000000000000000, 0.0000000000000000000 ) ) ;
#28 = AXIS2_PLACEMENT_3D ( 'NONE', #167, #107, #197 ) ;
#29 = CARTESIAN_POINT ( 'NONE',  ( 0.0000000000000000000, 0.0000000000000000000, 2.000000000000000000 ) ) ;
#30 = EDGE_CURVE ( 'NONE', #193, #263, #183, .T. ) ;
#31 = CYLINDRICAL_SURFACE ( 'NONE', #112, 0.09375000000000001388 ) ;
#32 = CARTESIAN_POINT ( 'NONE',  ( 0.09375000000000001388, 1.148106374200643863E-17, 2.000000000000000000 ) ) ;
#33 = VERTEX_POINT ( 'NONE', #5 ) ;
#34 = DIRECTION ( 'NONE',  ( -0.0000000000000000000, -0.0000000000000000000, -1.000000000000000000 ) ) ;
#35 =( NAMED_UNIT ( * ) PLANE_ANGLE_UNIT ( ) SI_UNIT ( $, .RADIAN. ) );
#36 = ORIENTED_EDGE ( 'NONE', *, *, #176, .F. ) ;
#37 = SURFACE_STYLE_FILL_AREA ( #235 ) ;
#38 = EDGE_LOOP ( 'NONE', ( #142, #103 ) ) ;
#39 = DIRECTION ( 'NONE',  ( -1.224646799147353207E-16, -0.0000000000000000000, -1.000000000000000000 ) ) ;
#40 = UNCERTAINTY_MEASURE_WITH_UNIT (LENGTH_MEASURE( 1.000000000000000082E-05 ), #237, 'distance_accuracy_value', 'NONE');
#41 = SURFACE_STYLE_FILL_AREA ( #1 ) ;
#42 = LINE ( 'NONE', #180, #109 ) ;
#43 = DIRECTION ( 'NONE',  ( -1.000000000000000000, 0.0000000000000000000, 1.224646799147353207E-16 ) ) ;
#44 = FACE_OUTER_BOUND ( 'NONE', #84, .T. ) ;
#45 = FACE_OUTER_BOUND ( 'NONE', #172, .T. ) ;
#46 = DIRECTION ( 'NONE',  ( -1.000000000000000000, 0.0000000000000000000, 0.0000000000000000000 ) ) ;
#47 = PRESENTATION_LAYER_ASSIGNMENT (  '', '', ( #91 ) ) ;
#48 = ORIENTED_EDGE ( 'NONE', *, *, #176, .T. ) ;
#49 = LINE ( 'NONE', #182, #224 ) ;
#50 = CARTESIAN_POINT ( 'NONE',  ( 0.07874999999999980627, 1.056257864264590573E-17, 2.000000000000000000 ) ) ;
#51 = ORIENTED_EDGE ( 'NONE', *, *, #111, .F. ) ;
#52 = DIRECTION ( 'NONE',  ( -1.224646799147353207E-16, -0.0000000000000000000, -1.000000000000000000 ) ) ;
#53 = ORIENTED_EDGE ( 'NONE', *, *, #254, .T. ) ;
#54 = DIMENSIONAL_EXPONENTS ( 1.000000000000000000, 0.0000000000000000000, 0.0000000000000000000, 0.0000000000000000000, 0.0000000000000000000, 0.0000000000000000000, 0.0000000000000000000 ) ;
#55 = CIRCLE ( 'NONE', #265, 0.09375000000000001388 ) ;
#56 = ORIENTED_EDGE ( 'NONE', *, *, #219, .T. ) ;
#57 = SURFACE_SIDE_STYLE ('',( #37 ) ) ;
#58 = LENGTH_MEASURE_WITH_UNIT ( LENGTH_MEASURE( 0.02539999999999999897 ), #17 );
#59 = CONICAL_SURFACE ( 'NONE', #239, 0.07874999999999980627, 0.7853981633974466137 ) ;
#60 = MECHANICAL_DESIGN_GEOMETRIC_PRESENTATION_REPRESENTATION (  '', ( #91 ), #144 ) ;
#61 = ORIENTED_EDGE ( 'NONE', *, *, #30, .F. ) ;
#62 = DIRECTION ( 'NONE',  ( -1.224646799147353207E-16, -0.0000000000000000000, -1.000000000000000000 ) ) ;
#63 = CARTESIAN_POINT ( 'NONE',  ( 1.170141077868652023E-33, 0.0000000000000000000, 9.554927009839488851E-18 ) ) ;
#64 = EDGE_CURVE ( 'NONE', #33, #82, #49, .T. ) ;
#65 = EDGE_LOOP ( 'NONE', ( #190, #56, #121, #72 ) ) ;
#66 =( NAMED_UNIT ( * ) SI_UNIT ( $, .STERADIAN. ) SOLID_ANGLE_UNIT ( ) );
#67 = ORIENTED_EDGE ( 'NONE', *, *, #83, .T. ) ;
#68 = PLANE ( 'NONE',  #119 ) ;
#69 = PRESENTATION_LAYER_ASSIGNMENT (  '', '', ( #152 ) ) ;
#70 = DIRECTION ( 'NONE',  ( -1.000000000000000000, 0.0000000000000000000, 0.0000000000000000000 ) ) ;
#71 = DIRECTION ( 'NONE',  ( -1.224646799147353207E-16, -0.0000000000000000000, -1.000000000000000000 ) ) ;
#72 = ORIENTED_EDGE ( 'NONE', *, *, #279, .F. ) ;
#73 = DIRECTION ( 'NONE',  ( -0.7071067811865463515, 0.0000000000000000000, -0.7071067811865486830 ) ) ;
#74 = DIRECTION ( 'NONE',  ( -1.224646799147353207E-16, -0.0000000000000000000, -1.000000000000000000 ) ) ;
#75 = ADVANCED_FACE ( 'NONE', ( #45 ), #138, .T. ) ;
#76 = DIRECTION ( 'NONE',  ( -1.000000000000000000, 0.0000000000000000000, 0.0000000000000000000 ) ) ;
#77 = AXIS2_PLACEMENT_3D ( 'NONE', #7, #10, #46 ) ;
#78 = PRODUCT_CONTEXT ( 'NONE', #2, 'mechanical' ) ;
#79 = DIRECTION ( 'NONE',  ( -0.0000000000000000000, -0.0000000000000000000, -1.000000000000000000 ) ) ;
#80 = CARTESIAN_POINT ( 'NONE',  ( 7.987127902323220081E-17, 0.0000000000000000000, 0.6521984875871288390 ) ) ;
#81 = CARTESIAN_POINT ( 'NONE',  ( 0.09375000000000009714, 1.148106374200644787E-17, 0.6521984875871288390 ) ) ;
#82 = VERTEX_POINT ( 'NONE', #134 ) ;
#83 = EDGE_CURVE ( 'NONE', #169, #193, #94, .T. ) ;
#84 = EDGE_LOOP ( 'NONE', ( #106, #234, #160, #246 ) ) ;
#85 = ADVANCED_FACE ( 'NONE', ( #98 ), #233, .F. ) ;
#86 = CIRCLE ( 'NONE', #198, 0.09375000000000001388 ) ;
#87 = VECTOR ( 'NONE', #200, 39.37007874015747433 ) ;
#88 = ADVANCED_FACE ( 'NONE', ( #188 ), #59, .T. ) ;
#89 = SURFACE_STYLE_USAGE ( .BOTH. , #20 ) ;
#90 = DIRECTION ( 'NONE',  ( -1.000000000000000000, 0.0000000000000000000, 1.224646799147353207E-16 ) ) ;
#91 = STYLED_ITEM ( 'NONE', ( #276 ), #267 ) ;
#92 = DIRECTION ( 'NONE',  ( 0.0000000000000000000, 0.0000000000000000000, 1.000000000000000000 ) ) ;
#93 = DIRECTION ( 'NONE',  ( -1.224646799147353207E-16, -0.0000000000000000000, -1.000000000000000000 ) ) ;
#94 = CIRCLE ( 'NONE', #22, 0.07802190000000000514 ) ;
#95 =( NAMED_UNIT ( * ) SI_UNIT ( $, .STERADIAN. ) SOLID_ANGLE_UNIT ( ) );
#96 = CARTESIAN_POINT ( 'NONE',  ( 6.894761479199598081E-17, 0.0000000000000000000, 0.5629999999999999449 ) ) ;
#97 = CYLINDRICAL_SURFACE ( 'NONE', #123, 0.09375000000000001388 ) ;
#98 = FACE_OUTER_BOUND ( 'NONE', #38, .T. ) ;
#99 = CARTESIAN_POINT ( 'NONE',  ( 0.0000000000000000000, 0.0000000000000000000, 2.000000000000000000 ) ) ;
#100 = DIRECTION ( 'NONE',  ( 1.224646799147353207E-16, 0.0000000000000000000, 1.000000000000000000 ) ) ;
#101 =( GEOMETRIC_REPRESENTATION_CONTEXT ( 3 ) GLOBAL_UNCERTAINTY_ASSIGNED_CONTEXT ( ( #153 ) ) GLOBAL_UNIT_ASSIGNED_CONTEXT ( ( #247, #110, #116 ) ) REPRESENTATION_CONTEXT ( 'NONE', 'WORKASPACE' ) );
#102 = CIRCLE ( 'NONE', #192, 0.07802190000000000514 ) ;
#103 = ORIENTED_EDGE ( 'NONE', *, *, #186, .T. ) ;
#104 = ADVANCED_FACE ( 'NONE', ( #117 ), #250, .T. ) ;
#105 = PRODUCT ( 'Micro_EMS-156-3', 'Micro_EMS-156-3', '', ( #78 ) ) ;
#106 = ORIENTED_EDGE ( 'NONE', *, *, #202, .F. ) ;
#107 = DIRECTION ( 'NONE',  ( 1.224646799147353207E-16, 0.0000000000000000000, 1.000000000000000000 ) ) ;
#108 = LINE ( 'NONE', #220, #87 ) ;
#109 = VECTOR ( 'NONE', #203, 39.37007874015748143 ) ;
#110 =( NAMED_UNIT ( * ) PLANE_ANGLE_UNIT ( ) SI_UNIT ( $, .RADIAN. ) );
#111 = EDGE_CURVE ( 'NONE', #26, #194, #159, .T. ) ;
#112 = AXIS2_PLACEMENT_3D ( 'NONE', #99, #79, #261 ) ;
#113 = AXIS2_PLACEMENT_3D ( 'NONE', #163, #184, #286 ) ;
#114 = ORIENTED_EDGE ( 'NONE', *, *, #115, .F. ) ;
#115 = EDGE_CURVE ( 'NONE', #194, #122, #86, .T. ) ;
#116 =( NAMED_UNIT ( * ) SI_UNIT ( $, .STERADIAN. ) SOLID_ANGLE_UNIT ( ) );
#117 = FACE_OUTER_BOUND ( 'NONE', #284, .T. ) ;
#118 = CARTESIAN_POINT ( 'NONE',  ( -0.07802190000000000514, 0.0000000000000000000, 1.910985401967897770E-17 ) ) ;
#119 = AXIS2_PLACEMENT_3D ( 'NONE', #155, #92, #249 ) ;
#120 = CARTESIAN_POINT ( 'NONE',  ( 0.0000000000000000000, 0.0000000000000000000, 0.0000000000000000000 ) ) ;
#121 = ORIENTED_EDGE ( 'NONE', *, *, #222, .T. ) ;
#122 = VERTEX_POINT ( 'NONE', #215 ) ;
#123 = AXIS2_PLACEMENT_3D ( 'NONE', #136, #231, #76 ) ;
#124 = VERTEX_POINT ( 'NONE', #118 ) ;
#125 = CONICAL_SURFACE ( 'NONE', #28, 0.07802190000000000514, 0.1745329251994338082 ) ;
#126 = PRESENTATION_STYLE_ASSIGNMENT (( #242 ) ) ;
#127 = ORIENTED_EDGE ( 'NONE', *, *, #111, .T. ) ;
#128 = ADVANCED_FACE ( 'NONE', ( #291 ), #262, .T. ) ;
#129 = CARTESIAN_POINT ( 'NONE',  ( -0.07802190000000000514, 0.0000000000000000000, 9.554927009839488851E-18 ) ) ;
#130 =( LENGTH_UNIT ( ) NAMED_UNIT ( * ) SI_UNIT ( $, .METRE. ) );
#131 =( LENGTH_UNIT ( ) NAMED_UNIT ( * ) SI_UNIT ( $, .METRE. ) );
#132 = AXIS2_PLACEMENT_3D ( 'NONE', #207, #175, #252 ) ;
#133 = EDGE_CURVE ( 'NONE', #82, #122, #209, .T. ) ;
#134 = CARTESIAN_POINT ( 'NONE',  ( -0.09375000000000001388, 0.0000000000000000000, 1.984999999999999654 ) ) ;
#135 = DIRECTION ( 'NONE',  ( 0.0000000000000000000, 0.0000000000000000000, 1.000000000000000000 ) ) ;
#136 = CARTESIAN_POINT ( 'NONE',  ( 0.0000000000000000000, 0.0000000000000000000, 2.000000000000000000 ) ) ;
#137 = FACE_OUTER_BOUND ( 'NONE', #149, .T. ) ;
#138 = CYLINDRICAL_SURFACE ( 'NONE', #288, 0.07802190000000000514 ) ;
#139 = FACE_OUTER_BOUND ( 'NONE', #264, .T. ) ;
#140 = ORIENTED_EDGE ( 'NONE', *, *, #133, .T. ) ;
#141 = DIRECTION ( 'NONE',  ( -1.224646799147353207E-16, -0.0000000000000000000, -1.000000000000000000 ) ) ;
#142 = ORIENTED_EDGE ( 'NONE', *, *, #273, .T. ) ;
#143 = VECTOR ( 'NONE', #255, 39.37007874015748143 ) ;
#144 =( GEOMETRIC_REPRESENTATION_CONTEXT ( 3 ) GLOBAL_UNCERTAINTY_ASSIGNED_CONTEXT ( ( #40 ) ) GLOBAL_UNIT_ASSIGNED_CONTEXT ( ( #237, #35, #95 ) ) REPRESENTATION_CONTEXT ( 'NONE', 'WORKASPACE' ) );
#145 = EDGE_LOOP ( 'NONE', ( #238, #290 ) ) ;
#146 = EDGE_CURVE ( 'NONE', #33, #174, #227, .T. ) ;
#147 = VECTOR ( 'NONE', #39, 39.37007874015748143 ) ;
#148 = ADVANCED_FACE ( 'NONE', ( #44 ), #13, .T. ) ;
#149 = EDGE_LOOP ( 'NONE', ( #51, #53, #140, #114 ) ) ;
#150 = FACE_OUTER_BOUND ( 'NONE', #145, .T. ) ;
#151 = CARTESIAN_POINT ( 'NONE',  ( 0.07874999999999980627, 9.644093543285380530E-18, 2.000000000000000000 ) ) ;
#152 = STYLED_ITEM ( 'NONE', ( #126 ), #244 ) ;
#153 = UNCERTAINTY_MEASURE_WITH_UNIT (LENGTH_MEASURE( 1.000000000000000082E-05 ), #247, 'distance_accuracy_value', 'NONE');
#154 = PRODUCT_DEFINITION ( 'UNKNOWN', '', #295, #225 ) ;
#155 = CARTESIAN_POINT ( 'NONE',  ( 0.0000000000000000000, 0.0000000000000000000, 2.000000000000000000 ) ) ;
#156 = VECTOR ( 'NONE', #34, 39.37007874015748143 ) ;
#157 = ORIENTED_EDGE ( 'NONE', *, *, #30, .T. ) ;
#158 = DIRECTION ( 'NONE',  ( -1.224646799147353207E-16, -0.0000000000000000000, -1.000000000000000000 ) ) ;
#159 = LINE ( 'NONE', #32, #156 ) ;
#160 = ORIENTED_EDGE ( 'NONE', *, *, #3, .F. ) ;
#161 = CLOSED_SHELL ( 'NONE', ( #128, #195, #148, #181, #25, #256, #88, #104, #75, #85 ) ) ;
#162 = AXIS2_PLACEMENT_3D ( 'NONE', #21, #204, #275 ) ;
#163 = CARTESIAN_POINT ( 'NONE',  ( 6.894761479199598081E-17, 0.0000000000000000000, 0.5629999999999999449 ) ) ;
#164 = DIRECTION ( 'NONE',  ( 1.000000000000000000, 0.0000000000000000000, 0.0000000000000000000 ) ) ;
#165 = ORIENTED_EDGE ( 'NONE', *, *, #146, .F. ) ;
#166 = CARTESIAN_POINT ( 'NONE',  ( 0.0000000000000000000, 0.0000000000000000000, 0.0000000000000000000 ) ) ;
#167 = CARTESIAN_POINT ( 'NONE',  ( 6.894761479199598081E-17, 0.0000000000000000000, 0.5629999999999999449 ) ) ;
#168 = UNCERTAINTY_MEASURE_WITH_UNIT (LENGTH_MEASURE( 1.000000000000000082E-05 ), #179, 'distance_accuracy_value', 'NONE');
#169 = VERTEX_POINT ( 'NONE', #189 ) ;
#170 = ORIENTED_EDGE ( 'NONE', *, *, #279, .T. ) ;
#171 = AXIS2_PLACEMENT_3D ( 'NONE', #166, #52, #43 ) ;
#172 = EDGE_LOOP ( 'NONE', ( #61, #48, #11, #293 ) ) ;
#173 = AXIS2_PLACEMENT_3D ( 'NONE', #29, #135, #253 ) ;
#174 = VERTEX_POINT ( 'NONE', #50 ) ;
#175 = DIRECTION ( 'NONE',  ( 0.0000000000000000000, 0.0000000000000000000, -1.000000000000000000 ) ) ;
#176 = EDGE_CURVE ( 'NONE', #193, #169, #269, .T. ) ;
#177 = APPLICATION_PROTOCOL_DEFINITION ( 'draft international standard', 'automotive_design', 1998, #2 ) ;
#178 = PRODUCT_RELATED_PRODUCT_CATEGORY ( 'part', '', ( #105 ) ) ;
#179 =( CONVERSION_BASED_UNIT ( 'INCH', #58 ) LENGTH_UNIT ( ) NAMED_UNIT ( #241 ) );
#180 = CARTESIAN_POINT ( 'NONE',  ( 0.07802190000000007453, 0.0000000000000000000, 0.5629999999999999449 ) ) ;
#181 = ADVANCED_FACE ( 'NONE', ( #139 ), #97, .T. ) ;
#182 = CARTESIAN_POINT ( 'NONE',  ( -0.07874999999999980627, 0.0000000000000000000, 2.000000000000000000 ) ) ;
#183 = LINE ( 'NONE', #283, #243 ) ;
#184 = DIRECTION ( 'NONE',  ( -1.224646799147353207E-16, -0.0000000000000000000, -1.000000000000000000 ) ) ;
#185 = APPLICATION_PROTOCOL_DEFINITION ( 'draft international standard', 'automotive_design', 1998, #24 ) ;
#186 = EDGE_CURVE ( 'NONE', #263, #124, #102, .T. ) ;
#187 = DIRECTION ( 'NONE',  ( 1.000000000000000000, 0.0000000000000000000, 0.0000000000000000000 ) ) ;
#188 = FACE_OUTER_BOUND ( 'NONE', #214, .T. ) ;
#189 = CARTESIAN_POINT ( 'NONE',  ( -0.07802189999999993575, 1.051799537592296220E-17, 0.5629999999999999449 ) ) ;
#190 = ORIENTED_EDGE ( 'NONE', *, *, #83, .F. ) ;
#191 = AXIS2_PLACEMENT_3D ( 'NONE', #120, #236, #211 ) ;
#192 = AXIS2_PLACEMENT_3D ( 'NONE', #259, #74, #230 ) ;
#193 = VERTEX_POINT ( 'NONE', #292 ) ;
#194 = VERTEX_POINT ( 'NONE', #81 ) ;
#195 = ADVANCED_FACE ( 'NONE', ( #240 ), #125, .T. ) ;
#196 = MECHANICAL_DESIGN_GEOMETRIC_PRESENTATION_REPRESENTATION (  '', ( #152 ), #277 ) ;
#197 = DIRECTION ( 'NONE',  ( 1.000000000000000000, 0.0000000000000000000, 0.0000000000000000000 ) ) ;
#198 = AXIS2_PLACEMENT_3D ( 'NONE', #80, #93, #27 ) ;
#199 = ORIENTED_EDGE ( 'NONE', *, *, #299, .F. ) ;
#200 = DIRECTION ( 'NONE',  ( -0.1736481776669311083, 2.126576849575782084E-17, 0.9848077530122080203 ) ) ;
#201 = FILL_AREA_STYLE_COLOUR ( '', #16 ) ;
#202 = EDGE_CURVE ( 'NONE', #174, #33, #281, .T. ) ;
#203 = DIRECTION ( 'NONE',  ( 0.1736481776669313026, 0.0000000000000000000, 0.9848077530122077983 ) ) ;
#204 = DIRECTION ( 'NONE',  ( -1.224646799147353207E-16, -0.0000000000000000000, -1.000000000000000000 ) ) ;
#205 = LENGTH_MEASURE_WITH_UNIT ( LENGTH_MEASURE( 0.02539999999999999897 ), #130 );
#206 = CIRCLE ( 'NONE', #248, 0.07802190000000000514 ) ;
#207 = CARTESIAN_POINT ( 'NONE',  ( 0.0000000000000000000, 0.0000000000000000000, 1.984999999999999654 ) ) ;
#208 = ORIENTED_EDGE ( 'NONE', *, *, #64, .T. ) ;
#209 = LINE ( 'NONE', #282, #143 ) ;
#210 = COLOUR_RGB ( '',0.7921568627450980005, 0.8196078431372548767, 0.9333333333333333481 ) ;
#211 = DIRECTION ( 'NONE',  ( 1.000000000000000000, 0.0000000000000000000, -0.0000000000000000000 ) ) ;
#212 = CARTESIAN_POINT ( 'NONE',  ( 0.0000000000000000000, 0.0000000000000000000, 1.984999999999999654 ) ) ;
#213 = CARTESIAN_POINT ( 'NONE',  ( 0.0000000000000000000, 0.0000000000000000000, 0.0000000000000000000 ) ) ;
#214 = EDGE_LOOP ( 'NONE', ( #199, #165, #208, #294 ) ) ;
#215 = CARTESIAN_POINT ( 'NONE',  ( -0.09374999999999991673, 0.0000000000000000000, 0.6521984875871288390 ) ) ;
#216 = DIRECTION ( 'NONE',  ( 0.0000000000000000000, 0.0000000000000000000, 1.000000000000000000 ) ) ;
#217 = EDGE_LOOP ( 'NONE', ( #67, #157, #245, #14 ) ) ;
#218 = ORIENTED_EDGE ( 'NONE', *, *, #3, .T. ) ;
#219 = EDGE_CURVE ( 'NONE', #169, #122, #108, .T. ) ;
#220 = CARTESIAN_POINT ( 'NONE',  ( -0.07802189999999993575, 9.554927009839488851E-18, 0.5629999999999999449 ) ) ;
#221 = DIRECTION ( 'NONE',  ( 0.0000000000000000000, 0.0000000000000000000, 1.000000000000000000 ) ) ;
#222 = EDGE_CURVE ( 'NONE', #122, #194, #266, .T. ) ;
#223 = ORIENTED_EDGE ( 'NONE', *, *, #219, .F. ) ;
#224 = VECTOR ( 'NONE', #73, 39.37007874015748143 ) ;
#225 = PRODUCT_DEFINITION_CONTEXT ( 'detailed design', #24, 'design' ) ;
#226 = LINE ( 'NONE', #129, #147 ) ;
#227 = CIRCLE ( 'NONE', #173, 0.07874999999999980627 ) ;
#228 = DIRECTION ( 'NONE',  ( 0.0000000000000000000, 0.0000000000000000000, -1.000000000000000000 ) ) ;
#229 = CARTESIAN_POINT ( 'NONE',  ( 0.0000000000000000000, 0.0000000000000000000, 2.000000000000000000 ) ) ;
#230 = DIRECTION ( 'NONE',  ( -1.000000000000000000, 0.0000000000000000000, 1.224646799147353207E-16 ) ) ;
#231 = DIRECTION ( 'NONE',  ( -0.0000000000000000000, -0.0000000000000000000, -1.000000000000000000 ) ) ;
#232 = ORIENTED_EDGE ( 'NONE', *, *, #222, .F. ) ;
#233 = PLANE ( 'NONE',  #191 ) ;
#234 = ORIENTED_EDGE ( 'NONE', *, *, #299, .T. ) ;
#235 = FILL_AREA_STYLE ('',( #272 ) ) ;
#236 = DIRECTION ( 'NONE',  ( 0.0000000000000000000, 0.0000000000000000000, 1.000000000000000000 ) ) ;
#237 =( CONVERSION_BASED_UNIT ( 'INCH', #205 ) LENGTH_UNIT ( ) NAMED_UNIT ( #15 ) );
#238 = ORIENTED_EDGE ( 'NONE', *, *, #146, .T. ) ;
#239 = AXIS2_PLACEMENT_3D ( 'NONE', #229, #228, #6 ) ;
#240 = FACE_OUTER_BOUND ( 'NONE', #65, .T. ) ;
#241 = DIMENSIONAL_EXPONENTS ( 1.000000000000000000, 0.0000000000000000000, 0.0000000000000000000, 0.0000000000000000000, 0.0000000000000000000, 0.0000000000000000000, 0.0000000000000000000 ) ;
#242 = SURFACE_STYLE_USAGE ( .BOTH. , #57 ) ;
#243 = VECTOR ( 'NONE', #158, 39.37007874015748143 ) ;
#244 = MANIFOLD_SOLID_BREP ( 'Cut-Revolve1', #161 ) ;
#245 = ORIENTED_EDGE ( 'NONE', *, *, #273, .F. ) ;
#246 = ORIENTED_EDGE ( 'NONE', *, *, #64, .F. ) ;
#247 =( CONVERSION_BASED_UNIT ( 'INCH', #4 ) LENGTH_UNIT ( ) NAMED_UNIT ( #54 ) );
#248 = AXIS2_PLACEMENT_3D ( 'NONE', #63, #62, #90 ) ;
#249 = DIRECTION ( 'NONE',  ( 1.000000000000000000, 0.0000000000000000000, -0.0000000000000000000 ) ) ;
#250 = CONICAL_SURFACE ( 'NONE', #298, 0.07802190000000000514, 0.1745329251994338082 ) ;
#251 = VECTOR ( 'NONE', #278, 39.37007874015748143 ) ;
#252 = DIRECTION ( 'NONE',  ( 1.000000000000000000, 0.0000000000000000000, 0.0000000000000000000 ) ) ;
#253 = DIRECTION ( 'NONE',  ( 1.000000000000000000, 0.0000000000000000000, 0.0000000000000000000 ) ) ;
#254 = EDGE_CURVE ( 'NONE', #26, #82, #18, .T. ) ;
#255 = DIRECTION ( 'NONE',  ( -0.0000000000000000000, -0.0000000000000000000, -1.000000000000000000 ) ) ;
#256 = ADVANCED_FACE ( 'NONE', ( #150 ), #68, .T. ) ;
#257 = ORIENTED_EDGE ( 'NONE', *, *, #133, .F. ) ;
#258 = CARTESIAN_POINT ( 'NONE',  ( 0.09375000000000001388, 1.148106374200643863E-17, 1.984999999999999654 ) ) ;
#259 = CARTESIAN_POINT ( 'NONE',  ( 1.170141077868652023E-33, 0.0000000000000000000, 9.554927009839488851E-18 ) ) ;
#260 = SHAPE_DEFINITION_REPRESENTATION ( #268, #267 ) ;
#261 = DIRECTION ( 'NONE',  ( -1.000000000000000000, 0.0000000000000000000, 0.0000000000000000000 ) ) ;
#262 = CYLINDRICAL_SURFACE ( 'NONE', #171, 0.07802190000000000514 ) ;
#263 = VERTEX_POINT ( 'NONE', #23 ) ;
#264 = EDGE_LOOP ( 'NONE', ( #218, #127, #232, #257 ) ) ;
#265 = AXIS2_PLACEMENT_3D ( 'NONE', #212, #8, #187 ) ;
#266 = CIRCLE ( 'NONE', #162, 0.09375000000000001388 ) ;
#267 = ADVANCED_BREP_SHAPE_REPRESENTATION ( 'Micro_EMS-156-3', ( #244, #270 ), #101 ) ;
#268 = PRODUCT_DEFINITION_SHAPE ( 'NONE', 'NONE',  #154 ) ;
#269 = CIRCLE ( 'NONE', #113, 0.07802190000000000514 ) ;
#270 = AXIS2_PLACEMENT_3D ( 'NONE', #287, #216, #164 ) ;
#271 = ORIENTED_EDGE ( 'NONE', *, *, #115, .T. ) ;
#272 = FILL_AREA_STYLE_COLOUR ( '', #210 ) ;
#273 = EDGE_CURVE ( 'NONE', #124, #263, #206, .T. ) ;
#274 = LINE ( 'NONE', #151, #251 ) ;
#275 = DIRECTION ( 'NONE',  ( 1.000000000000000000, 0.0000000000000000000, 0.0000000000000000000 ) ) ;
#276 = PRESENTATION_STYLE_ASSIGNMENT (( #89 ) ) ;
#277 =( GEOMETRIC_REPRESENTATION_CONTEXT ( 3 ) GLOBAL_UNCERTAINTY_ASSIGNED_CONTEXT ( ( #168 ) ) GLOBAL_UNIT_ASSIGNED_CONTEXT ( ( #179, #280, #66 ) ) REPRESENTATION_CONTEXT ( 'NONE', 'WORKASPACE' ) );
#278 = DIRECTION ( 'NONE',  ( 0.7071067811865463515, 8.659560562354916834E-17, -0.7071067811865486830 ) ) ;
#279 = EDGE_CURVE ( 'NONE', #193, #194, #42, .T. ) ;
#280 =( NAMED_UNIT ( * ) PLANE_ANGLE_UNIT ( ) SI_UNIT ( $, .RADIAN. ) );
#281 = CIRCLE ( 'NONE', #289, 0.07874999999999980627 ) ;
#282 = CARTESIAN_POINT ( 'NONE',  ( -0.09375000000000001388, 0.0000000000000000000, 2.000000000000000000 ) ) ;
#283 = CARTESIAN_POINT ( 'NONE',  ( 0.07802190000000000514, 9.554927009839488851E-18, -9.554927009839488851E-18 ) ) ;
#284 = EDGE_LOOP ( 'NONE', ( #223, #36, #170, #271 ) ) ;
#285 = DIRECTION ( 'NONE',  ( 1.000000000000000000, 0.0000000000000000000, 0.0000000000000000000 ) ) ;
#286 = DIRECTION ( 'NONE',  ( -1.000000000000000000, 0.0000000000000000000, 0.0000000000000000000 ) ) ;
#287 = CARTESIAN_POINT ( 'NONE',  ( 0.0000000000000000000, 0.0000000000000000000, 0.0000000000000000000 ) ) ;
#288 = AXIS2_PLACEMENT_3D ( 'NONE', #213, #71, #9 ) ;
#289 = AXIS2_PLACEMENT_3D ( 'NONE', #19, #221, #297 ) ;
#290 = ORIENTED_EDGE ( 'NONE', *, *, #202, .T. ) ;
#291 = FACE_OUTER_BOUND ( 'NONE', #217, .T. ) ;
#292 = CARTESIAN_POINT ( 'NONE',  ( 0.07802190000000007453, 0.0000000000000000000, 0.5629999999999999449 ) ) ;
#293 = ORIENTED_EDGE ( 'NONE', *, *, #186, .F. ) ;
#294 = ORIENTED_EDGE ( 'NONE', *, *, #254, .F. ) ;
#295 = PRODUCT_DEFINITION_FORMATION_WITH_SPECIFIED_SOURCE ( 'ANY', '', #105, .NOT_KNOWN. ) ;
#296 = EDGE_CURVE ( 'NONE', #169, #124, #226, .T. ) ;
#297 = DIRECTION ( 'NONE',  ( 1.000000000000000000, 0.0000000000000000000, 0.0000000000000000000 ) ) ;
#298 = AXIS2_PLACEMENT_3D ( 'NONE', #96, #100, #285 ) ;
#299 = EDGE_CURVE ( 'NONE', #174, #26, #274, .T. ) ;
ENDSEC;
END-ISO-10303-21;
