ISO-10303-21;
HEADER;
FILE_DESCRIPTION (( 'STEP AP214' ),
    '1' );
FILE_NAME ('Micro_GEM-046-4X.STEP',
    '2021-09-01T18:56:46',
    ( '' ),
    ( '' ),
    'SwSTEP 2.0',
    'SolidWorks 2020',
    '' );
FILE_SCHEMA (( 'AUTOMOTIVE_DESIGN' ));
ENDSEC;

DATA;
#1 = CARTESIAN_POINT ( 'NONE',  ( 0.04750000000000064587, 5.817072295950006528E-18, 1.500000000000000222 ) ) ;
#2 = ADVANCED_FACE ( 'NONE', ( #156 ), #142, .T. ) ;
#3 = DIRECTION ( 'NONE',  ( -1.224646799147353700E-16, -0.0000000000000000000, -1.000000000000000000 ) ) ;
#4 = CIRCLE ( 'NONE', #94, 0.04750000000000064587 ) ;
#5 = CARTESIAN_POINT ( 'NONE',  ( -0.04750000000000064587, 0.0000000000000000000, 1.500000000000000222 ) ) ;
#6 = CYLINDRICAL_SURFACE ( 'NONE', #26, 0.02342655000000000085 ) ;
#7 = DIRECTION ( 'NONE',  ( -1.224646799147353700E-16, -0.0000000000000000000, -1.000000000000000000 ) ) ;
#8 = CARTESIAN_POINT ( 'NONE',  ( 0.0000000000000000000, 0.0000000000000000000, 1.500000000000000222 ) ) ;
#9 = DIRECTION ( 'NONE',  ( 0.7071067811865462405, 8.659560562354916834E-17, -0.7071067811865486830 ) ) ;
#10 = DIRECTION ( 'NONE',  ( -1.000000000000000000, 0.0000000000000000000, 0.0000000000000000000 ) ) ;
#11 = ORIENTED_EDGE ( 'NONE', *, *, #233, .T. ) ;
#12 = EDGE_CURVE ( 'NONE', #256, #80, #185, .T. ) ;
#13 = PRODUCT_DEFINITION_SHAPE ( 'NONE', 'NONE',  #140 ) ;
#14 = ORIENTED_EDGE ( 'NONE', *, *, #145, .F. ) ;
#15 = ORIENTED_EDGE ( 'NONE', *, *, #297, .F. ) ;
#16 = ORIENTED_EDGE ( 'NONE', *, *, #217, .F. ) ;
#17 = ORIENTED_EDGE ( 'NONE', *, *, #291, .F. ) ;
#18 = VECTOR ( 'NONE', #96, 39.37007874015748143 ) ;
#19 = CARTESIAN_POINT ( 'NONE',  ( -0.06250000000000002776, 0.0000000000000000000, 1.500000000000000222 ) ) ;
#20 = DIRECTION ( 'NONE',  ( 1.224646799147353700E-16, 0.0000000000000000000, 1.000000000000000000 ) ) ;
#21 = CARTESIAN_POINT ( 'NONE',  ( -0.06249999999999997918, 0.0000000000000000000, 0.3305965466147405274 ) ) ;
#22 = AXIS2_PLACEMENT_3D ( 'NONE', #117, #199, #220 ) ;
#23 = LENGTH_MEASURE_WITH_UNIT ( LENGTH_MEASURE( 0.02539999999999999897 ), #243 );
#24 = DIRECTION ( 'NONE',  ( -1.000000000000000000, 0.0000000000000000000, 0.0000000000000000000 ) ) ;
#25 = CARTESIAN_POINT ( 'NONE',  ( 1.334865011070615584E-17, 0.0000000000000000000, 0.1089999999999999997 ) ) ;
#26 = AXIS2_PLACEMENT_3D ( 'NONE', #212, #210, #71 ) ;
#27 = DIRECTION ( 'NONE',  ( 0.0000000000000000000, 0.0000000000000000000, -1.000000000000000000 ) ) ;
#28 =( NAMED_UNIT ( * ) PLANE_ANGLE_UNIT ( ) SI_UNIT ( $, .RADIAN. ) );
#29 = SURFACE_STYLE_FILL_AREA ( #270 ) ;
#30 = ADVANCED_BREP_SHAPE_REPRESENTATION ( 'Micro_GEM-046-4X', ( #214, #120 ), #31 ) ;
#31 =( GEOMETRIC_REPRESENTATION_CONTEXT ( 3 ) GLOBAL_UNCERTAINTY_ASSIGNED_CONTEXT ( ( #33 ) ) GLOBAL_UNIT_ASSIGNED_CONTEXT ( ( #37, #115, #216 ) ) REPRESENTATION_CONTEXT ( 'NONE', 'WORKASPACE' ) );
#32 = CARTESIAN_POINT ( 'NONE',  ( 0.02342655000000000085, 2.868924947256542564E-18, 0.0000000000000000000 ) ) ;
#33 = UNCERTAINTY_MEASURE_WITH_UNIT (LENGTH_MEASURE( 1.000000000000000082E-05 ), #37, 'distance_accuracy_value', 'NONE');
#34 = APPLICATION_PROTOCOL_DEFINITION ( 'draft international standard', 'automotive_design', 1998, #116 ) ;
#35 = ORIENTED_EDGE ( 'NONE', *, *, #155, .T. ) ;
#36 = ORIENTED_EDGE ( 'NONE', *, *, #291, .T. ) ;
#37 =( CONVERSION_BASED_UNIT ( 'INCH', #197 ) LENGTH_UNIT ( ) NAMED_UNIT ( #129 ) );
#38 = AXIS2_PLACEMENT_3D ( 'NONE', #281, #43, #255 ) ;
#39 = ORIENTED_EDGE ( 'NONE', *, *, #104, .F. ) ;
#40 = ORIENTED_EDGE ( 'NONE', *, *, #285, .T. ) ;
#41 = CARTESIAN_POINT ( 'NONE',  ( 0.0000000000000000000, 0.0000000000000000000, 1.500000000000000222 ) ) ;
#42 = ORIENTED_EDGE ( 'NONE', *, *, #247, .T. ) ;
#43 = DIRECTION ( 'NONE',  ( 0.0000000000000000000, 0.0000000000000000000, -1.000000000000000000 ) ) ;
#44 = AXIS2_PLACEMENT_3D ( 'NONE', #253, #107, #161 ) ;
#45 = CIRCLE ( 'NONE', #143, 0.02342654999999999391 ) ;
#46 = SHAPE_DEFINITION_REPRESENTATION ( #13, #30 ) ;
#47 = CLOSED_SHELL ( 'NONE', ( #206, #78, #266, #188, #280, #164, #272, #2, #211, #274 ) ) ;
#48 = DIRECTION ( 'NONE',  ( -1.224646799147353700E-16, -0.0000000000000000000, -1.000000000000000000 ) ) ;
#49 = DIRECTION ( 'NONE',  ( -1.224646799147353700E-16, -0.0000000000000000000, -1.000000000000000000 ) ) ;
#50 = DIRECTION ( 'NONE',  ( 1.000000000000000000, 0.0000000000000000000, 0.0000000000000000000 ) ) ;
#51 = SURFACE_SIDE_STYLE ('',( #29 ) ) ;
#52 = APPLICATION_CONTEXT ( 'automotive_design' ) ;
#53 = FACE_OUTER_BOUND ( 'NONE', #207, .T. ) ;
#54 = CIRCLE ( 'NONE', #38, 0.06250000000000002776 ) ;
#55 = SURFACE_STYLE_USAGE ( .BOTH. , #51 ) ;
#56 = STYLED_ITEM ( 'NONE', ( #146 ), #30 ) ;
#57 = VERTEX_POINT ( 'NONE', #168 ) ;
#58 = AXIS2_PLACEMENT_3D ( 'NONE', #294, #3, #70 ) ;
#59 = AXIS2_PLACEMENT_3D ( 'NONE', #136, #49, #288 ) ;
#60 = ORIENTED_EDGE ( 'NONE', *, *, #225, .T. ) ;
#61 = ORIENTED_EDGE ( 'NONE', *, *, #72, .T. ) ;
#62 = ORIENTED_EDGE ( 'NONE', *, *, #162, .F. ) ;
#63 = EDGE_LOOP ( 'NONE', ( #102, #273, #183, #65 ) ) ;
#64 = PRODUCT_DEFINITION_FORMATION_WITH_SPECIFIED_SOURCE ( 'ANY', '', #245, .NOT_KNOWN. ) ;
#65 = ORIENTED_EDGE ( 'NONE', *, *, #12, .F. ) ;
#66 = CARTESIAN_POINT ( 'NONE',  ( -0.04750000000000064587, 0.0000000000000000000, 1.500000000000000222 ) ) ;
#67 = CARTESIAN_POINT ( 'NONE',  ( 4.048640026209108604E-17, 0.0000000000000000000, 0.3305965466147405274 ) ) ;
#68 = CONICAL_SURFACE ( 'NONE', #44, 0.02342654999999999391, 0.1745329251994338915 ) ;
#69 = CARTESIAN_POINT ( 'NONE',  ( 1.334865011070615584E-17, 0.0000000000000000000, 0.1089999999999999997 ) ) ;
#70 = DIRECTION ( 'NONE',  ( -1.000000000000000000, 0.0000000000000000000, 1.224646799147353700E-16 ) ) ;
#71 = DIRECTION ( 'NONE',  ( -1.000000000000000000, 0.0000000000000000000, 1.224646799147353700E-16 ) ) ;
#72 = EDGE_CURVE ( 'NONE', #230, #99, #259, .T. ) ;
#73 = DIRECTION ( 'NONE',  ( -1.000000000000000000, 0.0000000000000000000, 0.0000000000000000000 ) ) ;
#74 = CARTESIAN_POINT ( 'NONE',  ( 0.0000000000000000000, 0.0000000000000000000, 0.0000000000000000000 ) ) ;
#75 = VECTOR ( 'NONE', #133, 39.37007874015747433 ) ;
#76 = PRODUCT_DEFINITION_CONTEXT ( 'detailed design', #52, 'design' ) ;
#77 = DIRECTION ( 'NONE',  ( 0.0000000000000000000, 0.0000000000000000000, -1.000000000000000000 ) ) ;
#78 = ADVANCED_FACE ( 'NONE', ( #205 ), #68, .T. ) ;
#79 = LINE ( 'NONE', #269, #252 ) ;
#80 = VERTEX_POINT ( 'NONE', #124 ) ;
#81 = DIRECTION ( 'NONE',  ( 0.0000000000000000000, 0.0000000000000000000, 1.000000000000000000 ) ) ;
#82 = VERTEX_POINT ( 'NONE', #181 ) ;
#83 = DIRECTION ( 'NONE',  ( 0.0000000000000000000, 0.0000000000000000000, 1.000000000000000000 ) ) ;
#84 = ORIENTED_EDGE ( 'NONE', *, *, #297, .T. ) ;
#85 = CIRCLE ( 'NONE', #166, 0.06250000000000002776 ) ;
#86 = VERTEX_POINT ( 'NONE', #208 ) ;
#87 = APPLICATION_PROTOCOL_DEFINITION ( 'draft international standard', 'automotive_design', 1998, #52 ) ;
#88 = ORIENTED_EDGE ( 'NONE', *, *, #179, .F. ) ;
#89 = AXIS2_PLACEMENT_3D ( 'NONE', #219, #246, #10 ) ;
#90 = DIRECTION ( 'NONE',  ( -1.224646799147353700E-16, -0.0000000000000000000, -1.000000000000000000 ) ) ;
#91 = CYLINDRICAL_SURFACE ( 'NONE', #223, 0.06250000000000002776 ) ;
#92 = SURFACE_STYLE_FILL_AREA ( #193 ) ;
#93 = DIRECTION ( 'NONE',  ( -0.0000000000000000000, -0.0000000000000000000, -1.000000000000000000 ) ) ;
#94 = AXIS2_PLACEMENT_3D ( 'NONE', #103, #182, #257 ) ;
#95 = AXIS2_PLACEMENT_3D ( 'NONE', #25, #137, #134 ) ;
#96 = DIRECTION ( 'NONE',  ( -1.224646799147353700E-16, -0.0000000000000000000, -1.000000000000000000 ) ) ;
#97 = UNCERTAINTY_MEASURE_WITH_UNIT (LENGTH_MEASURE( 1.000000000000000082E-05 ), #235, 'distance_accuracy_value', 'NONE');
#98 = DIRECTION ( 'NONE',  ( 1.000000000000000000, 0.0000000000000000000, -0.0000000000000000000 ) ) ;
#99 = VERTEX_POINT ( 'NONE', #21 ) ;
#100 = DIRECTION ( 'NONE',  ( 0.0000000000000000000, 0.0000000000000000000, 1.000000000000000000 ) ) ;
#101 = PRODUCT_RELATED_PRODUCT_CATEGORY ( 'part', '', ( #245 ) ) ;
#102 = ORIENTED_EDGE ( 'NONE', *, *, #285, .F. ) ;
#103 = CARTESIAN_POINT ( 'NONE',  ( 0.0000000000000000000, 0.0000000000000000000, 1.500000000000000222 ) ) ;
#104 = EDGE_CURVE ( 'NONE', #86, #99, #154, .T. ) ;
#105 = ORIENTED_EDGE ( 'NONE', *, *, #179, .T. ) ;
#106 = CIRCLE ( 'NONE', #218, 0.04750000000000064587 ) ;
#107 = DIRECTION ( 'NONE',  ( 1.224646799147353700E-16, 0.0000000000000000000, 1.000000000000000000 ) ) ;
#108 = AXIS2_PLACEMENT_3D ( 'NONE', #282, #7, #215 ) ;
#109 = VECTOR ( 'NONE', #271, 39.37007874015748143 ) ;
#110 = DIRECTION ( 'NONE',  ( 1.000000000000000000, 0.0000000000000000000, 0.0000000000000000000 ) ) ;
#111 = DIRECTION ( 'NONE',  ( -1.224646799147353700E-16, -0.0000000000000000000, -1.000000000000000000 ) ) ;
#112 = CIRCLE ( 'NONE', #157, 0.02342655000000000085 ) ;
#113 = CIRCLE ( 'NONE', #59, 0.06250000000000002776 ) ;
#114 =( NAMED_UNIT ( * ) SI_UNIT ( $, .STERADIAN. ) SOLID_ANGLE_UNIT ( ) );
#115 =( NAMED_UNIT ( * ) PLANE_ANGLE_UNIT ( ) SI_UNIT ( $, .RADIAN. ) );
#116 = APPLICATION_CONTEXT ( 'automotive_design' ) ;
#117 = CARTESIAN_POINT ( 'NONE',  ( 0.0000000000000000000, 0.0000000000000000000, 1.500000000000000222 ) ) ;
#118 = LINE ( 'NONE', #141, #18 ) ;
#119 = ORIENTED_EDGE ( 'NONE', *, *, #225, .F. ) ;
#120 = AXIS2_PLACEMENT_3D ( 'NONE', #131, #81, #160 ) ;
#121 = ORIENTED_EDGE ( 'NONE', *, *, #162, .T. ) ;
#122 = VERTEX_POINT ( 'NONE', #260 ) ;
#123 = PRODUCT_CONTEXT ( 'NONE', #116, 'mechanical' ) ;
#124 = CARTESIAN_POINT ( 'NONE',  ( -0.02342655000000000085, 0.0000000000000000000, 5.737849894513087439E-18 ) ) ;
#125 = ORIENTED_EDGE ( 'NONE', *, *, #12, .T. ) ;
#126 = EDGE_LOOP ( 'NONE', ( #180, #130, #153, #62 ) ) ;
#127 = LINE ( 'NONE', #66, #174 ) ;
#128 = EDGE_CURVE ( 'NONE', #230, #80, #236, .T. ) ;
#129 = DIMENSIONAL_EXPONENTS ( 1.000000000000000000, 0.0000000000000000000, 0.0000000000000000000, 0.0000000000000000000, 0.0000000000000000000, 0.0000000000000000000, 0.0000000000000000000 ) ;
#130 = ORIENTED_EDGE ( 'NONE', *, *, #251, .T. ) ;
#131 = CARTESIAN_POINT ( 'NONE',  ( 0.0000000000000000000, 0.0000000000000000000, 0.0000000000000000000 ) ) ;
#132 = CARTESIAN_POINT ( 'NONE',  ( -0.02342654999999998350, 2.868924947256542179E-18, 0.1089999999999999997 ) ) ;
#133 = DIRECTION ( 'NONE',  ( -0.1736481776669311916, 2.126576849575783316E-17, 0.9848077530122080203 ) ) ;
#134 = DIRECTION ( 'NONE',  ( -1.000000000000000000, 0.0000000000000000000, 0.0000000000000000000 ) ) ;
#135 = DIMENSIONAL_EXPONENTS ( 1.000000000000000000, 0.0000000000000000000, 0.0000000000000000000, 0.0000000000000000000, 0.0000000000000000000, 0.0000000000000000000, 0.0000000000000000000 ) ;
#136 = CARTESIAN_POINT ( 'NONE',  ( 4.048640026209108604E-17, 0.0000000000000000000, 0.3305965466147405274 ) ) ;
#137 = DIRECTION ( 'NONE',  ( -1.224646799147353700E-16, -0.0000000000000000000, -1.000000000000000000 ) ) ;
#138 = FACE_OUTER_BOUND ( 'NONE', #201, .T. ) ;
#139 = LENGTH_MEASURE_WITH_UNIT ( LENGTH_MEASURE( 0.02539999999999999897 ), #226 );
#140 = PRODUCT_DEFINITION ( 'UNKNOWN', '', #64, #76 ) ;
#141 = CARTESIAN_POINT ( 'NONE',  ( 0.02342655000000000085, 2.868924947256542564E-18, -2.868924947256543719E-18 ) ) ;
#142 = CONICAL_SURFACE ( 'NONE', #171, 0.02342654999999999391, 0.1745329251994338915 ) ;
#143 = AXIS2_PLACEMENT_3D ( 'NONE', #69, #194, #24 ) ;
#144 = FACE_OUTER_BOUND ( 'NONE', #279, .T. ) ;
#145 = EDGE_CURVE ( 'NONE', #202, #82, #4, .T. ) ;
#146 = PRESENTATION_STYLE_ASSIGNMENT (( #55 ) ) ;
#147 = ORIENTED_EDGE ( 'NONE', *, *, #128, .F. ) ;
#148 = STYLED_ITEM ( 'NONE', ( #189 ), #214 ) ;
#149 =( NAMED_UNIT ( * ) SI_UNIT ( $, .STERADIAN. ) SOLID_ANGLE_UNIT ( ) );
#150 = PRESENTATION_LAYER_ASSIGNMENT (  '', '', ( #56 ) ) ;
#151 = ORIENTED_EDGE ( 'NONE', *, *, #237, .T. ) ;
#152 = CARTESIAN_POINT ( 'NONE',  ( 3.513419753651716505E-34, 0.0000000000000000000, 2.868924947256543719E-18 ) ) ;
#153 = ORIENTED_EDGE ( 'NONE', *, *, #221, .F. ) ;
#154 = LINE ( 'NONE', #19, #190 ) ;
#155 = EDGE_CURVE ( 'NONE', #200, #86, #54, .T. ) ;
#156 = FACE_OUTER_BOUND ( 'NONE', #227, .T. ) ;
#157 = AXIS2_PLACEMENT_3D ( 'NONE', #152, #111, #187 ) ;
#158 = AXIS2_PLACEMENT_3D ( 'NONE', #8, #77, #267 ) ;
#159 = ORIENTED_EDGE ( 'NONE', *, *, #233, .F. ) ;
#160 = DIRECTION ( 'NONE',  ( 1.000000000000000000, 0.0000000000000000000, 0.0000000000000000000 ) ) ;
#161 = DIRECTION ( 'NONE',  ( 1.000000000000000000, 0.0000000000000000000, 0.0000000000000000000 ) ) ;
#162 = EDGE_CURVE ( 'NONE', #202, #86, #127, .T. ) ;
#163 = DIRECTION ( 'NONE',  ( 1.000000000000000000, 0.0000000000000000000, 0.0000000000000000000 ) ) ;
#164 = ADVANCED_FACE ( 'NONE', ( #228 ), #203, .T. ) ;
#165 = LINE ( 'NONE', #1, #209 ) ;
#166 = AXIS2_PLACEMENT_3D ( 'NONE', #263, #27, #50 ) ;
#167 = CYLINDRICAL_SURFACE ( 'NONE', #108, 0.02342655000000000085 ) ;
#168 = CARTESIAN_POINT ( 'NONE',  ( 0.02342655000000000778, 0.0000000000000000000, 0.1089999999999999997 ) ) ;
#169 = FILL_AREA_STYLE_COLOUR ( '', #250 ) ;
#170 = CARTESIAN_POINT ( 'NONE',  ( 0.06250000000000002776, 7.654042494670959086E-18, 1.485000000000000764 ) ) ;
#171 = AXIS2_PLACEMENT_3D ( 'NONE', #258, #20, #198 ) ;
#172 = FACE_OUTER_BOUND ( 'NONE', #224, .T. ) ;
#173 = ORIENTED_EDGE ( 'NONE', *, *, #251, .F. ) ;
#174 = VECTOR ( 'NONE', #232, 39.37007874015748854 ) ;
#175 = LINE ( 'NONE', #295, #109 ) ;
#176 = ORIENTED_EDGE ( 'NONE', *, *, #104, .T. ) ;
#177 = ORIENTED_EDGE ( 'NONE', *, *, #221, .T. ) ;
#178 = ORIENTED_EDGE ( 'NONE', *, *, #155, .F. ) ;
#179 = EDGE_CURVE ( 'NONE', #80, #256, #112, .T. ) ;
#180 = ORIENTED_EDGE ( 'NONE', *, *, #247, .F. ) ;
#181 = CARTESIAN_POINT ( 'NONE',  ( 0.04750000000000064587, 6.735557395310483192E-18, 1.500000000000000222 ) ) ;
#182 = DIRECTION ( 'NONE',  ( 0.0000000000000000000, 0.0000000000000000000, 1.000000000000000000 ) ) ;
#183 = ORIENTED_EDGE ( 'NONE', *, *, #128, .T. ) ;
#184 =( NAMED_UNIT ( * ) PLANE_ANGLE_UNIT ( ) SI_UNIT ( $, .RADIAN. ) );
#185 = CIRCLE ( 'NONE', #58, 0.02342655000000000085 ) ;
#186 = MECHANICAL_DESIGN_GEOMETRIC_PRESENTATION_REPRESENTATION (  '', ( #56 ), #265 ) ;
#187 = DIRECTION ( 'NONE',  ( -1.000000000000000000, 0.0000000000000000000, 1.224646799147353700E-16 ) ) ;
#188 = ADVANCED_FACE ( 'NONE', ( #138 ), #91, .T. ) ;
#189 = PRESENTATION_STYLE_ASSIGNMENT (( #287 ) ) ;
#190 = VECTOR ( 'NONE', #298, 39.37007874015748143 ) ;
#191 = CONICAL_SURFACE ( 'NONE', #89, 0.04750000000000064587, 0.7853981633974466137 ) ;
#192 =( CONVERSION_BASED_UNIT ( 'INCH', #23 ) LENGTH_UNIT ( ) NAMED_UNIT ( #296 ) );
#193 = FILL_AREA_STYLE ('',( #169 ) ) ;
#194 = DIRECTION ( 'NONE',  ( -1.224646799147353700E-16, -0.0000000000000000000, -1.000000000000000000 ) ) ;
#195 = AXIS2_PLACEMENT_3D ( 'NONE', #67, #48, #163 ) ;
#196 = DIRECTION ( 'NONE',  ( -0.0000000000000000000, -0.0000000000000000000, -1.000000000000000000 ) ) ;
#197 = LENGTH_MEASURE_WITH_UNIT ( LENGTH_MEASURE( 0.02539999999999999897 ), #244 );
#198 = DIRECTION ( 'NONE',  ( 1.000000000000000000, 0.0000000000000000000, 0.0000000000000000000 ) ) ;
#199 = DIRECTION ( 'NONE',  ( -0.0000000000000000000, -0.0000000000000000000, -1.000000000000000000 ) ) ;
#200 = VERTEX_POINT ( 'NONE', #170 ) ;
#201 = EDGE_LOOP ( 'NONE', ( #177, #36, #119, #39 ) ) ;
#202 = VERTEX_POINT ( 'NONE', #5 ) ;
#203 = PLANE ( 'NONE',  #213 ) ;
#204 = COLOUR_RGB ( '',0.7921568627450980005, 0.8196078431372548767, 0.9333333333333333481 ) ;
#205 = FACE_OUTER_BOUND ( 'NONE', #234, .T. ) ;
#206 = ADVANCED_FACE ( 'NONE', ( #283 ), #6, .T. ) ;
#207 = EDGE_LOOP ( 'NONE', ( #17, #35, #176, #159 ) ) ;
#208 = CARTESIAN_POINT ( 'NONE',  ( -0.06250000000000002776, 0.0000000000000000000, 1.485000000000000764 ) ) ;
#209 = VECTOR ( 'NONE', #9, 39.37007874015748854 ) ;
#210 = DIRECTION ( 'NONE',  ( -1.224646799147353700E-16, -0.0000000000000000000, -1.000000000000000000 ) ) ;
#211 = ADVANCED_FACE ( 'NONE', ( #261 ), #167, .T. ) ;
#212 = CARTESIAN_POINT ( 'NONE',  ( 0.0000000000000000000, 0.0000000000000000000, 0.0000000000000000000 ) ) ;
#213 = AXIS2_PLACEMENT_3D ( 'NONE', #41, #83, #277 ) ;
#214 = MANIFOLD_SOLID_BREP ( 'Cut-Revolve1', #47 ) ;
#215 = DIRECTION ( 'NONE',  ( -1.000000000000000000, 0.0000000000000000000, 1.224646799147353700E-16 ) ) ;
#216 =( NAMED_UNIT ( * ) SI_UNIT ( $, .STERADIAN. ) SOLID_ANGLE_UNIT ( ) );
#217 = EDGE_CURVE ( 'NONE', #57, #230, #45, .T. ) ;
#218 = AXIS2_PLACEMENT_3D ( 'NONE', #241, #242, #110 ) ;
#219 = CARTESIAN_POINT ( 'NONE',  ( 0.0000000000000000000, 0.0000000000000000000, 1.500000000000000222 ) ) ;
#220 = DIRECTION ( 'NONE',  ( -1.000000000000000000, 0.0000000000000000000, 0.0000000000000000000 ) ) ;
#221 = EDGE_CURVE ( 'NONE', #86, #200, #85, .T. ) ;
#222 = FACE_OUTER_BOUND ( 'NONE', #126, .T. ) ;
#223 = AXIS2_PLACEMENT_3D ( 'NONE', #286, #93, #73 ) ;
#224 = EDGE_LOOP ( 'NONE', ( #105, #125 ) ) ;
#225 = EDGE_CURVE ( 'NONE', #99, #122, #113, .T. ) ;
#226 =( LENGTH_UNIT ( ) NAMED_UNIT ( * ) SI_UNIT ( $, .METRE. ) );
#227 = EDGE_LOOP ( 'NONE', ( #278, #16, #84, #11 ) ) ;
#228 = FACE_OUTER_BOUND ( 'NONE', #229, .T. ) ;
#229 = EDGE_LOOP ( 'NONE', ( #254, #42 ) ) ;
#230 = VERTEX_POINT ( 'NONE', #239 ) ;
#231 = CONICAL_SURFACE ( 'NONE', #158, 0.04750000000000064587, 0.7853981633974466137 ) ;
#232 = DIRECTION ( 'NONE',  ( -0.7071067811865462405, 0.0000000000000000000, -0.7071067811865486830 ) ) ;
#233 = EDGE_CURVE ( 'NONE', #122, #99, #240, .T. ) ;
#234 = EDGE_LOOP ( 'NONE', ( #249, #61, #60, #15 ) ) ;
#235 =( CONVERSION_BASED_UNIT ( 'INCH', #139 ) LENGTH_UNIT ( ) NAMED_UNIT ( #135 ) );
#236 = LINE ( 'NONE', #299, #238 ) ;
#237 = EDGE_CURVE ( 'NONE', #230, #57, #262, .T. ) ;
#238 = VECTOR ( 'NONE', #90, 39.37007874015748143 ) ;
#239 = CARTESIAN_POINT ( 'NONE',  ( -0.02342654999999998350, 5.261483720963751017E-18, 0.1089999999999999997 ) ) ;
#240 = CIRCLE ( 'NONE', #195, 0.06250000000000002776 ) ;
#241 = CARTESIAN_POINT ( 'NONE',  ( 0.0000000000000000000, 0.0000000000000000000, 1.500000000000000222 ) ) ;
#242 = DIRECTION ( 'NONE',  ( 0.0000000000000000000, 0.0000000000000000000, 1.000000000000000000 ) ) ;
#243 =( LENGTH_UNIT ( ) NAMED_UNIT ( * ) SI_UNIT ( $, .METRE. ) );
#244 =( LENGTH_UNIT ( ) NAMED_UNIT ( * ) SI_UNIT ( $, .METRE. ) );
#245 = PRODUCT ( 'Micro_GEM-046-4X', 'Micro_GEM-046-4X', '', ( #123 ) ) ;
#246 = DIRECTION ( 'NONE',  ( 0.0000000000000000000, 0.0000000000000000000, -1.000000000000000000 ) ) ;
#247 = EDGE_CURVE ( 'NONE', #82, #202, #106, .T. ) ;
#248 = FILL_AREA_STYLE_COLOUR ( '', #204 ) ;
#249 = ORIENTED_EDGE ( 'NONE', *, *, #237, .F. ) ;
#250 = COLOUR_RGB ( '',0.7921568627450980005, 0.8196078431372548767, 0.9333333333333333481 ) ;
#251 = EDGE_CURVE ( 'NONE', #82, #200, #165, .T. ) ;
#252 = VECTOR ( 'NONE', #196, 39.37007874015748143 ) ;
#253 = CARTESIAN_POINT ( 'NONE',  ( 1.334865011070615584E-17, 0.0000000000000000000, 0.1089999999999999997 ) ) ;
#254 = ORIENTED_EDGE ( 'NONE', *, *, #145, .T. ) ;
#255 = DIRECTION ( 'NONE',  ( 1.000000000000000000, 0.0000000000000000000, 0.0000000000000000000 ) ) ;
#256 = VERTEX_POINT ( 'NONE', #32 ) ;
#257 = DIRECTION ( 'NONE',  ( 1.000000000000000000, 0.0000000000000000000, 0.0000000000000000000 ) ) ;
#258 = CARTESIAN_POINT ( 'NONE',  ( 1.334865011070615584E-17, 0.0000000000000000000, 0.1089999999999999997 ) ) ;
#259 = LINE ( 'NONE', #132, #75 ) ;
#260 = CARTESIAN_POINT ( 'NONE',  ( 0.06250000000000006939, 7.654042494670963708E-18, 0.3305965466147405274 ) ) ;
#261 = FACE_OUTER_BOUND ( 'NONE', #63, .T. ) ;
#262 = CIRCLE ( 'NONE', #95, 0.02342654999999999391 ) ;
#263 = CARTESIAN_POINT ( 'NONE',  ( 0.0000000000000000000, 0.0000000000000000000, 1.485000000000000764 ) ) ;
#264 = SURFACE_SIDE_STYLE ('',( #92 ) ) ;
#265 =( GEOMETRIC_REPRESENTATION_CONTEXT ( 3 ) GLOBAL_UNCERTAINTY_ASSIGNED_CONTEXT ( ( #97 ) ) GLOBAL_UNIT_ASSIGNED_CONTEXT ( ( #235, #184, #149 ) ) REPRESENTATION_CONTEXT ( 'NONE', 'WORKASPACE' ) );
#266 = ADVANCED_FACE ( 'NONE', ( #222 ), #231, .T. ) ;
#267 = DIRECTION ( 'NONE',  ( -1.000000000000000000, 0.0000000000000000000, 0.0000000000000000000 ) ) ;
#268 = UNCERTAINTY_MEASURE_WITH_UNIT (LENGTH_MEASURE( 1.000000000000000082E-05 ), #192, 'distance_accuracy_value', 'NONE');
#269 = CARTESIAN_POINT ( 'NONE',  ( 0.06250000000000002776, 7.654042494670959086E-18, 1.500000000000000222 ) ) ;
#270 = FILL_AREA_STYLE ('',( #248 ) ) ;
#271 = DIRECTION ( 'NONE',  ( 0.1736481776669313859, 0.0000000000000000000, 0.9848077530122077983 ) ) ;
#272 = ADVANCED_FACE ( 'NONE', ( #144 ), #191, .T. ) ;
#273 = ORIENTED_EDGE ( 'NONE', *, *, #217, .T. ) ;
#274 = ADVANCED_FACE ( 'NONE', ( #172 ), #290, .F. ) ;
#275 = MECHANICAL_DESIGN_GEOMETRIC_PRESENTATION_REPRESENTATION (  '', ( #148 ), #284 ) ;
#276 = EDGE_LOOP ( 'NONE', ( #151, #40, #88, #147 ) ) ;
#277 = DIRECTION ( 'NONE',  ( 1.000000000000000000, 0.0000000000000000000, -0.0000000000000000000 ) ) ;
#278 = ORIENTED_EDGE ( 'NONE', *, *, #72, .F. ) ;
#279 = EDGE_LOOP ( 'NONE', ( #173, #14, #121, #178 ) ) ;
#280 = ADVANCED_FACE ( 'NONE', ( #53 ), #292, .T. ) ;
#281 = CARTESIAN_POINT ( 'NONE',  ( 0.0000000000000000000, 0.0000000000000000000, 1.485000000000000764 ) ) ;
#282 = CARTESIAN_POINT ( 'NONE',  ( 0.0000000000000000000, 0.0000000000000000000, 0.0000000000000000000 ) ) ;
#283 = FACE_OUTER_BOUND ( 'NONE', #276, .T. ) ;
#284 =( GEOMETRIC_REPRESENTATION_CONTEXT ( 3 ) GLOBAL_UNCERTAINTY_ASSIGNED_CONTEXT ( ( #268 ) ) GLOBAL_UNIT_ASSIGNED_CONTEXT ( ( #192, #28, #114 ) ) REPRESENTATION_CONTEXT ( 'NONE', 'WORKASPACE' ) );
#285 = EDGE_CURVE ( 'NONE', #57, #256, #118, .T. ) ;
#286 = CARTESIAN_POINT ( 'NONE',  ( 0.0000000000000000000, 0.0000000000000000000, 1.500000000000000222 ) ) ;
#287 = SURFACE_STYLE_USAGE ( .BOTH. , #264 ) ;
#288 = DIRECTION ( 'NONE',  ( 1.000000000000000000, 0.0000000000000000000, 0.0000000000000000000 ) ) ;
#289 = PRESENTATION_LAYER_ASSIGNMENT (  '', '', ( #148 ) ) ;
#290 = PLANE ( 'NONE',  #293 ) ;
#291 = EDGE_CURVE ( 'NONE', #200, #122, #79, .T. ) ;
#292 = CYLINDRICAL_SURFACE ( 'NONE', #22, 0.06250000000000002776 ) ;
#293 = AXIS2_PLACEMENT_3D ( 'NONE', #74, #100, #98 ) ;
#294 = CARTESIAN_POINT ( 'NONE',  ( 3.513419753651716505E-34, 0.0000000000000000000, 2.868924947256543719E-18 ) ) ;
#295 = CARTESIAN_POINT ( 'NONE',  ( 0.02342655000000000778, 0.0000000000000000000, 0.1089999999999999997 ) ) ;
#296 = DIMENSIONAL_EXPONENTS ( 1.000000000000000000, 0.0000000000000000000, 0.0000000000000000000, 0.0000000000000000000, 0.0000000000000000000, 0.0000000000000000000, 0.0000000000000000000 ) ;
#297 = EDGE_CURVE ( 'NONE', #57, #122, #175, .T. ) ;
#298 = DIRECTION ( 'NONE',  ( -0.0000000000000000000, -0.0000000000000000000, -1.000000000000000000 ) ) ;
#299 = CARTESIAN_POINT ( 'NONE',  ( -0.02342655000000000085, 0.0000000000000000000, 2.868924947256543719E-18 ) ) ;
ENDSEC;
END-ISO-10303-21;
