ISO-10303-21;
HEADER;
FILE_DESCRIPTION (( 'STEP AP214' ),
    '1' );
FILE_NAME ('Micro_RDA-20.STEP',
    '2021-08-31T16:58:39',
    ( '' ),
    ( '' ),
    'SwSTEP 2.0',
    'SolidWorks 2020',
    '' );
FILE_SCHEMA (( 'AUTOMOTIVE_DESIGN' ));
ENDSEC;

DATA;
#1 = STYLED_ITEM ( 'NONE', ( #131 ), #115 ) ;
#2 = DIRECTION ( 'NONE',  ( 1.000000000000000000, 0.0000000000000000000, 0.0000000000000000000 ) ) ;
#3 = ADVANCED_FACE ( 'NONE', ( #140 ), #145, .T. ) ;
#4 = SURFACE_STYLE_FILL_AREA ( #136 ) ;
#5 = DIRECTION ( 'NONE',  ( 0.0000000000000000000, 0.0000000000000000000, 1.000000000000000000 ) ) ;
#6 = CIRCLE ( 'NONE', #90, 0.04750000000000064587 ) ;
#7 = CARTESIAN_POINT ( 'NONE',  ( -0.04685310000000001557, 0.0000000000000000000, 5.737849894513088209E-18 ) ) ;
#8 = DIRECTION ( 'NONE',  ( 1.000000000000000000, 0.0000000000000000000, 0.0000000000000000000 ) ) ;
#9 = CARTESIAN_POINT ( 'NONE',  ( 0.04685310000000005026, 0.0000000000000000000, 0.3749999999999999445 ) ) ;
#10 = AXIS2_PLACEMENT_3D ( 'NONE', #156, #48, #188 ) ;
#11 = CARTESIAN_POINT ( 'NONE',  ( -0.04750000000000064587, 0.0000000000000000000, 1.500000000000000222 ) ) ;
#12 = DIRECTION ( 'NONE',  ( 1.000000000000000000, 0.0000000000000000000, 0.0000000000000000000 ) ) ;
#13 = SURFACE_STYLE_USAGE ( .BOTH. , #39 ) ;
#14 = VECTOR ( 'NONE', #70, 39.37007874015748143 ) ;
#15 = AXIS2_PLACEMENT_3D ( 'NONE', #83, #28, #27 ) ;
#16 = ORIENTED_EDGE ( 'NONE', *, *, #248, .F. ) ;
#17 = ORIENTED_EDGE ( 'NONE', *, *, #195, .T. ) ;
#18 = LINE ( 'NONE', #60, #223 ) ;
#19 = CARTESIAN_POINT ( 'NONE',  ( 0.04685310000000001557, 5.737849894513087439E-18, 0.0000000000000000000 ) ) ;
#20 = CIRCLE ( 'NONE', #247, 0.04685310000000000863 ) ;
#21 = EDGE_LOOP ( 'NONE', ( #177, #272, #239, #252 ) ) ;
#22 = ORIENTED_EDGE ( 'NONE', *, *, #73, .T. ) ;
#23 = ADVANCED_FACE ( 'NONE', ( #46 ), #112, .T. ) ;
#24 = SURFACE_STYLE_USAGE ( .BOTH. , #256 ) ;
#25 = MECHANICAL_DESIGN_GEOMETRIC_PRESENTATION_REPRESENTATION (  '', ( #1 ), #162 ) ;
#26 = CARTESIAN_POINT ( 'NONE',  ( 0.06250000000000002776, 7.654042494670959086E-18, 1.485000000000000764 ) ) ;
#27 = DIRECTION ( 'NONE',  ( 1.000000000000000000, 0.0000000000000000000, 0.0000000000000000000 ) ) ;
#28 = DIRECTION ( 'NONE',  ( 0.0000000000000000000, 0.0000000000000000000, -1.000000000000000000 ) ) ;
#29 = CARTESIAN_POINT ( 'NONE',  ( 0.04685310000000001557, 5.737849894513087439E-18, -5.737849894513088209E-18 ) ) ;
#30 = CARTESIAN_POINT ( 'NONE',  ( 0.0000000000000000000, 0.0000000000000000000, 1.500000000000000222 ) ) ;
#31 = CARTESIAN_POINT ( 'NONE',  ( 0.0000000000000000000, 0.0000000000000000000, 1.485000000000000764 ) ) ;
#32 = CARTESIAN_POINT ( 'NONE',  ( -0.04685309999999996700, 6.695946194592023262E-18, 0.3749999999999999445 ) ) ;
#33 = CARTESIAN_POINT ( 'NONE',  ( 0.04750000000000064587, 5.817072295950006528E-18, 1.500000000000000222 ) ) ;
#34 = PRODUCT_DEFINITION ( 'UNKNOWN', '', #178, #126 ) ;
#35 = VERTEX_POINT ( 'NONE', #26 ) ;
#36 = PRESENTATION_LAYER_ASSIGNMENT (  '', '', ( #56 ) ) ;
#37 = CARTESIAN_POINT ( 'NONE',  ( 0.0000000000000000000, 0.0000000000000000000, 0.0000000000000000000 ) ) ;
#38 = EDGE_LOOP ( 'NONE', ( #215, #291 ) ) ;
#39 = SURFACE_SIDE_STYLE ('',( #199 ) ) ;
#40 = EDGE_CURVE ( 'NONE', #202, #255, #184, .T. ) ;
#41 = ORIENTED_EDGE ( 'NONE', *, *, #278, .F. ) ;
#42 =( NAMED_UNIT ( * ) PLANE_ANGLE_UNIT ( ) SI_UNIT ( $, .RADIAN. ) );
#43 = VECTOR ( 'NONE', #125, 39.37007874015748854 ) ;
#44 =( CONVERSION_BASED_UNIT ( 'INCH', #257 ) LENGTH_UNIT ( ) NAMED_UNIT ( #232 ) );
#45 = CARTESIAN_POINT ( 'NONE',  ( 0.04685310000000005026, 0.0000000000000000000, 0.3749999999999999445 ) ) ;
#46 = FACE_OUTER_BOUND ( 'NONE', #38, .T. ) ;
#47 = CONICAL_SURFACE ( 'NONE', #55, 0.04685310000000000863, 0.1745329251994339192 ) ;
#48 = DIRECTION ( 'NONE',  ( 0.0000000000000000000, 0.0000000000000000000, 1.000000000000000000 ) ) ;
#49 = ORIENTED_EDGE ( 'NONE', *, *, #226, .F. ) ;
#50 = CARTESIAN_POINT ( 'NONE',  ( 0.06250000000000002776, 7.654042494670959086E-18, 1.500000000000000222 ) ) ;
#51 = DIRECTION ( 'NONE',  ( -0.7071067811865462405, 0.0000000000000000000, -0.7071067811865486830 ) ) ;
#52 = EDGE_CURVE ( 'NONE', #155, #175, #66, .T. ) ;
#53 = DIRECTION ( 'NONE',  ( 1.000000000000000000, 0.0000000000000000000, 0.0000000000000000000 ) ) ;
#54 = DIRECTION ( 'NONE',  ( 1.224646799147353454E-16, 0.0000000000000000000, 1.000000000000000000 ) ) ;
#55 = AXIS2_PLACEMENT_3D ( 'NONE', #219, #54, #8 ) ;
#56 = STYLED_ITEM ( 'NONE', ( #65 ), #89 ) ;
#57 = LINE ( 'NONE', #9, #134 ) ;
#58 = ORIENTED_EDGE ( 'NONE', *, *, #186, .T. ) ;
#59 = CONICAL_SURFACE ( 'NONE', #263, 0.04750000000000064587, 0.7853981633974466137 ) ;
#60 = CARTESIAN_POINT ( 'NONE',  ( -0.04685309999999996700, 5.737849894513086668E-18, 0.3749999999999999445 ) ) ;
#61 = ORIENTED_EDGE ( 'NONE', *, *, #114, .T. ) ;
#62 = EDGE_LOOP ( 'NONE', ( #280, #207, #152, #267 ) ) ;
#63 =( LENGTH_UNIT ( ) NAMED_UNIT ( * ) SI_UNIT ( $, .METRE. ) );
#64 = AXIS2_PLACEMENT_3D ( 'NONE', #148, #262, #258 ) ;
#65 = PRESENTATION_STYLE_ASSIGNMENT (( #24 ) ) ;
#66 = LINE ( 'NONE', #88, #231 ) ;
#67 = EDGE_LOOP ( 'NONE', ( #233, #189 ) ) ;
#68 = PRODUCT_RELATED_PRODUCT_CATEGORY ( 'part', '', ( #95 ) ) ;
#69 = CARTESIAN_POINT ( 'NONE',  ( 0.0000000000000000000, 0.0000000000000000000, 1.500000000000000222 ) ) ;
#70 = DIRECTION ( 'NONE',  ( -1.224646799147353454E-16, -0.0000000000000000000, -1.000000000000000000 ) ) ;
#71 = DIRECTION ( 'NONE',  ( -1.000000000000000000, 0.0000000000000000000, 0.0000000000000000000 ) ) ;
#72 = CIRCLE ( 'NONE', #254, 0.06250000000000002776 ) ;
#73 = EDGE_CURVE ( 'NONE', #155, #35, #159, .T. ) ;
#74 = CARTESIAN_POINT ( 'NONE',  ( 5.679152322418703517E-17, 0.0000000000000000000, 0.4637379795033758634 ) ) ;
#75 = DIRECTION ( 'NONE',  ( 1.000000000000000000, 0.0000000000000000000, -0.0000000000000000000 ) ) ;
#76 = CARTESIAN_POINT ( 'NONE',  ( 0.0000000000000000000, 0.0000000000000000000, 1.500000000000000222 ) ) ;
#77 = AXIS2_PLACEMENT_3D ( 'NONE', #187, #163, #2 ) ;
#78 = CYLINDRICAL_SURFACE ( 'NONE', #200, 0.04685310000000001557 ) ;
#79 = UNCERTAINTY_MEASURE_WITH_UNIT (LENGTH_MEASURE( 1.000000000000000082E-05 ), #154, 'distance_accuracy_value', 'NONE');
#80 = ORIENTED_EDGE ( 'NONE', *, *, #142, .F. ) ;
#81 =( LENGTH_UNIT ( ) NAMED_UNIT ( * ) SI_UNIT ( $, .METRE. ) );
#82 = ADVANCED_FACE ( 'NONE', ( #138 ), #225, .T. ) ;
#83 = CARTESIAN_POINT ( 'NONE',  ( 0.0000000000000000000, 0.0000000000000000000, 1.485000000000000764 ) ) ;
#84 = ORIENTED_EDGE ( 'NONE', *, *, #139, .F. ) ;
#85 = AXIS2_PLACEMENT_3D ( 'NONE', #276, #110, #236 ) ;
#86 = CARTESIAN_POINT ( 'NONE',  ( 0.06250000000000008327, 7.654042494670966789E-18, 0.4637379795033758634 ) ) ;
#87 = DIMENSIONAL_EXPONENTS ( 1.000000000000000000, 0.0000000000000000000, 0.0000000000000000000, 0.0000000000000000000, 0.0000000000000000000, 0.0000000000000000000, 0.0000000000000000000 ) ;
#88 = CARTESIAN_POINT ( 'NONE',  ( -0.06250000000000002776, 0.0000000000000000000, 1.500000000000000222 ) ) ;
#89 = MANIFOLD_SOLID_BREP ( 'Cut-Revolve1', #201 ) ;
#90 = AXIS2_PLACEMENT_3D ( 'NONE', #76, #261, #53 ) ;
#91 = DIRECTION ( 'NONE',  ( -1.000000000000000000, 0.0000000000000000000, 1.224646799147353454E-16 ) ) ;
#92 = CARTESIAN_POINT ( 'NONE',  ( -0.04750000000000064587, 0.0000000000000000000, 1.500000000000000222 ) ) ;
#93 = DIRECTION ( 'NONE',  ( -1.224646799147353454E-16, -0.0000000000000000000, -1.000000000000000000 ) ) ;
#94 = FACE_OUTER_BOUND ( 'NONE', #132, .T. ) ;
#95 = PRODUCT ( 'Micro_RDA-20', 'Micro_RDA-20', '', ( #161 ) ) ;
#96 = APPLICATION_CONTEXT ( 'automotive_design' ) ;
#97 =( GEOMETRIC_REPRESENTATION_CONTEXT ( 3 ) GLOBAL_UNCERTAINTY_ASSIGNED_CONTEXT ( ( #79 ) ) GLOBAL_UNIT_ASSIGNED_CONTEXT ( ( #154, #42, #249 ) ) REPRESENTATION_CONTEXT ( 'NONE', 'WORKASPACE' ) );
#98 = DIRECTION ( 'NONE',  ( -1.000000000000000000, 0.0000000000000000000, 1.224646799147353454E-16 ) ) ;
#99 = DIRECTION ( 'NONE',  ( -1.000000000000000000, 0.0000000000000000000, 1.224646799147353454E-16 ) ) ;
#100 = VERTEX_POINT ( 'NONE', #45 ) ;
#101 = EDGE_CURVE ( 'NONE', #175, #103, #190, .T. ) ;
#102 =( CONVERSION_BASED_UNIT ( 'INCH', #251 ) LENGTH_UNIT ( ) NAMED_UNIT ( #87 ) );
#103 = VERTEX_POINT ( 'NONE', #86 ) ;
#104 = CIRCLE ( 'NONE', #210, 0.06250000000000002776 ) ;
#105 = DIRECTION ( 'NONE',  ( -0.1736481776669312194, 2.126576849575783625E-17, 0.9848077530122080203 ) ) ;
#106 = DIMENSIONAL_EXPONENTS ( 1.000000000000000000, 0.0000000000000000000, 0.0000000000000000000, 0.0000000000000000000, 0.0000000000000000000, 0.0000000000000000000, 0.0000000000000000000 ) ;
#107 = ORIENTED_EDGE ( 'NONE', *, *, #278, .T. ) ;
#108 = ADVANCED_FACE ( 'NONE', ( #277 ), #171, .T. ) ;
#109 = EDGE_LOOP ( 'NONE', ( #41, #229, #61, #227 ) ) ;
#110 = DIRECTION ( 'NONE',  ( 1.224646799147353454E-16, 0.0000000000000000000, 1.000000000000000000 ) ) ;
#111 = APPLICATION_PROTOCOL_DEFINITION ( 'draft international standard', 'automotive_design', 1998, #96 ) ;
#112 = PLANE ( 'NONE',  #122 ) ;
#113 = DIRECTION ( 'NONE',  ( -0.0000000000000000000, -0.0000000000000000000, -1.000000000000000000 ) ) ;
#114 = EDGE_CURVE ( 'NONE', #100, #103, #57, .T. ) ;
#115 = ADVANCED_BREP_SHAPE_REPRESENTATION ( 'Micro_RDA-20', ( #89, #10 ), #97 ) ;
#116 = VERTEX_POINT ( 'NONE', #32 ) ;
#117 = DIRECTION ( 'NONE',  ( 1.000000000000000000, 0.0000000000000000000, -0.0000000000000000000 ) ) ;
#118 = CIRCLE ( 'NONE', #64, 0.04685310000000000863 ) ;
#119 = DIRECTION ( 'NONE',  ( -1.224646799147353454E-16, -0.0000000000000000000, -1.000000000000000000 ) ) ;
#120 = DIRECTION ( 'NONE',  ( 1.000000000000000000, 0.0000000000000000000, 0.0000000000000000000 ) ) ;
#121 = FACE_OUTER_BOUND ( 'NONE', #250, .T. ) ;
#122 = AXIS2_PLACEMENT_3D ( 'NONE', #182, #5, #117 ) ;
#123 = LINE ( 'NONE', #50, #214 ) ;
#124 = ADVANCED_FACE ( 'NONE', ( #241 ), #47, .T. ) ;
#125 = DIRECTION ( 'NONE',  ( 0.7071067811865462405, 8.659560562354916834E-17, -0.7071067811865486830 ) ) ;
#126 = PRODUCT_DEFINITION_CONTEXT ( 'detailed design', #96, 'design' ) ;
#127 = FACE_OUTER_BOUND ( 'NONE', #235, .T. ) ;
#128 = VERTEX_POINT ( 'NONE', #168 ) ;
#129 = CIRCLE ( 'NONE', #173, 0.04685310000000001557 ) ;
#130 = ORIENTED_EDGE ( 'NONE', *, *, #226, .T. ) ;
#131 = PRESENTATION_STYLE_ASSIGNMENT (( #13 ) ) ;
#132 = EDGE_LOOP ( 'NONE', ( #22, #289, #135, #204 ) ) ;
#133 = ORIENTED_EDGE ( 'NONE', *, *, #73, .F. ) ;
#134 = VECTOR ( 'NONE', #165, 39.37007874015748143 ) ;
#135 = ORIENTED_EDGE ( 'NONE', *, *, #101, .F. ) ;
#136 = FILL_AREA_STYLE ('',( #209 ) ) ;
#137 = EDGE_CURVE ( 'NONE', #35, #155, #104, .T. ) ;
#138 = FACE_OUTER_BOUND ( 'NONE', #157, .T. ) ;
#139 = EDGE_CURVE ( 'NONE', #273, #128, #293, .T. ) ;
#140 = FACE_OUTER_BOUND ( 'NONE', #298, .T. ) ;
#141 = DIRECTION ( 'NONE',  ( 1.000000000000000000, 0.0000000000000000000, 0.0000000000000000000 ) ) ;
#142 = EDGE_CURVE ( 'NONE', #255, #202, #6, .T. ) ;
#143 = DIRECTION ( 'NONE',  ( -0.0000000000000000000, -0.0000000000000000000, -1.000000000000000000 ) ) ;
#144 =( GEOMETRIC_REPRESENTATION_CONTEXT ( 3 ) GLOBAL_UNCERTAINTY_ASSIGNED_CONTEXT ( ( #268 ) ) GLOBAL_UNIT_ASSIGNED_CONTEXT ( ( #44, #234, #211 ) ) REPRESENTATION_CONTEXT ( 'NONE', 'WORKASPACE' ) );
#145 = CONICAL_SURFACE ( 'NONE', #172, 0.04750000000000064587, 0.7853981633974466137 ) ;
#146 = DIRECTION ( 'NONE',  ( -1.224646799147353454E-16, -0.0000000000000000000, -1.000000000000000000 ) ) ;
#147 = PLANE ( 'NONE',  #183 ) ;
#148 = CARTESIAN_POINT ( 'NONE',  ( 4.592425496802575451E-17, 0.0000000000000000000, 0.3749999999999999445 ) ) ;
#149 = DIRECTION ( 'NONE',  ( 0.0000000000000000000, 0.0000000000000000000, -1.000000000000000000 ) ) ;
#150 = CYLINDRICAL_SURFACE ( 'NONE', #230, 0.04685310000000001557 ) ;
#151 = ORIENTED_EDGE ( 'NONE', *, *, #101, .T. ) ;
#152 = ORIENTED_EDGE ( 'NONE', *, *, #285, .F. ) ;
#153 = MECHANICAL_DESIGN_GEOMETRIC_PRESENTATION_REPRESENTATION (  '', ( #56 ), #144 ) ;
#154 =( CONVERSION_BASED_UNIT ( 'INCH', #270 ) LENGTH_UNIT ( ) NAMED_UNIT ( #106 ) );
#155 = VERTEX_POINT ( 'NONE', #167 ) ;
#156 = CARTESIAN_POINT ( 'NONE',  ( 0.0000000000000000000, 0.0000000000000000000, 0.0000000000000000000 ) ) ;
#157 = EDGE_LOOP ( 'NONE', ( #16, #107, #151, #299 ) ) ;
#158 = VECTOR ( 'NONE', #119, 39.37007874015748143 ) ;
#159 = CIRCLE ( 'NONE', #15, 0.06250000000000002776 ) ;
#160 = SHAPE_DEFINITION_REPRESENTATION ( #198, #115 ) ;
#161 = PRODUCT_CONTEXT ( 'NONE', #296, 'mechanical' ) ;
#162 =( GEOMETRIC_REPRESENTATION_CONTEXT ( 3 ) GLOBAL_UNCERTAINTY_ASSIGNED_CONTEXT ( ( #224 ) ) GLOBAL_UNIT_ASSIGNED_CONTEXT ( ( #102, #266, #292 ) ) REPRESENTATION_CONTEXT ( 'NONE', 'WORKASPACE' ) );
#163 = DIRECTION ( 'NONE',  ( -1.224646799147353454E-16, -0.0000000000000000000, -1.000000000000000000 ) ) ;
#164 = ORIENTED_EDGE ( 'NONE', *, *, #220, .F. ) ;
#165 = DIRECTION ( 'NONE',  ( 0.1736481776669314137, 0.0000000000000000000, 0.9848077530122077983 ) ) ;
#166 = AXIS2_PLACEMENT_3D ( 'NONE', #265, #282, #71 ) ;
#167 = CARTESIAN_POINT ( 'NONE',  ( -0.06250000000000002776, 0.0000000000000000000, 1.485000000000000764 ) ) ;
#168 = CARTESIAN_POINT ( 'NONE',  ( -0.04685310000000001557, 0.0000000000000000000, 1.147569978902617642E-17 ) ) ;
#169 = ADVANCED_FACE ( 'NONE', ( #121 ), #59, .T. ) ;
#170 = DIRECTION ( 'NONE',  ( -1.000000000000000000, 0.0000000000000000000, 0.0000000000000000000 ) ) ;
#171 = CYLINDRICAL_SURFACE ( 'NONE', #166, 0.06250000000000002776 ) ;
#172 = AXIS2_PLACEMENT_3D ( 'NONE', #279, #212, #191 ) ;
#173 = AXIS2_PLACEMENT_3D ( 'NONE', #274, #203, #99 ) ;
#174 = ADVANCED_FACE ( 'NONE', ( #244 ), #147, .F. ) ;
#175 = VERTEX_POINT ( 'NONE', #281 ) ;
#176 = DIRECTION ( 'NONE',  ( -1.224646799147353454E-16, -0.0000000000000000000, -1.000000000000000000 ) ) ;
#177 = ORIENTED_EDGE ( 'NONE', *, *, #213, .F. ) ;
#178 = PRODUCT_DEFINITION_FORMATION_WITH_SPECIFIED_SOURCE ( 'ANY', '', #95, .NOT_KNOWN. ) ;
#179 = EDGE_CURVE ( 'NONE', #255, #35, #283, .T. ) ;
#180 = CARTESIAN_POINT ( 'NONE',  ( 0.04750000000000064587, 6.735557395310483192E-18, 1.500000000000000222 ) ) ;
#181 = ORIENTED_EDGE ( 'NONE', *, *, #137, .F. ) ;
#182 = CARTESIAN_POINT ( 'NONE',  ( 0.0000000000000000000, 0.0000000000000000000, 1.500000000000000222 ) ) ;
#183 = AXIS2_PLACEMENT_3D ( 'NONE', #246, #286, #75 ) ;
#184 = CIRCLE ( 'NONE', #295, 0.04750000000000064587 ) ;
#185 = DIRECTION ( 'NONE',  ( 0.0000000000000000000, 0.0000000000000000000, 1.000000000000000000 ) ) ;
#186 = EDGE_CURVE ( 'NONE', #116, #128, #218, .T. ) ;
#187 = CARTESIAN_POINT ( 'NONE',  ( 5.679152322418703517E-17, 0.0000000000000000000, 0.4637379795033758634 ) ) ;
#188 = DIRECTION ( 'NONE',  ( 1.000000000000000000, 0.0000000000000000000, 0.0000000000000000000 ) ) ;
#189 = ORIENTED_EDGE ( 'NONE', *, *, #139, .T. ) ;
#190 = CIRCLE ( 'NONE', #77, 0.06250000000000002776 ) ;
#191 = DIRECTION ( 'NONE',  ( -1.000000000000000000, 0.0000000000000000000, 0.0000000000000000000 ) ) ;
#192 = DIRECTION ( 'NONE',  ( -1.224646799147353454E-16, -0.0000000000000000000, -1.000000000000000000 ) ) ;
#193 = CARTESIAN_POINT ( 'NONE',  ( 0.0000000000000000000, 0.0000000000000000000, 1.500000000000000222 ) ) ;
#194 = DIRECTION ( 'NONE',  ( -1.000000000000000000, 0.0000000000000000000, 0.0000000000000000000 ) ) ;
#195 = EDGE_CURVE ( 'NONE', #100, #116, #118, .T. ) ;
#196 = CYLINDRICAL_SURFACE ( 'NONE', #240, 0.06250000000000002776 ) ;
#197 = CARTESIAN_POINT ( 'NONE',  ( 7.026839507303433011E-34, 0.0000000000000000000, 5.737849894513088209E-18 ) ) ;
#198 = PRODUCT_DEFINITION_SHAPE ( 'NONE', 'NONE',  #34 ) ;
#199 = SURFACE_STYLE_FILL_AREA ( #297 ) ;
#200 = AXIS2_PLACEMENT_3D ( 'NONE', #290, #222, #98 ) ;
#201 = CLOSED_SHELL ( 'NONE', ( #264, #82, #3, #205, #108, #23, #169, #124, #288, #174 ) ) ;
#202 = VERTEX_POINT ( 'NONE', #11 ) ;
#203 = DIRECTION ( 'NONE',  ( -1.224646799147353454E-16, -0.0000000000000000000, -1.000000000000000000 ) ) ;
#204 = ORIENTED_EDGE ( 'NONE', *, *, #52, .F. ) ;
#205 = ADVANCED_FACE ( 'NONE', ( #94 ), #196, .T. ) ;
#206 = FILL_AREA_STYLE_COLOUR ( '', #275 ) ;
#207 = ORIENTED_EDGE ( 'NONE', *, *, #220, .T. ) ;
#208 = ORIENTED_EDGE ( 'NONE', *, *, #40, .F. ) ;
#209 = FILL_AREA_STYLE_COLOUR ( '', #245 ) ;
#210 = AXIS2_PLACEMENT_3D ( 'NONE', #31, #149, #12 ) ;
#211 =( NAMED_UNIT ( * ) SI_UNIT ( $, .STERADIAN. ) SOLID_ANGLE_UNIT ( ) );
#212 = DIRECTION ( 'NONE',  ( 0.0000000000000000000, 0.0000000000000000000, -1.000000000000000000 ) ) ;
#213 = EDGE_CURVE ( 'NONE', #35, #103, #123, .T. ) ;
#214 = VECTOR ( 'NONE', #143, 39.37007874015748143 ) ;
#215 = ORIENTED_EDGE ( 'NONE', *, *, #40, .T. ) ;
#216 = LINE ( 'NONE', #92, #287 ) ;
#217 = CARTESIAN_POINT ( 'NONE',  ( 4.592425496802575451E-17, 0.0000000000000000000, 0.3749999999999999445 ) ) ;
#218 = LINE ( 'NONE', #7, #14 ) ;
#219 = CARTESIAN_POINT ( 'NONE',  ( 4.592425496802575451E-17, 0.0000000000000000000, 0.3749999999999999445 ) ) ;
#220 = EDGE_CURVE ( 'NONE', #100, #273, #260, .T. ) ;
#221 = APPLICATION_PROTOCOL_DEFINITION ( 'draft international standard', 'automotive_design', 1998, #296 ) ;
#222 = DIRECTION ( 'NONE',  ( -1.224646799147353454E-16, -0.0000000000000000000, -1.000000000000000000 ) ) ;
#223 = VECTOR ( 'NONE', #105, 39.37007874015747433 ) ;
#224 = UNCERTAINTY_MEASURE_WITH_UNIT (LENGTH_MEASURE( 1.000000000000000082E-05 ), #102, 'distance_accuracy_value', 'NONE');
#225 = CONICAL_SURFACE ( 'NONE', #85, 0.04685310000000000863, 0.1745329251994339192 ) ;
#226 = EDGE_CURVE ( 'NONE', #202, #155, #216, .T. ) ;
#227 = ORIENTED_EDGE ( 'NONE', *, *, #238, .T. ) ;
#228 = DIRECTION ( 'NONE',  ( -1.000000000000000000, 0.0000000000000000000, 1.224646799147353454E-16 ) ) ;
#229 = ORIENTED_EDGE ( 'NONE', *, *, #195, .F. ) ;
#230 = AXIS2_PLACEMENT_3D ( 'NONE', #37, #176, #228 ) ;
#231 = VECTOR ( 'NONE', #113, 39.37007874015748143 ) ;
#232 = DIMENSIONAL_EXPONENTS ( 1.000000000000000000, 0.0000000000000000000, 0.0000000000000000000, 0.0000000000000000000, 0.0000000000000000000, 0.0000000000000000000, 0.0000000000000000000 ) ;
#233 = ORIENTED_EDGE ( 'NONE', *, *, #285, .T. ) ;
#234 =( NAMED_UNIT ( * ) PLANE_ANGLE_UNIT ( ) SI_UNIT ( $, .RADIAN. ) );
#235 = EDGE_LOOP ( 'NONE', ( #164, #17, #58, #84 ) ) ;
#236 = DIRECTION ( 'NONE',  ( 1.000000000000000000, 0.0000000000000000000, 0.0000000000000000000 ) ) ;
#237 =( LENGTH_UNIT ( ) NAMED_UNIT ( * ) SI_UNIT ( $, .METRE. ) );
#238 = EDGE_CURVE ( 'NONE', #103, #175, #72, .T. ) ;
#239 = ORIENTED_EDGE ( 'NONE', *, *, #52, .T. ) ;
#240 = AXIS2_PLACEMENT_3D ( 'NONE', #30, #284, #170 ) ;
#241 = FACE_OUTER_BOUND ( 'NONE', #109, .T. ) ;
#242 = DIRECTION ( 'NONE',  ( 0.0000000000000000000, 0.0000000000000000000, -1.000000000000000000 ) ) ;
#243 = DIRECTION ( 'NONE',  ( -1.000000000000000000, 0.0000000000000000000, 0.0000000000000000000 ) ) ;
#244 = FACE_OUTER_BOUND ( 'NONE', #67, .T. ) ;
#245 = COLOUR_RGB ( '',0.7921568627450980005, 0.8196078431372548767, 0.9333333333333333481 ) ;
#246 = CARTESIAN_POINT ( 'NONE',  ( 0.0000000000000000000, 0.0000000000000000000, 0.0000000000000000000 ) ) ;
#247 = AXIS2_PLACEMENT_3D ( 'NONE', #217, #93, #194 ) ;
#248 = EDGE_CURVE ( 'NONE', #116, #100, #20, .T. ) ;
#249 =( NAMED_UNIT ( * ) SI_UNIT ( $, .STERADIAN. ) SOLID_ANGLE_UNIT ( ) );
#250 = EDGE_LOOP ( 'NONE', ( #294, #208, #130, #181 ) ) ;
#251 = LENGTH_MEASURE_WITH_UNIT ( LENGTH_MEASURE( 0.02539999999999999897 ), #81 );
#252 = ORIENTED_EDGE ( 'NONE', *, *, #238, .F. ) ;
#253 = FACE_OUTER_BOUND ( 'NONE', #62, .T. ) ;
#254 = AXIS2_PLACEMENT_3D ( 'NONE', #74, #146, #120 ) ;
#255 = VERTEX_POINT ( 'NONE', #180 ) ;
#256 = SURFACE_SIDE_STYLE ('',( #4 ) ) ;
#257 = LENGTH_MEASURE_WITH_UNIT ( LENGTH_MEASURE( 0.02539999999999999897 ), #237 );
#258 = DIRECTION ( 'NONE',  ( -1.000000000000000000, 0.0000000000000000000, 0.0000000000000000000 ) ) ;
#259 = AXIS2_PLACEMENT_3D ( 'NONE', #197, #192, #91 ) ;
#260 = LINE ( 'NONE', #29, #158 ) ;
#261 = DIRECTION ( 'NONE',  ( 0.0000000000000000000, 0.0000000000000000000, 1.000000000000000000 ) ) ;
#262 = DIRECTION ( 'NONE',  ( -1.224646799147353454E-16, -0.0000000000000000000, -1.000000000000000000 ) ) ;
#263 = AXIS2_PLACEMENT_3D ( 'NONE', #193, #242, #243 ) ;
#264 = ADVANCED_FACE ( 'NONE', ( #253 ), #150, .T. ) ;
#265 = CARTESIAN_POINT ( 'NONE',  ( 0.0000000000000000000, 0.0000000000000000000, 1.500000000000000222 ) ) ;
#266 =( NAMED_UNIT ( * ) PLANE_ANGLE_UNIT ( ) SI_UNIT ( $, .RADIAN. ) );
#267 = ORIENTED_EDGE ( 'NONE', *, *, #186, .F. ) ;
#268 = UNCERTAINTY_MEASURE_WITH_UNIT (LENGTH_MEASURE( 1.000000000000000082E-05 ), #44, 'distance_accuracy_value', 'NONE');
#269 = ORIENTED_EDGE ( 'NONE', *, *, #179, .T. ) ;
#270 = LENGTH_MEASURE_WITH_UNIT ( LENGTH_MEASURE( 0.02539999999999999897 ), #63 );
#271 = PRESENTATION_LAYER_ASSIGNMENT (  '', '', ( #1 ) ) ;
#272 = ORIENTED_EDGE ( 'NONE', *, *, #137, .T. ) ;
#273 = VERTEX_POINT ( 'NONE', #19 ) ;
#274 = CARTESIAN_POINT ( 'NONE',  ( 7.026839507303433011E-34, 0.0000000000000000000, 5.737849894513088209E-18 ) ) ;
#275 = COLOUR_RGB ( '',0.7921568627450980005, 0.8196078431372548767, 0.9333333333333333481 ) ;
#276 = CARTESIAN_POINT ( 'NONE',  ( 4.592425496802575451E-17, 0.0000000000000000000, 0.3749999999999999445 ) ) ;
#277 = FACE_OUTER_BOUND ( 'NONE', #21, .T. ) ;
#278 = EDGE_CURVE ( 'NONE', #116, #175, #18, .T. ) ;
#279 = CARTESIAN_POINT ( 'NONE',  ( 0.0000000000000000000, 0.0000000000000000000, 1.500000000000000222 ) ) ;
#280 = ORIENTED_EDGE ( 'NONE', *, *, #248, .T. ) ;
#281 = CARTESIAN_POINT ( 'NONE',  ( -0.06249999999999996531, 0.0000000000000000000, 0.4637379795033758634 ) ) ;
#282 = DIRECTION ( 'NONE',  ( -0.0000000000000000000, -0.0000000000000000000, -1.000000000000000000 ) ) ;
#283 = LINE ( 'NONE', #33, #43 ) ;
#284 = DIRECTION ( 'NONE',  ( -0.0000000000000000000, -0.0000000000000000000, -1.000000000000000000 ) ) ;
#285 = EDGE_CURVE ( 'NONE', #128, #273, #129, .T. ) ;
#286 = DIRECTION ( 'NONE',  ( 0.0000000000000000000, 0.0000000000000000000, 1.000000000000000000 ) ) ;
#287 = VECTOR ( 'NONE', #51, 39.37007874015748854 ) ;
#288 = ADVANCED_FACE ( 'NONE', ( #127 ), #78, .T. ) ;
#289 = ORIENTED_EDGE ( 'NONE', *, *, #213, .T. ) ;
#290 = CARTESIAN_POINT ( 'NONE',  ( 0.0000000000000000000, 0.0000000000000000000, 0.0000000000000000000 ) ) ;
#291 = ORIENTED_EDGE ( 'NONE', *, *, #142, .T. ) ;
#292 =( NAMED_UNIT ( * ) SI_UNIT ( $, .STERADIAN. ) SOLID_ANGLE_UNIT ( ) );
#293 = CIRCLE ( 'NONE', #259, 0.04685310000000001557 ) ;
#294 = ORIENTED_EDGE ( 'NONE', *, *, #179, .F. ) ;
#295 = AXIS2_PLACEMENT_3D ( 'NONE', #69, #185, #141 ) ;
#296 = APPLICATION_CONTEXT ( 'automotive_design' ) ;
#297 = FILL_AREA_STYLE ('',( #206 ) ) ;
#298 = EDGE_LOOP ( 'NONE', ( #80, #269, #133, #49 ) ) ;
#299 = ORIENTED_EDGE ( 'NONE', *, *, #114, .F. ) ;
ENDSEC;
END-ISO-10303-21;
