ISO-10303-21;
HEADER;
FILE_DESCRIPTION (( 'STEP AP214' ),
    '1' );
FILE_NAME ('03572.STEP',
    '2023-06-22T15:29:00',
    ( '' ),
    ( '' ),
    'SwSTEP 2.0',
    'SolidWorks 2023',
    '' );
FILE_SCHEMA (( 'AUTOMOTIVE_DESIGN' ));
ENDSEC;

DATA;
#1 = DIRECTION ( 'NONE',  ( -0.000000000000000000, -1.000000000000000000, -0.000000000000000000 ) ) ;
#2 = CIRCLE ( 'NONE', #304, 0.3125000000000000555 ) ;
#3 = PRODUCT_DEFINITION_FORMATION_WITH_SPECIFIED_SOURCE ( 'ANY', '', #8, .NOT_KNOWN. ) ;
#4 = SURFACE_SIDE_STYLE ('',( #121 ) ) ;
#5 =( NAMED_UNIT ( * ) PLANE_ANGLE_UNIT ( ) SI_UNIT ( $, .RADIAN. ) );
#6 = ADVANCED_BREP_SHAPE_REPRESENTATION ( '03572', ( #100, #195, #247 ), #31 ) ;
#7 =( NAMED_UNIT ( * ) SI_UNIT ( $, .STERADIAN. ) SOLID_ANGLE_UNIT ( ) );
#8 = PRODUCT ( '03572', '03572', '', ( #102 ) ) ;
#9 =( GEOMETRIC_REPRESENTATION_CONTEXT ( 3 ) GLOBAL_UNCERTAINTY_ASSIGNED_CONTEXT ( ( #22 ) ) GLOBAL_UNIT_ASSIGNED_CONTEXT ( ( #220, #245, #283 ) ) REPRESENTATION_CONTEXT ( 'NONE', 'WORKASPACE' ) );
#10 = PRESENTATION_LAYER_ASSIGNMENT (  '', '', ( #163 ) ) ;
#11 = VERTEX_POINT ( 'NONE', #227 ) ;
#12 = SURFACE_STYLE_USAGE ( .BOTH. , #218 ) ;
#13 = PRODUCT_RELATED_PRODUCT_CATEGORY ( 'part', '', ( #8 ) ) ;
#14 = VERTEX_POINT ( 'NONE', #281 ) ;
#15 = VECTOR ( 'NONE', #80, 39.37007874015748143 ) ;
#16 = CARTESIAN_POINT ( 'NONE',  ( 7.582401355855259480E-33, 1.625000000000000000, 0.000000000000000000 ) ) ;
#17 = CYLINDRICAL_SURFACE ( 'NONE', #25, 0.3125000000000000000 ) ;
#18 = CIRCLE ( 'NONE', #101, 0.3125000000000000000 ) ;
#19 = ADVANCED_FACE ( 'NONE', ( #34 ), #185, .T. ) ;
#20 = DIMENSIONAL_EXPONENTS ( 1.000000000000000000, 0.000000000000000000, 0.000000000000000000, 0.000000000000000000, 0.000000000000000000, 0.000000000000000000, 0.000000000000000000 ) ;
#21 = COLOUR_RGB ( '',0.7921568627450980005, 0.8196078431372548767, 0.9333333333333333481 ) ;
#22 = UNCERTAINTY_MEASURE_WITH_UNIT (LENGTH_MEASURE( 1.000000000000000082E-05 ), #220, 'distance_accuracy_value', 'NONE');
#23 = PRESENTATION_STYLE_ASSIGNMENT (( #47 ) ) ;
#24 =( CONVERSION_BASED_UNIT ( 'INCH', #75 ) LENGTH_UNIT ( ) NAMED_UNIT ( #95 ) );
#25 = AXIS2_PLACEMENT_3D ( 'NONE', #112, #162, #305 ) ;
#26 = CARTESIAN_POINT ( 'NONE',  ( 0.000000000000000000, 0.000000000000000000, -0.3125000000000000000 ) ) ;
#27 = EDGE_CURVE ( 'NONE', #264, #302, #225, .T. ) ;
#28 = STYLED_ITEM ( 'NONE', ( #137 ), #195 ) ;
#29 = ORIENTED_EDGE ( 'NONE', *, *, #27, .F. ) ;
#30 = CARTESIAN_POINT ( 'NONE',  ( 1.666399758513172697E-34, 1.625000000000000000, 0.000000000000000000 ) ) ;
#31 =( GEOMETRIC_REPRESENTATION_CONTEXT ( 3 ) GLOBAL_UNCERTAINTY_ASSIGNED_CONTEXT ( ( #214 ) ) GLOBAL_UNIT_ASSIGNED_CONTEXT ( ( #49, #267, #54 ) ) REPRESENTATION_CONTEXT ( 'NONE', 'WORKASPACE' ) );
#32 = CARTESIAN_POINT ( 'NONE',  ( -6.123233995736759873E-17, 3.500000000000000000, 0.000000000000000000 ) ) ;
#33 = DIRECTION ( 'NONE',  ( -1.000000000000000000, 0.000000000000000000, 0.000000000000000000 ) ) ;
#34 = FACE_OUTER_BOUND ( 'NONE', #240, .T. ) ;
#35 = AXIS2_PLACEMENT_3D ( 'NONE', #250, #181, #279 ) ;
#36 = PRESENTATION_LAYER_ASSIGNMENT (  '', '', ( #178 ) ) ;
#37 = CARTESIAN_POINT ( 'NONE',  ( 7.582401355855259480E-33, 1.625000000000000000, 0.000000000000000000 ) ) ;
#38 =( NAMED_UNIT ( * ) SI_UNIT ( $, .STERADIAN. ) SOLID_ANGLE_UNIT ( ) );
#39 = ADVANCED_FACE ( 'NONE', ( #136 ), #17, .T. ) ;
#40 =( LENGTH_UNIT ( ) NAMED_UNIT ( * ) SI_UNIT ( $, .METRE. ) );
#41 = CARTESIAN_POINT ( 'NONE',  ( 0.000000000000000000, 0.000000000000000000, 0.000000000000000000 ) ) ;
#42 = LENGTH_MEASURE_WITH_UNIT ( LENGTH_MEASURE( 0.02539999999999999897 ), #165 );
#43 = COLOUR_RGB ( '',1.000000000000000000, 0.000000000000000000, 0.000000000000000000 ) ;
#44 = DIRECTION ( 'NONE',  ( 0.000000000000000000, 0.000000000000000000, -1.000000000000000000 ) ) ;
#45 =( NAMED_UNIT ( * ) SI_UNIT ( $, .STERADIAN. ) SOLID_ANGLE_UNIT ( ) );
#46 = DIRECTION ( 'NONE',  ( 0.000000000000000000, 0.000000000000000000, -1.000000000000000000 ) ) ;
#47 = SURFACE_STYLE_USAGE ( .BOTH. , #232 ) ;
#48 = CARTESIAN_POINT ( 'NONE',  ( -6.123233995736759873E-17, 3.500000000000000000, 0.000000000000000000 ) ) ;
#49 =( CONVERSION_BASED_UNIT ( 'INCH', #149 ) LENGTH_UNIT ( ) NAMED_UNIT ( #72 ) );
#50 = FILL_AREA_STYLE_COLOUR ( '', #307 ) ;
#51 = DIRECTION ( 'NONE',  ( -0.000000000000000000, -1.000000000000000000, -0.000000000000000000 ) ) ;
#52 = STYLED_ITEM ( 'NONE', ( #142 ), #202 ) ;
#53 = ORIENTED_EDGE ( 'NONE', *, *, #118, .T. ) ;
#54 =( NAMED_UNIT ( * ) SI_UNIT ( $, .STERADIAN. ) SOLID_ANGLE_UNIT ( ) );
#55 = ORIENTED_EDGE ( 'NONE', *, *, #248, .T. ) ;
#56 = FILL_AREA_STYLE ('',( #272 ) ) ;
#57 = EDGE_LOOP ( 'NONE', ( #53, #242 ) ) ;
#58 = DIRECTION ( 'NONE',  ( 3.265724797726272713E-17, -1.000000000000000000, 0.000000000000000000 ) ) ;
#59 = ORIENTED_EDGE ( 'NONE', *, *, #309, .T. ) ;
#60 =( NAMED_UNIT ( * ) PLANE_ANGLE_UNIT ( ) SI_UNIT ( $, .RADIAN. ) );
#61 = CARTESIAN_POINT ( 'NONE',  ( -0.3125000000000000555, 3.500000000000000000, 0.000000000000000000 ) ) ;
#62 = CARTESIAN_POINT ( 'NONE',  ( 0.000000000000000000, 0.000000000000000000, 0.000000000000000000 ) ) ;
#63 =( LENGTH_UNIT ( ) NAMED_UNIT ( * ) SI_UNIT ( $, .METRE. ) );
#64 = CARTESIAN_POINT ( 'NONE',  ( 3.827021247335478926E-17, 0.000000000000000000, 0.3125000000000000000 ) ) ;
#65 = DIRECTION ( 'NONE',  ( -3.265724797726272713E-17, 1.000000000000000000, -0.000000000000000000 ) ) ;
#66 = AXIS2_PLACEMENT_3D ( 'NONE', #30, #194, #275 ) ;
#67 = DIRECTION ( 'NONE',  ( -3.265724797726272713E-17, 1.000000000000000000, -0.000000000000000000 ) ) ;
#68 = DIRECTION ( 'NONE',  ( -3.265724797726272713E-17, 1.000000000000000000, -0.000000000000000000 ) ) ;
#69 = EDGE_CURVE ( 'NONE', #172, #244, #167, .T. ) ;
#70 = MECHANICAL_DESIGN_GEOMETRIC_PRESENTATION_REPRESENTATION (  '', ( #28 ), #186 ) ;
#71 = FILL_AREA_STYLE ('',( #203 ) ) ;
#72 = DIMENSIONAL_EXPONENTS ( 1.000000000000000000, 0.000000000000000000, 0.000000000000000000, 0.000000000000000000, 0.000000000000000000, 0.000000000000000000, 0.000000000000000000 ) ;
#73 = UNCERTAINTY_MEASURE_WITH_UNIT (LENGTH_MEASURE( 1.000000000000000082E-05 ), #288, 'distance_accuracy_value', 'NONE');
#74 =( GEOMETRIC_REPRESENTATION_CONTEXT ( 3 ) GLOBAL_UNCERTAINTY_ASSIGNED_CONTEXT ( ( #210 ) ) GLOBAL_UNIT_ASSIGNED_CONTEXT ( ( #259, #5, #45 ) ) REPRESENTATION_CONTEXT ( 'NONE', 'WORKASPACE' ) );
#75 = LENGTH_MEASURE_WITH_UNIT ( LENGTH_MEASURE( 0.02539999999999999897 ), #206 );
#76 = LENGTH_MEASURE_WITH_UNIT ( LENGTH_MEASURE( 0.02539999999999999897 ), #286 );
#77 = CARTESIAN_POINT ( 'NONE',  ( 0.000000000000000000, 0.000000000000000000, 0.000000000000000000 ) ) ;
#78 = UNCERTAINTY_MEASURE_WITH_UNIT (LENGTH_MEASURE( 1.000000000000000082E-05 ), #90, 'distance_accuracy_value', 'NONE');
#79 = APPLICATION_CONTEXT ( 'automotive_design' ) ;
#80 = DIRECTION ( 'NONE',  ( -3.265724797726272713E-17, 1.000000000000000000, -0.000000000000000000 ) ) ;
#81 = STYLED_ITEM ( 'NONE', ( #241 ), #282 ) ;
#82 = EDGE_LOOP ( 'NONE', ( #295, #96, #87, #238 ) ) ;
#83 = APPLICATION_PROTOCOL_DEFINITION ( 'draft international standard', 'automotive_design', 1998, #198 ) ;
#84 = PRESENTATION_LAYER_ASSIGNMENT (  '', '', ( #107 ) ) ;
#85 = PRODUCT_DEFINITION ( 'UNKNOWN', '', #3, #99 ) ;
#86 = LENGTH_MEASURE_WITH_UNIT ( LENGTH_MEASURE( 0.02539999999999999897 ), #109 );
#87 = ORIENTED_EDGE ( 'NONE', *, *, #309, .F. ) ;
#88 = CLOSED_SHELL ( 'NONE', ( #207, #202, #270, #282 ) ) ;
#89 = MECHANICAL_DESIGN_GEOMETRIC_PRESENTATION_REPRESENTATION (  '', ( #52 ), #199 ) ;
#90 =( CONVERSION_BASED_UNIT ( 'INCH', #86 ) LENGTH_UNIT ( ) NAMED_UNIT ( #20 ) );
#91 = SURFACE_STYLE_FILL_AREA ( #306 ) ;
#92 = CYLINDRICAL_SURFACE ( 'NONE', #134, 0.3125000000000000000 ) ;
#93 = PRESENTATION_STYLE_ASSIGNMENT (( #166 ) ) ;
#94 = FACE_OUTER_BOUND ( 'NONE', #158, .T. ) ;
#95 = DIMENSIONAL_EXPONENTS ( 1.000000000000000000, 0.000000000000000000, 0.000000000000000000, 0.000000000000000000, 0.000000000000000000, 0.000000000000000000, 0.000000000000000000 ) ;
#96 = ORIENTED_EDGE ( 'NONE', *, *, #144, .T. ) ;
#97 = EDGE_CURVE ( 'NONE', #302, #264, #114, .T. ) ;
#98 = ORIENTED_EDGE ( 'NONE', *, *, #97, .F. ) ;
#99 = PRODUCT_DEFINITION_CONTEXT ( 'detailed design', #198, 'design' ) ;
#100 = MANIFOLD_SOLID_BREP ( 'Revolve - Cutting Edge', #88 ) ;
#101 = AXIS2_PLACEMENT_3D ( 'NONE', #116, #119, #233 ) ;
#102 = PRODUCT_CONTEXT ( 'NONE', #79, 'mechanical' ) ;
#103 = EDGE_CURVE ( 'NONE', #273, #297, #18, .T. ) ;
#104 = ORIENTED_EDGE ( 'NONE', *, *, #144, .F. ) ;
#105 = DIRECTION ( 'NONE',  ( -1.000000000000000000, 0.000000000000000000, 0.000000000000000000 ) ) ;
#106 = PRESENTATION_LAYER_ASSIGNMENT (  '', '', ( #81 ) ) ;
#107 = STYLED_ITEM ( 'NONE', ( #298 ), #207 ) ;
#108 = LINE ( 'NONE', #266, #274 ) ;
#109 =( LENGTH_UNIT ( ) NAMED_UNIT ( * ) SI_UNIT ( $, .METRE. ) );
#110 = EDGE_CURVE ( 'NONE', #297, #273, #168, .T. ) ;
#111 = FACE_OUTER_BOUND ( 'NONE', #130, .T. ) ;
#112 = CARTESIAN_POINT ( 'NONE',  ( -6.123233995736759873E-17, 3.500000000000000000, 0.000000000000000000 ) ) ;
#113 = CARTESIAN_POINT ( 'NONE',  ( 0.3125000000000000000, 1.625000000000000000, 3.827021247335478926E-17 ) ) ;
#114 = CIRCLE ( 'NONE', #173, 0.3125000000000000000 ) ;
#115 = LINE ( 'NONE', #228, #226 ) ;
#116 = CARTESIAN_POINT ( 'NONE',  ( 0.000000000000000000, 1.625000000000000000, 0.000000000000000000 ) ) ;
#117 = FILL_AREA_STYLE ('',( #230 ) ) ;
#118 = EDGE_CURVE ( 'NONE', #11, #14, #2, .T. ) ;
#119 = DIRECTION ( 'NONE',  ( -0.000000000000000000, -1.000000000000000000, -0.000000000000000000 ) ) ;
#120 = DIMENSIONAL_EXPONENTS ( 1.000000000000000000, 0.000000000000000000, 0.000000000000000000, 0.000000000000000000, 0.000000000000000000, 0.000000000000000000, 0.000000000000000000 ) ;
#121 = SURFACE_STYLE_FILL_AREA ( #252 ) ;
#122 = MECHANICAL_DESIGN_GEOMETRIC_PRESENTATION_REPRESENTATION (  '', ( #107 ), #74 ) ;
#123 = ADVANCED_FACE ( 'NONE', ( #197 ), #129, .F. ) ;
#124 = ADVANCED_FACE ( 'NONE', ( #131 ), #217, .F. ) ;
#125 = DIRECTION ( 'NONE',  ( 0.000000000000000000, -0.000000000000000000, 1.000000000000000000 ) ) ;
#126 = PRESENTATION_LAYER_ASSIGNMENT (  '', '', ( #52 ) ) ;
#127 = ORIENTED_EDGE ( 'NONE', *, *, #69, .F. ) ;
#128 = SURFACE_STYLE_FILL_AREA ( #56 ) ;
#129 = PLANE ( 'NONE',  #66 ) ;
#130 = EDGE_LOOP ( 'NONE', ( #193, #268 ) ) ;
#131 = FACE_OUTER_BOUND ( 'NONE', #57, .T. ) ;
#132 = CIRCLE ( 'NONE', #187, 0.3125000000000000000 ) ;
#133 = EDGE_CURVE ( 'NONE', #302, #11, #278, .T. ) ;
#134 = AXIS2_PLACEMENT_3D ( 'NONE', #209, #1, #44 ) ;
#135 = DIRECTION ( 'NONE',  ( -0.000000000000000000, -1.000000000000000000, -0.000000000000000000 ) ) ;
#136 = FACE_OUTER_BOUND ( 'NONE', #271, .T. ) ;
#137 = PRESENTATION_STYLE_ASSIGNMENT (( #164 ) ) ;
#138 = AXIS2_PLACEMENT_3D ( 'NONE', #37, #68, #200 ) ;
#139 = COLOUR_RGB ( '',1.000000000000000000, 0.000000000000000000, 0.000000000000000000 ) ;
#140 = AXIS2_PLACEMENT_3D ( 'NONE', #175, #58, #301 ) ;
#141 =( NAMED_UNIT ( * ) PLANE_ANGLE_UNIT ( ) SI_UNIT ( $, .RADIAN. ) );
#142 = PRESENTATION_STYLE_ASSIGNMENT (( #254 ) ) ;
#143 = SURFACE_STYLE_FILL_AREA ( #71 ) ;
#144 = EDGE_CURVE ( 'NONE', #297, #172, #108, .T. ) ;
#145 = COLOUR_RGB ( '',1.000000000000000000, 0.000000000000000000, 0.000000000000000000 ) ;
#146 = CARTESIAN_POINT ( 'NONE',  ( 0.000000000000000000, 1.625000000000000000, -0.3125000000000000000 ) ) ;
#147 = DIRECTION ( 'NONE',  ( -0.000000000000000000, -1.000000000000000000, -0.000000000000000000 ) ) ;
#148 = DIRECTION ( 'NONE',  ( -0.000000000000000000, -1.000000000000000000, -0.000000000000000000 ) ) ;
#149 = LENGTH_MEASURE_WITH_UNIT ( LENGTH_MEASURE( 0.02539999999999999897 ), #215 );
#150 = DIMENSIONAL_EXPONENTS ( 1.000000000000000000, 0.000000000000000000, 0.000000000000000000, 0.000000000000000000, 0.000000000000000000, 0.000000000000000000, 0.000000000000000000 ) ;
#151 = CARTESIAN_POINT ( 'NONE',  ( 0.000000000000000000, 0.000000000000000000, -0.3125000000000000000 ) ) ;
#152 = FACE_OUTER_BOUND ( 'NONE', #157, .T. ) ;
#153 = SHAPE_DEFINITION_REPRESENTATION ( #277, #6 ) ;
#154 = ORIENTED_EDGE ( 'NONE', *, *, #118, .F. ) ;
#155 =( NAMED_UNIT ( * ) SI_UNIT ( $, .STERADIAN. ) SOLID_ANGLE_UNIT ( ) );
#156 = CARTESIAN_POINT ( 'NONE',  ( -0.3125000000000000000, 1.625000000000000000, 0.000000000000000000 ) ) ;
#157 = EDGE_LOOP ( 'NONE', ( #59, #213 ) ) ;
#158 = EDGE_LOOP ( 'NONE', ( #104, #299, #276, #127 ) ) ;
#159 =( GEOMETRIC_REPRESENTATION_CONTEXT ( 3 ) GLOBAL_UNCERTAINTY_ASSIGNED_CONTEXT ( ( #234 ) ) GLOBAL_UNIT_ASSIGNED_CONTEXT ( ( #258, #141, #7 ) ) REPRESENTATION_CONTEXT ( 'NONE', 'WORKASPACE' ) );
#160 = SURFACE_SIDE_STYLE ('',( #251 ) ) ;
#161 = PLANE ( 'NONE',  #221 ) ;
#162 = DIRECTION ( 'NONE',  ( -3.265724797726272713E-17, 1.000000000000000000, -0.000000000000000000 ) ) ;
#163 = STYLED_ITEM ( 'NONE', ( #93 ), #100 ) ;
#164 = SURFACE_STYLE_USAGE ( .BOTH. , #160 ) ;
#165 =( LENGTH_UNIT ( ) NAMED_UNIT ( * ) SI_UNIT ( $, .METRE. ) );
#166 = SURFACE_STYLE_USAGE ( .BOTH. , #204 ) ;
#167 = CIRCLE ( 'NONE', #184, 0.3125000000000000000 ) ;
#168 = CIRCLE ( 'NONE', #287, 0.3125000000000000000 ) ;
#169 = LENGTH_MEASURE_WITH_UNIT ( LENGTH_MEASURE( 0.02539999999999999897 ), #40 );
#170 = DIRECTION ( 'NONE',  ( -0.000000000000000000, -1.000000000000000000, -0.000000000000000000 ) ) ;
#171 = DIRECTION ( 'NONE',  ( 1.000000000000000000, 0.000000000000000000, 0.000000000000000000 ) ) ;
#172 = VERTEX_POINT ( 'NONE', #64 ) ;
#173 = AXIS2_PLACEMENT_3D ( 'NONE', #16, #65, #249 ) ;
#174 = ORIENTED_EDGE ( 'NONE', *, *, #97, .T. ) ;
#175 = CARTESIAN_POINT ( 'NONE',  ( 0.3125000000000000000, 3.500000000000000000, 0.000000000000000000 ) ) ;
#176 = FACE_OUTER_BOUND ( 'NONE', #82, .T. ) ;
#177 = UNCERTAINTY_MEASURE_WITH_UNIT (LENGTH_MEASURE( 1.000000000000000082E-05 ), #24, 'distance_accuracy_value', 'NONE');
#178 = STYLED_ITEM ( 'NONE', ( #23 ), #270 ) ;
#179 = EDGE_LOOP ( 'NONE', ( #98, #29 ) ) ;
#180 = EDGE_CURVE ( 'NONE', #14, #11, #216, .T. ) ;
#181 = DIRECTION ( 'NONE',  ( -3.265724797726272713E-17, 1.000000000000000000, -0.000000000000000000 ) ) ;
#182 = SURFACE_STYLE_USAGE ( .BOTH. , #4 ) ;
#183 = AXIS2_PLACEMENT_3D ( 'NONE', #303, #189, #191 ) ;
#184 = AXIS2_PLACEMENT_3D ( 'NONE', #62, #135, #222 ) ;
#185 = CYLINDRICAL_SURFACE ( 'NONE', #35, 0.3125000000000000000 ) ;
#186 =( GEOMETRIC_REPRESENTATION_CONTEXT ( 3 ) GLOBAL_UNCERTAINTY_ASSIGNED_CONTEXT ( ( #78 ) ) GLOBAL_UNIT_ASSIGNED_CONTEXT ( ( #90, #224, #38 ) ) REPRESENTATION_CONTEXT ( 'NONE', 'WORKASPACE' ) );
#187 = AXIS2_PLACEMENT_3D ( 'NONE', #289, #147, #46 ) ;
#188 = ORIENTED_EDGE ( 'NONE', *, *, #180, .F. ) ;
#189 = DIRECTION ( 'NONE',  ( 0.000000000000000000, -1.000000000000000000, -0.000000000000000000 ) ) ;
#190 = CARTESIAN_POINT ( 'NONE',  ( 3.827021247335478926E-17, 1.625000000000000000, 0.3125000000000000000 ) ) ;
#191 = DIRECTION ( 'NONE',  ( 0.000000000000000000, 0.000000000000000000, -1.000000000000000000 ) ) ;
#192 = ORIENTED_EDGE ( 'NONE', *, *, #27, .T. ) ;
#193 = ORIENTED_EDGE ( 'NONE', *, *, #103, .F. ) ;
#194 = DIRECTION ( 'NONE',  ( -3.265724797726272713E-17, 1.000000000000000000, 0.000000000000000000 ) ) ;
#195 = MANIFOLD_SOLID_BREP ( 'Revolve - Tool Body (Straight Shanked)', #257 ) ;
#196 = ORIENTED_EDGE ( 'NONE', *, *, #133, .F. ) ;
#197 = FACE_OUTER_BOUND ( 'NONE', #179, .T. ) ;
#198 = APPLICATION_CONTEXT ( 'automotive_design' ) ;
#199 =( GEOMETRIC_REPRESENTATION_CONTEXT ( 3 ) GLOBAL_UNCERTAINTY_ASSIGNED_CONTEXT ( ( #73 ) ) GLOBAL_UNIT_ASSIGNED_CONTEXT ( ( #288, #60, #155 ) ) REPRESENTATION_CONTEXT ( 'NONE', 'WORKASPACE' ) );
#200 = DIRECTION ( 'NONE',  ( -1.000000000000000000, 0.000000000000000000, 0.000000000000000000 ) ) ;
#201 = FILL_AREA_STYLE_COLOUR ( '', #145 ) ;
#202 = ADVANCED_FACE ( 'NONE', ( #111 ), #161, .T. ) ;
#203 = FILL_AREA_STYLE_COLOUR ( '', #139 ) ;
#204 = SURFACE_SIDE_STYLE ('',( #229 ) ) ;
#205 = AXIS2_PLACEMENT_3D ( 'NONE', #32, #67, #33 ) ;
#206 =( LENGTH_UNIT ( ) NAMED_UNIT ( * ) SI_UNIT ( $, .METRE. ) );
#207 = ADVANCED_FACE ( 'NONE', ( #176 ), #291, .T. ) ;
#208 = CARTESIAN_POINT ( 'NONE',  ( 0.000000000000000000, 1.625000000000000000, 0.000000000000000000 ) ) ;
#209 = CARTESIAN_POINT ( 'NONE',  ( 0.000000000000000000, 0.000000000000000000, 0.000000000000000000 ) ) ;
#210 = UNCERTAINTY_MEASURE_WITH_UNIT (LENGTH_MEASURE( 1.000000000000000082E-05 ), #259, 'distance_accuracy_value', 'NONE');
#211 = MECHANICAL_DESIGN_GEOMETRIC_PRESENTATION_REPRESENTATION (  '', ( #178 ), #285 ) ;
#212 =( NAMED_UNIT ( * ) PLANE_ANGLE_UNIT ( ) SI_UNIT ( $, .RADIAN. ) );
#213 = ORIENTED_EDGE ( 'NONE', *, *, #69, .T. ) ;
#214 = UNCERTAINTY_MEASURE_WITH_UNIT (LENGTH_MEASURE( 1.000000000000000082E-05 ), #49, 'distance_accuracy_value', 'NONE');
#215 =( LENGTH_UNIT ( ) NAMED_UNIT ( * ) SI_UNIT ( $, .METRE. ) );
#216 = CIRCLE ( 'NONE', #205, 0.3125000000000000555 ) ;
#217 = PLANE ( 'NONE',  #140 ) ;
#218 = SURFACE_SIDE_STYLE ('',( #128 ) ) ;
#219 = ORIENTED_EDGE ( 'NONE', *, *, #248, .F. ) ;
#220 =( CONVERSION_BASED_UNIT ( 'INCH', #243 ) LENGTH_UNIT ( ) NAMED_UNIT ( #120 ) );
#221 = AXIS2_PLACEMENT_3D ( 'NONE', #236, #296, #125 ) ;
#222 = DIRECTION ( 'NONE',  ( 0.000000000000000000, 0.000000000000000000, -1.000000000000000000 ) ) ;
#223 = FILL_AREA_STYLE ('',( #253 ) ) ;
#224 =( NAMED_UNIT ( * ) PLANE_ANGLE_UNIT ( ) SI_UNIT ( $, .RADIAN. ) );
#225 = CIRCLE ( 'NONE', #138, 0.3125000000000000000 ) ;
#226 = VECTOR ( 'NONE', #261, 39.37007874015748143 ) ;
#227 = CARTESIAN_POINT ( 'NONE',  ( -0.3125000000000001665, 3.500000000000000000, 0.000000000000000000 ) ) ;
#228 = CARTESIAN_POINT ( 'NONE',  ( 0.3124999999999999445, 3.500000000000000000, 3.827021247335478926E-17 ) ) ;
#229 = SURFACE_STYLE_FILL_AREA ( #117 ) ;
#230 = FILL_AREA_STYLE_COLOUR ( '', #21 ) ;
#231 = COLOUR_RGB ( '',0.7921568627450980005, 0.8196078431372548767, 0.9333333333333333481 ) ;
#232 = SURFACE_SIDE_STYLE ('',( #143 ) ) ;
#233 = DIRECTION ( 'NONE',  ( 0.000000000000000000, 0.000000000000000000, -1.000000000000000000 ) ) ;
#234 = UNCERTAINTY_MEASURE_WITH_UNIT (LENGTH_MEASURE( 1.000000000000000082E-05 ), #258, 'distance_accuracy_value', 'NONE');
#235 = PLANE ( 'NONE',  #183 ) ;
#236 = CARTESIAN_POINT ( 'NONE',  ( 0.000000000000000000, 1.625000000000000000, 0.000000000000000000 ) ) ;
#237 = APPLICATION_PROTOCOL_DEFINITION ( 'draft international standard', 'automotive_design', 1998, #79 ) ;
#238 = ORIENTED_EDGE ( 'NONE', *, *, #280, .F. ) ;
#239 = PRESENTATION_LAYER_ASSIGNMENT (  '', '', ( #28 ) ) ;
#240 = EDGE_LOOP ( 'NONE', ( #174, #55, #154, #196 ) ) ;
#241 = PRESENTATION_STYLE_ASSIGNMENT (( #182 ) ) ;
#242 = ORIENTED_EDGE ( 'NONE', *, *, #180, .T. ) ;
#243 = LENGTH_MEASURE_WITH_UNIT ( LENGTH_MEASURE( 0.02539999999999999897 ), #63 );
#244 = VERTEX_POINT ( 'NONE', #151 ) ;
#245 =( NAMED_UNIT ( * ) PLANE_ANGLE_UNIT ( ) SI_UNIT ( $, .RADIAN. ) );
#246 = AXIS2_PLACEMENT_3D ( 'NONE', #41, #148, #255 ) ;
#247 = AXIS2_PLACEMENT_3D ( 'NONE', #77, #290, #171 ) ;
#248 = EDGE_CURVE ( 'NONE', #264, #14, #115, .T. ) ;
#249 = DIRECTION ( 'NONE',  ( -1.000000000000000000, 0.000000000000000000, 0.000000000000000000 ) ) ;
#250 = CARTESIAN_POINT ( 'NONE',  ( -6.123233995736759873E-17, 3.500000000000000000, 0.000000000000000000 ) ) ;
#251 = SURFACE_STYLE_FILL_AREA ( #223 ) ;
#252 = FILL_AREA_STYLE ('',( #50 ) ) ;
#253 = FILL_AREA_STYLE_COLOUR ( '', #231 ) ;
#254 = SURFACE_STYLE_USAGE ( .BOTH. , #284 ) ;
#255 = DIRECTION ( 'NONE',  ( 0.000000000000000000, 0.000000000000000000, -1.000000000000000000 ) ) ;
#256 =( NAMED_UNIT ( * ) SI_UNIT ( $, .STERADIAN. ) SOLID_ANGLE_UNIT ( ) );
#257 = CLOSED_SHELL ( 'NONE', ( #19, #123, #39, #124 ) ) ;
#258 =( CONVERSION_BASED_UNIT ( 'INCH', #42 ) LENGTH_UNIT ( ) NAMED_UNIT ( #150 ) );
#259 =( CONVERSION_BASED_UNIT ( 'INCH', #76 ) LENGTH_UNIT ( ) NAMED_UNIT ( #260 ) );
#260 = DIMENSIONAL_EXPONENTS ( 1.000000000000000000, 0.000000000000000000, 0.000000000000000000, 0.000000000000000000, 0.000000000000000000, 0.000000000000000000, 0.000000000000000000 ) ;
#261 = DIRECTION ( 'NONE',  ( -3.265724797726272713E-17, 1.000000000000000000, -0.000000000000000000 ) ) ;
#262 = DIRECTION ( 'NONE',  ( 0.000000000000000000, 0.000000000000000000, -1.000000000000000000 ) ) ;
#263 = LINE ( 'NONE', #26, #265 ) ;
#264 = VERTEX_POINT ( 'NONE', #113 ) ;
#265 = VECTOR ( 'NONE', #51, 39.37007874015748143 ) ;
#266 = CARTESIAN_POINT ( 'NONE',  ( 3.827021247335478926E-17, 0.000000000000000000, 0.3125000000000000000 ) ) ;
#267 =( NAMED_UNIT ( * ) PLANE_ANGLE_UNIT ( ) SI_UNIT ( $, .RADIAN. ) );
#268 = ORIENTED_EDGE ( 'NONE', *, *, #110, .F. ) ;
#269 = DIRECTION ( 'NONE',  ( -0.000000000000000000, -1.000000000000000000, -0.000000000000000000 ) ) ;
#270 = ADVANCED_FACE ( 'NONE', ( #94 ), #92, .T. ) ;
#271 = EDGE_LOOP ( 'NONE', ( #219, #192, #294, #188 ) ) ;
#272 = FILL_AREA_STYLE_COLOUR ( '', #43 ) ;
#273 = VERTEX_POINT ( 'NONE', #146 ) ;
#274 = VECTOR ( 'NONE', #269, 39.37007874015748143 ) ;
#275 = DIRECTION ( 'NONE',  ( -1.000000000000000000, -3.265724797726272713E-17, 0.000000000000000000 ) ) ;
#276 = ORIENTED_EDGE ( 'NONE', *, *, #280, .T. ) ;
#277 = PRODUCT_DEFINITION_SHAPE ( 'NONE', 'NONE',  #85 ) ;
#278 = LINE ( 'NONE', #61, #15 ) ;
#279 = DIRECTION ( 'NONE',  ( -1.000000000000000000, 0.000000000000000000, 0.000000000000000000 ) ) ;
#280 = EDGE_CURVE ( 'NONE', #273, #244, #263, .T. ) ;
#281 = CARTESIAN_POINT ( 'NONE',  ( 0.3125000000000000000, 3.500000000000000000, 3.827021247335478926E-17 ) ) ;
#282 = ADVANCED_FACE ( 'NONE', ( #152 ), #235, .T. ) ;
#283 =( NAMED_UNIT ( * ) SI_UNIT ( $, .STERADIAN. ) SOLID_ANGLE_UNIT ( ) );
#284 = SURFACE_SIDE_STYLE ('',( #91 ) ) ;
#285 =( GEOMETRIC_REPRESENTATION_CONTEXT ( 3 ) GLOBAL_UNCERTAINTY_ASSIGNED_CONTEXT ( ( #177 ) ) GLOBAL_UNIT_ASSIGNED_CONTEXT ( ( #24, #212, #256 ) ) REPRESENTATION_CONTEXT ( 'NONE', 'WORKASPACE' ) );
#286 =( LENGTH_UNIT ( ) NAMED_UNIT ( * ) SI_UNIT ( $, .METRE. ) );
#287 = AXIS2_PLACEMENT_3D ( 'NONE', #208, #170, #262 ) ;
#288 =( CONVERSION_BASED_UNIT ( 'INCH', #169 ) LENGTH_UNIT ( ) NAMED_UNIT ( #308 ) );
#289 = CARTESIAN_POINT ( 'NONE',  ( 0.000000000000000000, 0.000000000000000000, 0.000000000000000000 ) ) ;
#290 = DIRECTION ( 'NONE',  ( 0.000000000000000000, 0.000000000000000000, 1.000000000000000000 ) ) ;
#291 = CYLINDRICAL_SURFACE ( 'NONE', #246, 0.3125000000000000000 ) ;
#292 = DIRECTION ( 'NONE',  ( -3.265724797726272713E-17, 1.000000000000000000, -0.000000000000000000 ) ) ;
#293 = MECHANICAL_DESIGN_GEOMETRIC_PRESENTATION_REPRESENTATION (  '', ( #81 ), #9 ) ;
#294 = ORIENTED_EDGE ( 'NONE', *, *, #133, .T. ) ;
#295 = ORIENTED_EDGE ( 'NONE', *, *, #103, .T. ) ;
#296 = DIRECTION ( 'NONE',  ( 0.000000000000000000, 1.000000000000000000, 0.000000000000000000 ) ) ;
#297 = VERTEX_POINT ( 'NONE', #190 ) ;
#298 = PRESENTATION_STYLE_ASSIGNMENT (( #12 ) ) ;
#299 = ORIENTED_EDGE ( 'NONE', *, *, #110, .T. ) ;
#300 = MECHANICAL_DESIGN_GEOMETRIC_PRESENTATION_REPRESENTATION (  '', ( #163 ), #159 ) ;
#301 = DIRECTION ( 'NONE',  ( 1.000000000000000000, 3.265724797726272713E-17, 0.000000000000000000 ) ) ;
#302 = VERTEX_POINT ( 'NONE', #156 ) ;
#303 = CARTESIAN_POINT ( 'NONE',  ( 0.000000000000000000, 0.000000000000000000, 0.000000000000000000 ) ) ;
#304 = AXIS2_PLACEMENT_3D ( 'NONE', #48, #292, #105 ) ;
#305 = DIRECTION ( 'NONE',  ( -1.000000000000000000, 0.000000000000000000, 0.000000000000000000 ) ) ;
#306 = FILL_AREA_STYLE ('',( #201 ) ) ;
#307 = COLOUR_RGB ( '',1.000000000000000000, 0.000000000000000000, 0.000000000000000000 ) ;
#308 = DIMENSIONAL_EXPONENTS ( 1.000000000000000000, 0.000000000000000000, 0.000000000000000000, 0.000000000000000000, 0.000000000000000000, 0.000000000000000000, 0.000000000000000000 ) ;
#309 = EDGE_CURVE ( 'NONE', #244, #172, #132, .T. ) ;
ENDSEC;
END-ISO-10303-21;
