ISO-10303-21;
HEADER;
FILE_DESCRIPTION (( 'STEP AP214' ),
    '1' );
FILE_NAME ('Micro_SPD-500-120.STEP',
    '2021-09-03T21:21:37',
    ( '' ),
    ( '' ),
    'SwSTEP 2.0',
    'SolidWorks 2020',
    '' );
FILE_SCHEMA (( 'AUTOMOTIVE_DESIGN' ));
ENDSEC;

DATA;
#1 = SURFACE_STYLE_FILL_AREA ( #169 ) ;
#2 = DIMENSIONAL_EXPONENTS ( 1.000000000000000000, 0.0000000000000000000, 0.0000000000000000000, 0.0000000000000000000, 0.0000000000000000000, 0.0000000000000000000, 0.0000000000000000000 ) ;
#3 = AXIS2_PLACEMENT_3D ( 'NONE', #166, #52, #164 ) ;
#4 = ORIENTED_EDGE ( 'NONE', *, *, #80, .T. ) ;
#5 = AXIS2_PLACEMENT_3D ( 'NONE', #113, #215, #317 ) ;
#6 = CARTESIAN_POINT ( 'NONE',  ( -0.2499500000000001165, 3.061310836168596889E-17, 1.000000000000000000 ) ) ;
#7 = VERTEX_POINT ( 'NONE', #6 ) ;
#8 = PRODUCT_RELATED_PRODUCT_CATEGORY ( 'part', '', ( #155 ) ) ;
#9 = EDGE_LOOP ( 'NONE', ( #37, #288, #322, #278 ) ) ;
#10 = LINE ( 'NONE', #330, #241 ) ;
#11 = EDGE_CURVE ( 'NONE', #62, #224, #325, .T. ) ;
#12 = AXIS2_PLACEMENT_3D ( 'NONE', #210, #17, #159 ) ;
#13 = DIRECTION ( 'NONE',  ( 0.0000000000000000000, 0.0000000000000000000, 1.000000000000000000 ) ) ;
#14 = AXIS2_PLACEMENT_3D ( 'NONE', #83, #81, #213 ) ;
#15 = UNCERTAINTY_MEASURE_WITH_UNIT (LENGTH_MEASURE( 1.000000000000000082E-05 ), #192, 'distance_accuracy_value', 'NONE');
#16 = CARTESIAN_POINT ( 'NONE',  ( 0.2499500000000001165, 0.0000000000000000000, 1.000000000000000000 ) ) ;
#17 = DIRECTION ( 'NONE',  ( 0.0000000000000000000, 0.0000000000000000000, 1.000000000000000000 ) ) ;
#18 = FACE_OUTER_BOUND ( 'NONE', #39, .T. ) ;
#19 = VECTOR ( 'NONE', #264, 39.37007874015748143 ) ;
#20 = CARTESIAN_POINT ( 'NONE',  ( -0.2499500000000001165, 3.061004674468810760E-17, 1.000000000000000000 ) ) ;
#21 = EDGE_CURVE ( 'NONE', #143, #161, #154, .T. ) ;
#22 = LINE ( 'NONE', #338, #174 ) ;
#23 = EDGE_CURVE ( 'NONE', #7, #347, #205, .T. ) ;
#24 = DIRECTION ( 'NONE',  ( -1.000000000000000000, 0.0000000000000000000, 0.0000000000000000000 ) ) ;
#25 = EDGE_LOOP ( 'NONE', ( #300, #153, #275, #49 ) ) ;
#26 = DIRECTION ( 'NONE',  ( 0.0000000000000000000, 0.0000000000000000000, -1.000000000000000000 ) ) ;
#27 = DIRECTION ( 'NONE',  ( -1.000000000000000000, 0.0000000000000000000, 0.0000000000000000000 ) ) ;
#28 = AXIS2_PLACEMENT_3D ( 'NONE', #172, #189, #27 ) ;
#29 = CARTESIAN_POINT ( 'NONE',  ( 0.0000000000000000000, 0.0000000000000000000, 0.0000000000000000000 ) ) ;
#30 = CIRCLE ( 'NONE', #114, 0.2499500000000001165 ) ;
#31 = DIRECTION ( 'NONE',  ( 0.0000000000000000000, 0.0000000000000000000, 1.000000000000000000 ) ) ;
#32 = CARTESIAN_POINT ( 'NONE',  ( -0.2500000000000000000, 0.0000000000000000000, 2.484999999999999876 ) ) ;
#33 = ADVANCED_FACE ( 'NONE', ( #18 ), #340, .T. ) ;
#34 = ORIENTED_EDGE ( 'NONE', *, *, #40, .T. ) ;
#35 = DIRECTION ( 'NONE',  ( 0.0000000000000000000, 0.0000000000000000000, 1.000000000000000000 ) ) ;
#36 = AXIS2_PLACEMENT_3D ( 'NONE', #183, #138, #82 ) ;
#37 = ORIENTED_EDGE ( 'NONE', *, *, #287, .F. ) ;
#38 = VERTEX_POINT ( 'NONE', #343 ) ;
#39 = EDGE_LOOP ( 'NONE', ( #341, #177, #245, #252 ) ) ;
#40 = EDGE_CURVE ( 'NONE', #38, #41, #176, .T. ) ;
#41 = VERTEX_POINT ( 'NONE', #98 ) ;
#42 = CIRCLE ( 'NONE', #5, 0.2500000000000000000 ) ;
#43 = DIRECTION ( 'NONE',  ( 1.000000000000000000, 0.0000000000000000000, 0.0000000000000000000 ) ) ;
#44 = CARTESIAN_POINT ( 'NONE',  ( -0.03749999999999999861, 4.592425496802573602E-18, 0.0000000000000000000 ) ) ;
#45 = ADVANCED_FACE ( 'NONE', ( #157 ), #106, .T. ) ;
#46 = AXIS2_PLACEMENT_3D ( 'NONE', #313, #76, #184 ) ;
#47 = FACE_OUTER_BOUND ( 'NONE', #87, .T. ) ;
#48 = DIRECTION ( 'NONE',  ( 1.000000000000000000, 0.0000000000000000000, 0.0000000000000000000 ) ) ;
#49 = ORIENTED_EDGE ( 'NONE', *, *, #258, .F. ) ;
#50 = LINE ( 'NONE', #54, #337 ) ;
#51 = CARTESIAN_POINT ( 'NONE',  ( 0.0000000000000000000, 0.0000000000000000000, 1.000000000000000000 ) ) ;
#52 = DIRECTION ( 'NONE',  ( -0.0000000000000000000, -0.0000000000000000000, -1.000000000000000000 ) ) ;
#53 = DIRECTION ( 'NONE',  ( 1.000000000000000000, 0.0000000000000000000, 0.0000000000000000000 ) ) ;
#54 = CARTESIAN_POINT ( 'NONE',  ( 0.2500000000000000000, 3.061616997868383018E-17, 2.500000000000000000 ) ) ;
#55 = EDGE_LOOP ( 'NONE', ( #226, #67, #94, #117 ) ) ;
#56 = FILL_AREA_STYLE ('',( #318 ) ) ;
#57 = DIRECTION ( 'NONE',  ( -1.000000000000000000, 0.0000000000000000000, 0.0000000000000000000 ) ) ;
#58 = CIRCLE ( 'NONE', #12, 0.2350000000000003753 ) ;
#59 = PRODUCT_CONTEXT ( 'NONE', #236, 'mechanical' ) ;
#60 = EDGE_LOOP ( 'NONE', ( #148, #280 ) ) ;
#61 = VECTOR ( 'NONE', #242, 39.37007874015748143 ) ;
#62 = VERTEX_POINT ( 'NONE', #16 ) ;
#63 = SURFACE_STYLE_FILL_AREA ( #56 ) ;
#64 = DIMENSIONAL_EXPONENTS ( 1.000000000000000000, 0.0000000000000000000, 0.0000000000000000000, 0.0000000000000000000, 0.0000000000000000000, 0.0000000000000000000, 0.0000000000000000000 ) ;
#65 = AXIS2_PLACEMENT_3D ( 'NONE', #146, #244, #24 ) ;
#66 = ORIENTED_EDGE ( 'NONE', *, *, #23, .F. ) ;
#67 = ORIENTED_EDGE ( 'NONE', *, *, #287, .T. ) ;
#68 = VERTEX_POINT ( 'NONE', #305 ) ;
#69 = PRODUCT_DEFINITION_SHAPE ( 'NONE', 'NONE',  #199 ) ;
#70 = CONICAL_SURFACE ( 'NONE', #191, 0.2499500000000001165, 0.7853981633974503884 ) ;
#71 = DIMENSIONAL_EXPONENTS ( 1.000000000000000000, 0.0000000000000000000, 0.0000000000000000000, 0.0000000000000000000, 0.0000000000000000000, 0.0000000000000000000, 0.0000000000000000000 ) ;
#72 = DIRECTION ( 'NONE',  ( 0.0000000000000000000, 0.0000000000000000000, 1.000000000000000000 ) ) ;
#73 = AXIS2_PLACEMENT_3D ( 'NONE', #29, #315, #57 ) ;
#74 = FACE_OUTER_BOUND ( 'NONE', #25, .T. ) ;
#75 = DIRECTION ( 'NONE',  ( 1.000000000000000000, 0.0000000000000000000, 0.0000000000000000000 ) ) ;
#76 = DIRECTION ( 'NONE',  ( -0.0000000000000000000, -0.0000000000000000000, -1.000000000000000000 ) ) ;
#77 = CIRCLE ( 'NONE', #272, 0.2499500000000001165 ) ;
#78 = ORIENTED_EDGE ( 'NONE', *, *, #258, .T. ) ;
#79 = DIRECTION ( 'NONE',  ( 1.000000000000000000, 0.0000000000000000000, 0.0000000000000000000 ) ) ;
#80 = EDGE_CURVE ( 'NONE', #62, #7, #77, .T. ) ;
#81 = DIRECTION ( 'NONE',  ( 0.0000000000000000000, 0.0000000000000000000, 1.000000000000000000 ) ) ;
#82 = DIRECTION ( 'NONE',  ( -1.000000000000000000, 0.0000000000000000000, 0.0000000000000000000 ) ) ;
#83 = CARTESIAN_POINT ( 'NONE',  ( 0.0000000000000000000, 0.0000000000000000000, 1.000000000000000000 ) ) ;
#84 = ORIENTED_EDGE ( 'NONE', *, *, #250, .T. ) ;
#85 = FACE_OUTER_BOUND ( 'NONE', #9, .T. ) ;
#86 = SURFACE_STYLE_USAGE ( .BOTH. , #348 ) ;
#87 = EDGE_LOOP ( 'NONE', ( #91, #122, #251, #90 ) ) ;
#88 = LENGTH_MEASURE_WITH_UNIT ( LENGTH_MEASURE( 0.02539999999999999897 ), #193 );
#89 = CIRCLE ( 'NONE', #257, 0.2500000000000000000 ) ;
#90 = ORIENTED_EDGE ( 'NONE', *, *, #200, .F. ) ;
#91 = ORIENTED_EDGE ( 'NONE', *, *, #295, .T. ) ;
#92 = ORIENTED_EDGE ( 'NONE', *, *, #93, .F. ) ;
#93 = EDGE_CURVE ( 'NONE', #41, #68, #339, .T. ) ;
#94 = ORIENTED_EDGE ( 'NONE', *, *, #295, .F. ) ;
#95 = VECTOR ( 'NONE', #232, 39.37007874015748143 ) ;
#96 = ADVANCED_FACE ( 'NONE', ( #74 ), #135, .T. ) ;
#97 = CYLINDRICAL_SURFACE ( 'NONE', #36, 0.2500000000000000000 ) ;
#98 = CARTESIAN_POINT ( 'NONE',  ( 0.03749999999999999861, 0.0000000000000000000, 0.0000000000000000000 ) ) ;
#99 = EDGE_CURVE ( 'NONE', #7, #62, #30, .T. ) ;
#100 = CARTESIAN_POINT ( 'NONE',  ( 0.0000000000000000000, 0.0000000000000000000, 1.000049999999999883 ) ) ;
#101 =( GEOMETRIC_REPRESENTATION_CONTEXT ( 3 ) GLOBAL_UNCERTAINTY_ASSIGNED_CONTEXT ( ( #15 ) ) GLOBAL_UNIT_ASSIGNED_CONTEXT ( ( #192, #167, #118 ) ) REPRESENTATION_CONTEXT ( 'NONE', 'WORKASPACE' ) );
#102 = CARTESIAN_POINT ( 'NONE',  ( 0.0000000000000000000, 0.0000000000000000000, 0.0000000000000000000 ) ) ;
#103 = EDGE_CURVE ( 'NONE', #161, #151, #10, .T. ) ;
#104 = DIRECTION ( 'NONE',  ( -0.0000000000000000000, -0.0000000000000000000, -1.000000000000000000 ) ) ;
#105 = APPLICATION_CONTEXT ( 'automotive_design' ) ;
#106 = PLANE ( 'NONE',  #310 ) ;
#107 = ORIENTED_EDGE ( 'NONE', *, *, #349, .T. ) ;
#108 = DIRECTION ( 'NONE',  ( -1.000000000000000000, 0.0000000000000000000, 0.0000000000000000000 ) ) ;
#109 = DIRECTION ( 'NONE',  ( -1.000000000000000000, 0.0000000000000000000, 0.0000000000000000000 ) ) ;
#110 =( CONVERSION_BASED_UNIT ( 'INCH', #344 ) LENGTH_UNIT ( ) NAMED_UNIT ( #2 ) );
#111 = MECHANICAL_DESIGN_GEOMETRIC_PRESENTATION_REPRESENTATION (  '', ( #126 ), #101 ) ;
#112 = FACE_OUTER_BOUND ( 'NONE', #255, .T. ) ;
#113 = CARTESIAN_POINT ( 'NONE',  ( 0.0000000000000000000, 0.0000000000000000000, 2.484999999999999876 ) ) ;
#114 = AXIS2_PLACEMENT_3D ( 'NONE', #261, #181, #283 ) ;
#115 = APPLICATION_PROTOCOL_DEFINITION ( 'draft international standard', 'automotive_design', 1998, #236 ) ;
#116 = FACE_OUTER_BOUND ( 'NONE', #188, .T. ) ;
#117 = ORIENTED_EDGE ( 'NONE', *, *, #103, .F. ) ;
#118 =( NAMED_UNIT ( * ) SI_UNIT ( $, .STERADIAN. ) SOLID_ANGLE_UNIT ( ) );
#119 = VECTOR ( 'NONE', #260, 39.37007874015748143 ) ;
#120 = ORIENTED_EDGE ( 'NONE', *, *, #170, .T. ) ;
#121 = ADVANCED_FACE ( 'NONE', ( #211 ), #203, .T. ) ;
#122 = ORIENTED_EDGE ( 'NONE', *, *, #321, .T. ) ;
#123 = LENGTH_MEASURE_WITH_UNIT ( LENGTH_MEASURE( 0.02539999999999999897 ), #270 );
#124 = ORIENTED_EDGE ( 'NONE', *, *, #170, .F. ) ;
#125 = ADVANCED_FACE ( 'NONE', ( #336 ), #329, .T. ) ;
#126 = STYLED_ITEM ( 'NONE', ( #216 ), #196 ) ;
#127 = ORIENTED_EDGE ( 'NONE', *, *, #324, .T. ) ;
#128 = DIRECTION ( 'NONE',  ( -0.7071067811865330288, 0.0000000000000000000, -0.7071067811865618946 ) ) ;
#129 = AXIS2_PLACEMENT_3D ( 'NONE', #182, #230, #235 ) ;
#130 = ADVANCED_FACE ( 'NONE', ( #259 ), #70, .T. ) ;
#131 = PRODUCT_DEFINITION_FORMATION_WITH_SPECIFIED_SOURCE ( 'ANY', '', #155, .NOT_KNOWN. ) ;
#132 = ADVANCED_FACE ( 'NONE', ( #311 ), #281, .T. ) ;
#133 = CLOSED_SHELL ( 'NONE', ( #125, #179, #33, #132, #282, #96, #45, #238, #130, #187, #121, #140 ) ) ;
#134 = CARTESIAN_POINT ( 'NONE',  ( 0.0000000000000000000, 0.0000000000000000000, 2.484999999999999876 ) ) ;
#135 = CYLINDRICAL_SURFACE ( 'NONE', #296, 0.2500000000000000000 ) ;
#136 = CARTESIAN_POINT ( 'NONE',  ( 0.0000000000000000000, 0.0000000000000000000, 2.500000000000000000 ) ) ;
#137 = PRESENTATION_LAYER_ASSIGNMENT (  '', '', ( #284 ) ) ;
#138 = DIRECTION ( 'NONE',  ( -0.0000000000000000000, -0.0000000000000000000, -1.000000000000000000 ) ) ;
#139 = DIRECTION ( 'NONE',  ( -0.0000000000000000000, -0.0000000000000000000, -1.000000000000000000 ) ) ;
#140 = ADVANCED_FACE ( 'NONE', ( #267 ), #145, .F. ) ;
#141 = LINE ( 'NONE', #44, #19 ) ;
#142 = CARTESIAN_POINT ( 'NONE',  ( -0.2499500000000000610, 0.0000000000000000000, 0.1226580646893352528 ) ) ;
#143 = VERTEX_POINT ( 'NONE', #190 ) ;
#144 = AXIS2_PLACEMENT_3D ( 'NONE', #345, #271, #292 ) ;
#145 = PLANE ( 'NONE',  #314 ) ;
#146 = CARTESIAN_POINT ( 'NONE',  ( 0.0000000000000000000, 0.0000000000000000000, 0.1226580646893352528 ) ) ;
#147 = EDGE_CURVE ( 'NONE', #218, #151, #42, .T. ) ;
#148 = ORIENTED_EDGE ( 'NONE', *, *, #228, .T. ) ;
#149 = EDGE_LOOP ( 'NONE', ( #107, #34 ) ) ;
#150 = CARTESIAN_POINT ( 'NONE',  ( 0.0000000000000000000, 0.0000000000000000000, 0.0000000000000000000 ) ) ;
#151 = VERTEX_POINT ( 'NONE', #32 ) ;
#152 = MECHANICAL_DESIGN_GEOMETRIC_PRESENTATION_REPRESENTATION (  '', ( #284 ), #202 ) ;
#153 = ORIENTED_EDGE ( 'NONE', *, *, #147, .T. ) ;
#154 = CIRCLE ( 'NONE', #254, 0.2350000000000003753 ) ;
#155 = PRODUCT ( 'Micro_SPD-500-120', 'Micro_SPD-500-120', '', ( #59 ) ) ;
#156 = AXIS2_PLACEMENT_3D ( 'NONE', #134, #185, #75 ) ;
#157 = FACE_OUTER_BOUND ( 'NONE', #60, .T. ) ;
#158 = DIRECTION ( 'NONE',  ( 0.0000000000000000000, 0.0000000000000000000, 1.000000000000000000 ) ) ;
#159 = DIRECTION ( 'NONE',  ( 1.000000000000000000, 0.0000000000000000000, 0.0000000000000000000 ) ) ;
#160 = DIRECTION ( 'NONE',  ( 1.000000000000000000, 0.0000000000000000000, -0.0000000000000000000 ) ) ;
#161 = VERTEX_POINT ( 'NONE', #319 ) ;
#162 = DIRECTION ( 'NONE',  ( 1.000000000000000000, 0.0000000000000000000, 0.0000000000000000000 ) ) ;
#163 = AXIS2_PLACEMENT_3D ( 'NONE', #266, #207, #108 ) ;
#164 = DIRECTION ( 'NONE',  ( -1.000000000000000000, 0.0000000000000000000, 0.0000000000000000000 ) ) ;
#165 = DIRECTION ( 'NONE',  ( -1.000000000000000000, 0.0000000000000000000, 0.0000000000000000000 ) ) ;
#166 = CARTESIAN_POINT ( 'NONE',  ( 0.0000000000000000000, 0.0000000000000000000, 0.1226580646893352528 ) ) ;
#167 =( NAMED_UNIT ( * ) PLANE_ANGLE_UNIT ( ) SI_UNIT ( $, .RADIAN. ) );
#168 = CIRCLE ( 'NONE', #276, 0.2500000000000000000 ) ;
#169 = FILL_AREA_STYLE ('',( #221 ) ) ;
#170 = EDGE_CURVE ( 'NONE', #178, #68, #269, .T. ) ;
#171 = EDGE_LOOP ( 'NONE', ( #66, #301, #316, #78 ) ) ;
#172 = CARTESIAN_POINT ( 'NONE',  ( 0.0000000000000000000, 0.0000000000000000000, 2.500000000000000000 ) ) ;
#173 = ORIENTED_EDGE ( 'NONE', *, *, #40, .F. ) ;
#174 = VECTOR ( 'NONE', #104, 39.37007874015748143 ) ;
#175 = ORIENTED_EDGE ( 'NONE', *, *, #250, .F. ) ;
#176 = CIRCLE ( 'NONE', #46, 0.03749999999999999861 ) ;
#177 = ORIENTED_EDGE ( 'NONE', *, *, #23, .T. ) ;
#178 = VERTEX_POINT ( 'NONE', #142 ) ;
#179 = ADVANCED_FACE ( 'NONE', ( #116 ), #293, .T. ) ;
#180 =( GEOMETRIC_REPRESENTATION_CONTEXT ( 3 ) GLOBAL_UNCERTAINTY_ASSIGNED_CONTEXT ( ( #233 ) ) GLOBAL_UNIT_ASSIGNED_CONTEXT ( ( #110, #334, #234 ) ) REPRESENTATION_CONTEXT ( 'NONE', 'WORKASPACE' ) );
#181 = DIRECTION ( 'NONE',  ( -0.0000000000000000000, -0.0000000000000000000, -1.000000000000000000 ) ) ;
#182 = CARTESIAN_POINT ( 'NONE',  ( 0.0000000000000000000, 0.0000000000000000000, 0.0000000000000000000 ) ) ;
#183 = CARTESIAN_POINT ( 'NONE',  ( 0.0000000000000000000, 0.0000000000000000000, 2.500000000000000000 ) ) ;
#184 = DIRECTION ( 'NONE',  ( -1.000000000000000000, 0.0000000000000000000, 0.0000000000000000000 ) ) ;
#185 = DIRECTION ( 'NONE',  ( 0.0000000000000000000, 0.0000000000000000000, -1.000000000000000000 ) ) ;
#186 = CARTESIAN_POINT ( 'NONE',  ( 0.0000000000000000000, 0.0000000000000000000, 2.500000000000000000 ) ) ;
#187 = ADVANCED_FACE ( 'NONE', ( #112 ), #217, .T. ) ;
#188 = EDGE_LOOP ( 'NONE', ( #239, #84, #124, #299 ) ) ;
#189 = DIRECTION ( 'NONE',  ( 0.0000000000000000000, 0.0000000000000000000, -1.000000000000000000 ) ) ;
#190 = CARTESIAN_POINT ( 'NONE',  ( 0.2350000000000003753, 2.969768487932332963E-17, 2.500000000000000000 ) ) ;
#191 = AXIS2_PLACEMENT_3D ( 'NONE', #208, #13, #48 ) ;
#192 =( CONVERSION_BASED_UNIT ( 'INCH', #88 ) LENGTH_UNIT ( ) NAMED_UNIT ( #71 ) );
#193 =( LENGTH_UNIT ( ) NAMED_UNIT ( * ) SI_UNIT ( $, .METRE. ) );
#194 = ORIENTED_EDGE ( 'NONE', *, *, #93, .T. ) ;
#195 = CARTESIAN_POINT ( 'NONE',  ( 0.0000000000000000000, 0.0000000000000000000, 2.500000000000000000 ) ) ;
#196 = MANIFOLD_SOLID_BREP ( 'Cut-Revolve2', #133 ) ;
#197 = CIRCLE ( 'NONE', #3, 0.2499500000000000610 ) ;
#198 = ORIENTED_EDGE ( 'NONE', *, *, #307, .T. ) ;
#199 = PRODUCT_DEFINITION ( 'UNKNOWN', '', #131, #331 ) ;
#200 = EDGE_CURVE ( 'NONE', #151, #347, #248, .T. ) ;
#201 = AXIS2_PLACEMENT_3D ( 'NONE', #150, #31, #219 ) ;
#202 =( GEOMETRIC_REPRESENTATION_CONTEXT ( 3 ) GLOBAL_UNCERTAINTY_ASSIGNED_CONTEXT ( ( #209 ) ) GLOBAL_UNIT_ASSIGNED_CONTEXT ( ( #249, #247, #225 ) ) REPRESENTATION_CONTEXT ( 'NONE', 'WORKASPACE' ) );
#203 = CONICAL_SURFACE ( 'NONE', #129, 0.03749999999999999861, 1.047197551196600518 ) ;
#204 = EDGE_CURVE ( 'NONE', #347, #224, #89, .T. ) ;
#205 = LINE ( 'NONE', #20, #61 ) ;
#206 = COLOUR_RGB ( '',0.7921568627450980005, 0.8196078431372548767, 0.9333333333333333481 ) ;
#207 = DIRECTION ( 'NONE',  ( -0.0000000000000000000, -0.0000000000000000000, -1.000000000000000000 ) ) ;
#208 = CARTESIAN_POINT ( 'NONE',  ( 0.0000000000000000000, 0.0000000000000000000, 1.000000000000000000 ) ) ;
#209 = UNCERTAINTY_MEASURE_WITH_UNIT (LENGTH_MEASURE( 1.000000000000000082E-05 ), #249, 'distance_accuracy_value', 'NONE');
#210 = CARTESIAN_POINT ( 'NONE',  ( 0.0000000000000000000, 0.0000000000000000000, 2.500000000000000000 ) ) ;
#211 = FACE_OUTER_BOUND ( 'NONE', #222, .T. ) ;
#212 = CARTESIAN_POINT ( 'NONE',  ( -0.2499500000000000888, 0.0000000000000000000, 0.0000000000000000000 ) ) ;
#213 = DIRECTION ( 'NONE',  ( 1.000000000000000000, 0.0000000000000000000, 0.0000000000000000000 ) ) ;
#214 = DIRECTION ( 'NONE',  ( -0.0000000000000000000, -0.0000000000000000000, -1.000000000000000000 ) ) ;
#215 = DIRECTION ( 'NONE',  ( 0.0000000000000000000, 0.0000000000000000000, -1.000000000000000000 ) ) ;
#216 = PRESENTATION_STYLE_ASSIGNMENT (( #86 ) ) ;
#217 = CYLINDRICAL_SURFACE ( 'NONE', #73, 0.2499500000000000888 ) ;
#218 = VERTEX_POINT ( 'NONE', #268 ) ;
#219 = DIRECTION ( 'NONE',  ( 1.000000000000000000, 0.0000000000000000000, 0.0000000000000000000 ) ) ;
#220 = PRESENTATION_LAYER_ASSIGNMENT (  '', '', ( #126 ) ) ;
#221 = FILL_AREA_STYLE_COLOUR ( '', #246 ) ;
#222 = EDGE_LOOP ( 'NONE', ( #277, #328, #194, #198 ) ) ;
#223 = SURFACE_SIDE_STYLE ('',( #63 ) ) ;
#224 = VERTEX_POINT ( 'NONE', #262 ) ;
#225 =( NAMED_UNIT ( * ) SI_UNIT ( $, .STERADIAN. ) SOLID_ANGLE_UNIT ( ) );
#226 = ORIENTED_EDGE ( 'NONE', *, *, #21, .F. ) ;
#227 = CARTESIAN_POINT ( 'NONE',  ( 0.2499500000000001165, 0.0000000000000000000, 1.000000000000000000 ) ) ;
#228 = EDGE_CURVE ( 'NONE', #161, #143, #58, .T. ) ;
#229 = VECTOR ( 'NONE', #320, 39.37007874015748143 ) ;
#230 = DIRECTION ( 'NONE',  ( 0.0000000000000000000, 0.0000000000000000000, 1.000000000000000000 ) ) ;
#231 = AXIS2_PLACEMENT_3D ( 'NONE', #102, #72, #43 ) ;
#232 = DIRECTION ( 'NONE',  ( 0.8660254037844400399, 0.0000000000000000000, 0.4999999999999976685 ) ) ;
#233 = UNCERTAINTY_MEASURE_WITH_UNIT (LENGTH_MEASURE( 1.000000000000000082E-05 ), #110, 'distance_accuracy_value', 'NONE');
#234 =( NAMED_UNIT ( * ) SI_UNIT ( $, .STERADIAN. ) SOLID_ANGLE_UNIT ( ) );
#235 = DIRECTION ( 'NONE',  ( 1.000000000000000000, 0.0000000000000000000, 0.0000000000000000000 ) ) ;
#236 = APPLICATION_CONTEXT ( 'automotive_design' ) ;
#237 = DIRECTION ( 'NONE',  ( -0.0000000000000000000, -0.0000000000000000000, -1.000000000000000000 ) ) ;
#238 = ADVANCED_FACE ( 'NONE', ( #85 ), #346, .T. ) ;
#239 = ORIENTED_EDGE ( 'NONE', *, *, #99, .T. ) ;
#240 = CARTESIAN_POINT ( 'NONE',  ( -0.2500000000000000000, 0.0000000000000000000, 2.500000000000000000 ) ) ;
#241 = VECTOR ( 'NONE', #128, 39.37007874015748854 ) ;
#242 = DIRECTION ( 'NONE',  ( -0.7071067811865490160, 8.659560562354951347E-17, 0.7071067811865460184 ) ) ;
#243 =( LENGTH_UNIT ( ) NAMED_UNIT ( * ) SI_UNIT ( $, .METRE. ) );
#244 = DIRECTION ( 'NONE',  ( -0.0000000000000000000, -0.0000000000000000000, -1.000000000000000000 ) ) ;
#245 = ORIENTED_EDGE ( 'NONE', *, *, #204, .T. ) ;
#246 = COLOUR_RGB ( '',0.7921568627450980005, 0.8196078431372548767, 0.9333333333333333481 ) ;
#247 =( NAMED_UNIT ( * ) PLANE_ANGLE_UNIT ( ) SI_UNIT ( $, .RADIAN. ) );
#248 = LINE ( 'NONE', #240, #306 ) ;
#249 =( CONVERSION_BASED_UNIT ( 'INCH', #123 ) LENGTH_UNIT ( ) NAMED_UNIT ( #64 ) );
#250 = EDGE_CURVE ( 'NONE', #62, #68, #22, .T. ) ;
#251 = ORIENTED_EDGE ( 'NONE', *, *, #204, .F. ) ;
#252 = ORIENTED_EDGE ( 'NONE', *, *, #11, .F. ) ;
#253 = APPLICATION_PROTOCOL_DEFINITION ( 'draft international standard', 'automotive_design', 1998, #105 ) ;
#254 = AXIS2_PLACEMENT_3D ( 'NONE', #195, #309, #53 ) ;
#255 = EDGE_LOOP ( 'NONE', ( #175, #4, #256, #297 ) ) ;
#256 = ORIENTED_EDGE ( 'NONE', *, *, #279, .T. ) ;
#257 = AXIS2_PLACEMENT_3D ( 'NONE', #100, #342, #79 ) ;
#258 = EDGE_CURVE ( 'NONE', #224, #347, #168, .T. ) ;
#259 = FACE_OUTER_BOUND ( 'NONE', #171, .T. ) ;
#260 = DIRECTION ( 'NONE',  ( -0.0000000000000000000, -0.0000000000000000000, -1.000000000000000000 ) ) ;
#261 = CARTESIAN_POINT ( 'NONE',  ( 0.0000000000000000000, 0.0000000000000000000, 1.000000000000000000 ) ) ;
#262 = CARTESIAN_POINT ( 'NONE',  ( 0.2500000000000000000, 3.061616997868383018E-17, 1.000049999999999883 ) ) ;
#263 = CIRCLE ( 'NONE', #163, 0.03749999999999999861 ) ;
#264 = DIRECTION ( 'NONE',  ( -0.8660254037844400399, 1.060575238724908640E-16, 0.4999999999999976685 ) ) ;
#265 = CARTESIAN_POINT ( 'NONE',  ( 0.0000000000000000000, 0.0000000000000000000, 2.500000000000000000 ) ) ;
#266 = CARTESIAN_POINT ( 'NONE',  ( 0.0000000000000000000, 0.0000000000000000000, 0.0000000000000000000 ) ) ;
#267 = FACE_OUTER_BOUND ( 'NONE', #149, .T. ) ;
#268 = CARTESIAN_POINT ( 'NONE',  ( 0.2500000000000000000, 3.061616997868383018E-17, 2.484999999999999876 ) ) ;
#269 = CIRCLE ( 'NONE', #65, 0.2499500000000000610 ) ;
#270 =( LENGTH_UNIT ( ) NAMED_UNIT ( * ) SI_UNIT ( $, .METRE. ) );
#271 = DIRECTION ( 'NONE',  ( -0.0000000000000000000, -0.0000000000000000000, -1.000000000000000000 ) ) ;
#272 = AXIS2_PLACEMENT_3D ( 'NONE', #51, #139, #109 ) ;
#273 = DIRECTION ( 'NONE',  ( 1.000000000000000000, 0.0000000000000000000, -0.0000000000000000000 ) ) ;
#274 = CARTESIAN_POINT ( 'NONE',  ( 0.0000000000000000000, 0.0000000000000000000, 0.0000000000000000000 ) ) ;
#275 = ORIENTED_EDGE ( 'NONE', *, *, #200, .T. ) ;
#276 = AXIS2_PLACEMENT_3D ( 'NONE', #290, #312, #162 ) ;
#277 = ORIENTED_EDGE ( 'NONE', *, *, #324, .F. ) ;
#278 = ORIENTED_EDGE ( 'NONE', *, *, #147, .F. ) ;
#279 = EDGE_CURVE ( 'NONE', #7, #178, #286, .T. ) ;
#280 = ORIENTED_EDGE ( 'NONE', *, *, #21, .T. ) ;
#281 = CONICAL_SURFACE ( 'NONE', #28, 0.2350000000000003753, 0.7853981633974278509 ) ;
#282 = ADVANCED_FACE ( 'NONE', ( #47 ), #97, .T. ) ;
#283 = DIRECTION ( 'NONE',  ( -1.000000000000000000, 0.0000000000000000000, 0.0000000000000000000 ) ) ;
#284 = STYLED_ITEM ( 'NONE', ( #298 ), #333 ) ;
#285 = DIRECTION ( 'NONE',  ( 0.7071067811865330288, 8.659560562354755364E-17, -0.7071067811865618946 ) ) ;
#286 = LINE ( 'NONE', #212, #119 ) ;
#287 = EDGE_CURVE ( 'NONE', #143, #218, #289, .T. ) ;
#288 = ORIENTED_EDGE ( 'NONE', *, *, #228, .F. ) ;
#289 = LINE ( 'NONE', #308, #332 ) ;
#290 = CARTESIAN_POINT ( 'NONE',  ( 0.0000000000000000000, 0.0000000000000000000, 1.000049999999999883 ) ) ;
#291 = DIRECTION ( 'NONE',  ( -0.0000000000000000000, -0.0000000000000000000, -1.000000000000000000 ) ) ;
#292 = DIRECTION ( 'NONE',  ( -1.000000000000000000, 0.0000000000000000000, 0.0000000000000000000 ) ) ;
#293 = CYLINDRICAL_SURFACE ( 'NONE', #144, 0.2499500000000000888 ) ;
#294 = SHAPE_DEFINITION_REPRESENTATION ( #69, #333 ) ;
#295 = EDGE_CURVE ( 'NONE', #151, #218, #302, .T. ) ;
#296 = AXIS2_PLACEMENT_3D ( 'NONE', #186, #291, #165 ) ;
#297 = ORIENTED_EDGE ( 'NONE', *, *, #307, .F. ) ;
#298 = PRESENTATION_STYLE_ASSIGNMENT (( #323 ) ) ;
#299 = ORIENTED_EDGE ( 'NONE', *, *, #279, .F. ) ;
#300 = ORIENTED_EDGE ( 'NONE', *, *, #321, .F. ) ;
#301 = ORIENTED_EDGE ( 'NONE', *, *, #80, .F. ) ;
#302 = CIRCLE ( 'NONE', #156, 0.2500000000000000000 ) ;
#303 = CARTESIAN_POINT ( 'NONE',  ( 0.03749999999999999861, 0.0000000000000000000, 0.0000000000000000000 ) ) ;
#304 = CARTESIAN_POINT ( 'NONE',  ( -0.2500000000000000000, 0.0000000000000000000, 1.000049999999999883 ) ) ;
#305 = CARTESIAN_POINT ( 'NONE',  ( 0.2499500000000000610, 3.061004674468810144E-17, 0.1226580646893352528 ) ) ;
#306 = VECTOR ( 'NONE', #237, 39.37007874015748143 ) ;
#307 = EDGE_CURVE ( 'NONE', #68, #178, #197, .T. ) ;
#308 = CARTESIAN_POINT ( 'NONE',  ( 0.2350000000000003753, 2.877919977996284141E-17, 2.500000000000000000 ) ) ;
#309 = DIRECTION ( 'NONE',  ( 0.0000000000000000000, 0.0000000000000000000, 1.000000000000000000 ) ) ;
#310 = AXIS2_PLACEMENT_3D ( 'NONE', #265, #158, #160 ) ;
#311 = FACE_OUTER_BOUND ( 'NONE', #55, .T. ) ;
#312 = DIRECTION ( 'NONE',  ( -0.0000000000000000000, -0.0000000000000000000, -1.000000000000000000 ) ) ;
#313 = CARTESIAN_POINT ( 'NONE',  ( 0.0000000000000000000, 0.0000000000000000000, 0.0000000000000000000 ) ) ;
#314 = AXIS2_PLACEMENT_3D ( 'NONE', #274, #35, #273 ) ;
#315 = DIRECTION ( 'NONE',  ( -0.0000000000000000000, -0.0000000000000000000, -1.000000000000000000 ) ) ;
#316 = ORIENTED_EDGE ( 'NONE', *, *, #11, .T. ) ;
#317 = DIRECTION ( 'NONE',  ( 1.000000000000000000, 0.0000000000000000000, 0.0000000000000000000 ) ) ;
#318 = FILL_AREA_STYLE_COLOUR ( '', #206 ) ;
#319 = CARTESIAN_POINT ( 'NONE',  ( -0.2350000000000003753, 0.0000000000000000000, 2.500000000000000000 ) ) ;
#320 = DIRECTION ( 'NONE',  ( 0.7071067811865490160, 0.0000000000000000000, 0.7071067811865460184 ) ) ;
#321 = EDGE_CURVE ( 'NONE', #218, #224, #50, .T. ) ;
#322 = ORIENTED_EDGE ( 'NONE', *, *, #103, .T. ) ;
#323 = SURFACE_STYLE_USAGE ( .BOTH. , #223 ) ;
#324 = EDGE_CURVE ( 'NONE', #38, #178, #141, .T. ) ;
#325 = LINE ( 'NONE', #227, #229 ) ;
#326 = EDGE_LOOP ( 'NONE', ( #173, #127, #120, #92 ) ) ;
#327 = AXIS2_PLACEMENT_3D ( 'NONE', #136, #26, #335 ) ;
#328 = ORIENTED_EDGE ( 'NONE', *, *, #349, .F. ) ;
#329 = CONICAL_SURFACE ( 'NONE', #231, 0.03749999999999999861, 1.047197551196600518 ) ;
#330 = CARTESIAN_POINT ( 'NONE',  ( -0.2350000000000003753, 0.0000000000000000000, 2.500000000000000000 ) ) ;
#331 = PRODUCT_DEFINITION_CONTEXT ( 'detailed design', #105, 'design' ) ;
#332 = VECTOR ( 'NONE', #285, 39.37007874015748854 ) ;
#333 = ADVANCED_BREP_SHAPE_REPRESENTATION ( 'Micro_SPD-500-120', ( #196, #201 ), #180 ) ;
#334 =( NAMED_UNIT ( * ) PLANE_ANGLE_UNIT ( ) SI_UNIT ( $, .RADIAN. ) );
#335 = DIRECTION ( 'NONE',  ( -1.000000000000000000, 0.0000000000000000000, 0.0000000000000000000 ) ) ;
#336 = FACE_OUTER_BOUND ( 'NONE', #326, .T. ) ;
#337 = VECTOR ( 'NONE', #214, 39.37007874015748143 ) ;
#338 = CARTESIAN_POINT ( 'NONE',  ( 0.2499500000000000888, 3.061004674468810760E-17, 0.0000000000000000000 ) ) ;
#339 = LINE ( 'NONE', #303, #95 ) ;
#340 = CONICAL_SURFACE ( 'NONE', #14, 0.2499500000000001165, 0.7853981633974503884 ) ;
#341 = ORIENTED_EDGE ( 'NONE', *, *, #99, .F. ) ;
#342 = DIRECTION ( 'NONE',  ( -0.0000000000000000000, -0.0000000000000000000, -1.000000000000000000 ) ) ;
#343 = CARTESIAN_POINT ( 'NONE',  ( -0.03749999999999999861, 1.760123612074533598E-17, 0.0000000000000000000 ) ) ;
#344 = LENGTH_MEASURE_WITH_UNIT ( LENGTH_MEASURE( 0.02539999999999999897 ), #243 );
#345 = CARTESIAN_POINT ( 'NONE',  ( 0.0000000000000000000, 0.0000000000000000000, 0.0000000000000000000 ) ) ;
#346 = CONICAL_SURFACE ( 'NONE', #327, 0.2350000000000003753, 0.7853981633974278509 ) ;
#347 = VERTEX_POINT ( 'NONE', #304 ) ;
#348 = SURFACE_SIDE_STYLE ('',( #1 ) ) ;
#349 = EDGE_CURVE ( 'NONE', #41, #38, #263, .T. ) ;
ENDSEC;
END-ISO-10303-21;
