ISO-10303-21;
HEADER;
FILE_DESCRIPTION (( 'STEP AP214' ),
    '1' );
FILE_NAME ('84048.STEP',
    '2023-06-23T11:01:44',
    ( '' ),
    ( '' ),
    'SwSTEP 2.0',
    'SolidWorks 2023',
    '' );
FILE_SCHEMA (( 'AUTOMOTIVE_DESIGN' ));
ENDSEC;

DATA;
#1 = SURFACE_SIDE_STYLE ('',( #105 ) ) ;
#2 = CARTESIAN_POINT ( 'NONE',  ( 0.000000000000000000, 0.000000000000000000, 0.000000000000000000 ) ) ;
#3 = CARTESIAN_POINT ( 'NONE',  ( 7.582401355855259480E-33, 0.2810000000000000830, 0.000000000000000000 ) ) ;
#4 = AXIS2_PLACEMENT_3D ( 'NONE', #113, #228, #313 ) ;
#5 = FACE_OUTER_BOUND ( 'NONE', #298, .T. ) ;
#6 =( NAMED_UNIT ( * ) SI_UNIT ( $, .STERADIAN. ) SOLID_ANGLE_UNIT ( ) );
#7 = AXIS2_PLACEMENT_3D ( 'NONE', #329, #321, #155 ) ;
#8 = DIRECTION ( 'NONE',  ( 0.000000000000000000, -1.000000000000000000, -0.000000000000000000 ) ) ;
#9 = COLOUR_RGB ( '',1.000000000000000000, 0.000000000000000000, 0.000000000000000000 ) ;
#10 = CARTESIAN_POINT ( 'NONE',  ( 0.000000000000000000, 0.000000000000000000, 0.000000000000000000 ) ) ;
#11 = ORIENTED_EDGE ( 'NONE', *, *, #111, .T. ) ;
#12 = VECTOR ( 'NONE', #45, 39.37007874015748143 ) ;
#13 = ORIENTED_EDGE ( 'NONE', *, *, #193, .F. ) ;
#14 = MECHANICAL_DESIGN_GEOMETRIC_PRESENTATION_REPRESENTATION (  '', ( #330 ), #84 ) ;
#15 = FACE_OUTER_BOUND ( 'NONE', #167, .T. ) ;
#16 = VERTEX_POINT ( 'NONE', #291 ) ;
#17 = DIRECTION ( 'NONE',  ( -2.759456510021075690E-17, 1.000000000000000000, -0.000000000000000000 ) ) ;
#18 = LINE ( 'NONE', #177, #278 ) ;
#19 = CARTESIAN_POINT ( 'NONE',  ( 1.783720104040935264E-35, 0.2810000000000000275, 0.000000000000000000 ) ) ;
#20 = CARTESIAN_POINT ( 'NONE',  ( -6.123233995736766036E-17, 2.500000000000000000, 0.000000000000000000 ) ) ;
#21 = ORIENTED_EDGE ( 'NONE', *, *, #164, .T. ) ;
#22 = ADVANCED_FACE ( 'NONE', ( #186 ), #37, .T. ) ;
#23 =( GEOMETRIC_REPRESENTATION_CONTEXT ( 3 ) GLOBAL_UNCERTAINTY_ASSIGNED_CONTEXT ( ( #215 ) ) GLOBAL_UNIT_ASSIGNED_CONTEXT ( ( #39, #336, #338 ) ) REPRESENTATION_CONTEXT ( 'NONE', 'WORKASPACE' ) );
#24 = CARTESIAN_POINT ( 'NONE',  ( 0.000000000000000000, 0.000000000000000000, -0.04684999999999999581 ) ) ;
#25 = SURFACE_STYLE_USAGE ( .BOTH. , #1 ) ;
#26 = COLOUR_RGB ( '',1.000000000000000000, 0.000000000000000000, 0.000000000000000000 ) ;
#27 = DIRECTION ( 'NONE',  ( -0.000000000000000000, -1.000000000000000000, -0.000000000000000000 ) ) ;
#28 = AXIS2_PLACEMENT_3D ( 'NONE', #94, #211, #266 ) ;
#29 = PRESENTATION_STYLE_ASSIGNMENT (( #282 ) ) ;
#30 = FILL_AREA_STYLE ('',( #287 ) ) ;
#31 = LINE ( 'NONE', #256, #47 ) ;
#32 = STYLED_ITEM ( 'NONE', ( #194 ), #257 ) ;
#33 = ORIENTED_EDGE ( 'NONE', *, *, #332, .F. ) ;
#34 = DIMENSIONAL_EXPONENTS ( 1.000000000000000000, 0.000000000000000000, 0.000000000000000000, 0.000000000000000000, 0.000000000000000000, 0.000000000000000000, 0.000000000000000000 ) ;
#35 = ORIENTED_EDGE ( 'NONE', *, *, #347, .F. ) ;
#36 = SURFACE_STYLE_FILL_AREA ( #30 ) ;
#37 = PLANE ( 'NONE',  #358 ) ;
#38 = MECHANICAL_DESIGN_GEOMETRIC_PRESENTATION_REPRESENTATION (  '', ( #92 ), #162 ) ;
#39 =( CONVERSION_BASED_UNIT ( 'INCH', #64 ) LENGTH_UNIT ( ) NAMED_UNIT ( #144 ) );
#40 = DIRECTION ( 'NONE',  ( 0.000000000000000000, 0.000000000000000000, -1.000000000000000000 ) ) ;
#41 = ORIENTED_EDGE ( 'NONE', *, *, #220, .T. ) ;
#42 = AXIS2_PLACEMENT_3D ( 'NONE', #3, #161, #310 ) ;
#43 = CARTESIAN_POINT ( 'NONE',  ( 0.000000000000000000, 0.000000000000000000, 0.000000000000000000 ) ) ;
#44 = CIRCLE ( 'NONE', #114, 0.1250000000000000278 ) ;
#45 = DIRECTION ( 'NONE',  ( -2.759456510021075690E-17, 1.000000000000000000, -0.000000000000000000 ) ) ;
#46 = PRESENTATION_STYLE_ASSIGNMENT (( #154 ) ) ;
#47 = VECTOR ( 'NONE', #83, 39.37007874015747433 ) ;
#48 = DIRECTION ( 'NONE',  ( -2.759456510021075690E-17, 1.000000000000000000, -0.000000000000000000 ) ) ;
#49 = AXIS2_PLACEMENT_3D ( 'NONE', #2, #27, #75 ) ;
#50 = PRESENTATION_LAYER_ASSIGNMENT (  '', '', ( #170 ) ) ;
#51 = CYLINDRICAL_SURFACE ( 'NONE', #49, 0.04684999999999999581 ) ;
#52 = CARTESIAN_POINT ( 'NONE',  ( -6.123233995736766036E-17, 2.500000000000000000, 0.000000000000000000 ) ) ;
#53 = CARTESIAN_POINT ( 'NONE',  ( 7.582401355855259480E-33, 0.2810000000000000830, 0.000000000000000000 ) ) ;
#54 = CARTESIAN_POINT ( 'NONE',  ( 0.000000000000000000, 0.2810000000000000275, 0.000000000000000000 ) ) ;
#55 = CARTESIAN_POINT ( 'NONE',  ( 0.000000000000000000, 0.2810000000000000275, 0.000000000000000000 ) ) ;
#56 = CONICAL_SURFACE ( 'NONE', #72, 0.04684999999999999581, 0.2617993877991500740 ) ;
#57 = SURFACE_STYLE_USAGE ( .BOTH. , #315 ) ;
#58 =( NAMED_UNIT ( * ) PLANE_ANGLE_UNIT ( ) SI_UNIT ( $, .RADIAN. ) );
#59 = VERTEX_POINT ( 'NONE', #89 ) ;
#60 = ADVANCED_FACE ( 'NONE', ( #15 ), #56, .T. ) ;
#61 = VERTEX_POINT ( 'NONE', #327 ) ;
#62 =( CONVERSION_BASED_UNIT ( 'INCH', #340 ) LENGTH_UNIT ( ) NAMED_UNIT ( #258 ) );
#63 = ORIENTED_EDGE ( 'NONE', *, *, #65, .F. ) ;
#64 = LENGTH_MEASURE_WITH_UNIT ( LENGTH_MEASURE( 0.02539999999999999897 ), #129 );
#65 = EDGE_CURVE ( 'NONE', #145, #61, #268, .T. ) ;
#66 = CIRCLE ( 'NONE', #118, 0.04684999999999999581 ) ;
#67 = CARTESIAN_POINT ( 'NONE',  ( 5.737470254005349551E-18, 0.2810000000000000275, 0.04684999999999999581 ) ) ;
#68 = FILL_AREA_STYLE_COLOUR ( '', #26 ) ;
#69 = APPLICATION_PROTOCOL_DEFINITION ( 'draft international standard', 'automotive_design', 1998, #272 ) ;
#70 = CARTESIAN_POINT ( 'NONE',  ( -0.1250000000000001388, 2.500000000000000000, 0.000000000000000000 ) ) ;
#71 =( NAMED_UNIT ( * ) SI_UNIT ( $, .STERADIAN. ) SOLID_ANGLE_UNIT ( ) );
#72 = AXIS2_PLACEMENT_3D ( 'NONE', #271, #300, #238 ) ;
#73 = DIRECTION ( 'NONE',  ( -1.000000000000000000, 0.000000000000000000, 0.000000000000000000 ) ) ;
#74 = DIRECTION ( 'NONE',  ( -1.000000000000000000, 0.000000000000000000, 0.000000000000000000 ) ) ;
#75 = DIRECTION ( 'NONE',  ( 0.000000000000000000, 0.000000000000000000, -1.000000000000000000 ) ) ;
#76 = ORIENTED_EDGE ( 'NONE', *, *, #78, .F. ) ;
#77 = LENGTH_MEASURE_WITH_UNIT ( LENGTH_MEASURE( 0.02539999999999999897 ), #277 );
#78 = EDGE_CURVE ( 'NONE', #265, #16, #44, .T. ) ;
#79 = LINE ( 'NONE', #149, #183 ) ;
#80 =( LENGTH_UNIT ( ) NAMED_UNIT ( * ) SI_UNIT ( $, .METRE. ) );
#81 = AXIS2_PLACEMENT_3D ( 'NONE', #19, #210, #184 ) ;
#82 = DIMENSIONAL_EXPONENTS ( 1.000000000000000000, 0.000000000000000000, 0.000000000000000000, 0.000000000000000000, 0.000000000000000000, 0.000000000000000000, 0.000000000000000000 ) ;
#83 = DIRECTION ( 'NONE',  ( -0.2588190451025213501, 0.9659258262890682012, 0.000000000000000000 ) ) ;
#84 =( GEOMETRIC_REPRESENTATION_CONTEXT ( 3 ) GLOBAL_UNCERTAINTY_ASSIGNED_CONTEXT ( ( #185 ) ) GLOBAL_UNIT_ASSIGNED_CONTEXT ( ( #122, #245, #71 ) ) REPRESENTATION_CONTEXT ( 'NONE', 'WORKASPACE' ) );
#85 = ORIENTED_EDGE ( 'NONE', *, *, #332, .T. ) ;
#86 =( CONVERSION_BASED_UNIT ( 'INCH', #243 ) LENGTH_UNIT ( ) NAMED_UNIT ( #34 ) );
#87 = CARTESIAN_POINT ( 'NONE',  ( 0.000000000000000000, 0.2810000000000000275, 0.000000000000000000 ) ) ;
#88 =( NAMED_UNIT ( * ) PLANE_ANGLE_UNIT ( ) SI_UNIT ( $, .RADIAN. ) );
#89 = CARTESIAN_POINT ( 'NONE',  ( 0.000000000000000000, 0.000000000000000000, -0.04684999999999999581 ) ) ;
#90 = PRODUCT_RELATED_PRODUCT_CATEGORY ( 'part', '', ( #307 ) ) ;
#91 = ORIENTED_EDGE ( 'NONE', *, *, #263, .T. ) ;
#92 = STYLED_ITEM ( 'NONE', ( #29 ), #250 ) ;
#93 = DIRECTION ( 'NONE',  ( 0.000000000000000000, 0.000000000000000000, -1.000000000000000000 ) ) ;
#94 = CARTESIAN_POINT ( 'NONE',  ( 0.000000000000000000, 0.000000000000000000, 0.000000000000000000 ) ) ;
#95 = SURFACE_SIDE_STYLE ('',( #153 ) ) ;
#96 = ADVANCED_FACE ( 'NONE', ( #212 ), #353, .T. ) ;
#97 = CIRCLE ( 'NONE', #128, 0.04684999999999999581 ) ;
#98 = DIRECTION ( 'NONE',  ( 0.000000000000000000, 0.000000000000000000, -1.000000000000000000 ) ) ;
#99 =( LENGTH_UNIT ( ) NAMED_UNIT ( * ) SI_UNIT ( $, .METRE. ) );
#100 = VERTEX_POINT ( 'NONE', #70 ) ;
#101 = FILL_AREA_STYLE ('',( #138 ) ) ;
#102 = ADVANCED_FACE ( 'NONE', ( #151 ), #181, .F. ) ;
#103 = DIRECTION ( 'NONE',  ( -1.000000000000000000, 0.000000000000000000, 0.000000000000000000 ) ) ;
#104 = UNCERTAINTY_MEASURE_WITH_UNIT (LENGTH_MEASURE( 1.000000000000000082E-05 ), #226, 'distance_accuracy_value', 'NONE');
#105 = SURFACE_STYLE_FILL_AREA ( #219 ) ;
#106 = SURFACE_SIDE_STYLE ('',( #254 ) ) ;
#107 = AXIS2_PLACEMENT_3D ( 'NONE', #303, #135, #103 ) ;
#108 = CIRCLE ( 'NONE', #126, 0.04684999999999999581 ) ;
#109 =( NAMED_UNIT ( * ) SI_UNIT ( $, .STERADIAN. ) SOLID_ANGLE_UNIT ( ) );
#110 = CARTESIAN_POINT ( 'NONE',  ( 0.1250000000000000278, 2.500000000000000000, 1.530808498934192125E-17 ) ) ;
#111 = EDGE_CURVE ( 'NONE', #235, #117, #293, .T. ) ;
#112 = EDGE_LOOP ( 'NONE', ( #290, #175, #248, #319 ) ) ;
#113 = CARTESIAN_POINT ( 'NONE',  ( -8.048224527251757369E-18, 0.5726597706115070796, 0.000000000000000000 ) ) ;
#114 = AXIS2_PLACEMENT_3D ( 'NONE', #246, #119, #74 ) ;
#115 = SURFACE_STYLE_USAGE ( .BOTH. , #142 ) ;
#116 = DIRECTION ( 'NONE',  ( -0.000000000000000000, -1.000000000000000000, -0.000000000000000000 ) ) ;
#117 = VERTEX_POINT ( 'NONE', #127 ) ;
#118 = AXIS2_PLACEMENT_3D ( 'NONE', #55, #343, #192 ) ;
#119 = DIRECTION ( 'NONE',  ( -2.759456510021075690E-17, 1.000000000000000000, -0.000000000000000000 ) ) ;
#120 = EDGE_LOOP ( 'NONE', ( #240, #91, #234, #346 ) ) ;
#121 = MECHANICAL_DESIGN_GEOMETRIC_PRESENTATION_REPRESENTATION (  '', ( #286 ), #247 ) ;
#122 =( CONVERSION_BASED_UNIT ( 'INCH', #348 ) LENGTH_UNIT ( ) NAMED_UNIT ( #318 ) );
#123 = DIRECTION ( 'NONE',  ( -0.000000000000000000, -1.000000000000000000, -0.000000000000000000 ) ) ;
#124 = LINE ( 'NONE', #264, #216 ) ;
#125 = DIRECTION ( 'NONE',  ( -1.000000000000000000, 0.000000000000000000, 0.000000000000000000 ) ) ;
#126 = AXIS2_PLACEMENT_3D ( 'NONE', #53, #223, #309 ) ;
#127 = CARTESIAN_POINT ( 'NONE',  ( -0.04684999999999999581, 0.2810000000000000830, 0.000000000000000000 ) ) ;
#128 = AXIS2_PLACEMENT_3D ( 'NONE', #297, #323, #40 ) ;
#129 =( LENGTH_UNIT ( ) NAMED_UNIT ( * ) SI_UNIT ( $, .METRE. ) );
#130 = ORIENTED_EDGE ( 'NONE', *, *, #217, .T. ) ;
#131 = FACE_OUTER_BOUND ( 'NONE', #218, .T. ) ;
#132 = UNCERTAINTY_MEASURE_WITH_UNIT (LENGTH_MEASURE( 1.000000000000000082E-05 ), #190, 'distance_accuracy_value', 'NONE');
#133 =( NAMED_UNIT ( * ) SI_UNIT ( $, .STERADIAN. ) SOLID_ANGLE_UNIT ( ) );
#134 = DIRECTION ( 'NONE',  ( -0.000000000000000000, -1.000000000000000000, -0.000000000000000000 ) ) ;
#135 = DIRECTION ( 'NONE',  ( -2.759456510021075690E-17, 1.000000000000000000, -0.000000000000000000 ) ) ;
#136 = CIRCLE ( 'NONE', #4, 0.1250000000000000278 ) ;
#137 = ADVANCED_FACE ( 'NONE', ( #302 ), #173, .T. ) ;
#138 = FILL_AREA_STYLE_COLOUR ( '', #169 ) ;
#139 =( LENGTH_UNIT ( ) NAMED_UNIT ( * ) SI_UNIT ( $, .METRE. ) );
#140 = COLOUR_RGB ( '',0.7921568627450980005, 0.8196078431372548767, 0.9333333333333333481 ) ;
#141 = PRODUCT_DEFINITION_CONTEXT ( 'detailed design', #171, 'design' ) ;
#142 = SURFACE_SIDE_STYLE ('',( #156 ) ) ;
#143 =( LENGTH_UNIT ( ) NAMED_UNIT ( * ) SI_UNIT ( $, .METRE. ) );
#144 = DIMENSIONAL_EXPONENTS ( 1.000000000000000000, 0.000000000000000000, 0.000000000000000000, 0.000000000000000000, 0.000000000000000000, 0.000000000000000000, 0.000000000000000000 ) ;
#145 = VERTEX_POINT ( 'NONE', #67 ) ;
#146 = EDGE_CURVE ( 'NONE', #145, #295, #18, .T. ) ;
#147 = ORIENTED_EDGE ( 'NONE', *, *, #193, .T. ) ;
#148 = PRODUCT_DEFINITION_FORMATION_WITH_SPECIFIED_SOURCE ( 'ANY', '', #307, .NOT_KNOWN. ) ;
#149 = CARTESIAN_POINT ( 'NONE',  ( -0.1250000000000001110, 2.500000000000000000, 0.000000000000000000 ) ) ;
#150 = EDGE_LOOP ( 'NONE', ( #172, #259, #147, #207 ) ) ;
#151 = FACE_OUTER_BOUND ( 'NONE', #349, .T. ) ;
#152 = EDGE_CURVE ( 'NONE', #16, #261, #355, .T. ) ;
#153 = SURFACE_STYLE_FILL_AREA ( #325 ) ;
#154 = SURFACE_STYLE_USAGE ( .BOTH. , #95 ) ;
#155 = DIRECTION ( 'NONE',  ( 1.000000000000000000, 2.759456510021075690E-17, 0.000000000000000000 ) ) ;
#156 = SURFACE_STYLE_FILL_AREA ( #299 ) ;
#157 = ADVANCED_FACE ( 'NONE', ( #357 ), #242, .F. ) ;
#158 = AXIS2_PLACEMENT_3D ( 'NONE', #208, #244, #73 ) ;
#159 = DIRECTION ( 'NONE',  ( -1.000000000000000000, 0.000000000000000000, 0.000000000000000000 ) ) ;
#160 = AXIS2_PLACEMENT_3D ( 'NONE', #267, #48, #350 ) ;
#161 = DIRECTION ( 'NONE',  ( -2.759456510021075690E-17, 1.000000000000000000, -0.000000000000000000 ) ) ;
#162 =( GEOMETRIC_REPRESENTATION_CONTEXT ( 3 ) GLOBAL_UNCERTAINTY_ASSIGNED_CONTEXT ( ( #104 ) ) GLOBAL_UNIT_ASSIGNED_CONTEXT ( ( #226, #292, #6 ) ) REPRESENTATION_CONTEXT ( 'NONE', 'WORKASPACE' ) );
#163 = LENGTH_MEASURE_WITH_UNIT ( LENGTH_MEASURE( 0.02539999999999999897 ), #99 );
#164 = EDGE_CURVE ( 'NONE', #295, #59, #97, .T. ) ;
#165 = DIRECTION ( 'NONE',  ( 0.000000000000000000, 1.000000000000000000, 0.000000000000000000 ) ) ;
#166 = UNCERTAINTY_MEASURE_WITH_UNIT (LENGTH_MEASURE( 1.000000000000000082E-05 ), #197, 'distance_accuracy_value', 'NONE');
#167 = EDGE_LOOP ( 'NONE', ( #33, #11, #335, #359 ) ) ;
#168 = DIRECTION ( 'NONE',  ( 0.000000000000000000, -0.000000000000000000, 1.000000000000000000 ) ) ;
#169 = COLOUR_RGB ( '',1.000000000000000000, 0.000000000000000000, 0.000000000000000000 ) ;
#170 = STYLED_ITEM ( 'NONE', ( #46 ), #176 ) ;
#171 = APPLICATION_CONTEXT ( 'automotive_design' ) ;
#172 = ORIENTED_EDGE ( 'NONE', *, *, #146, .F. ) ;
#173 = CYLINDRICAL_SURFACE ( 'NONE', #320, 0.1250000000000000278 ) ;
#174 = ADVANCED_BREP_SHAPE_REPRESENTATION ( '84048', ( #176, #306, #28 ), #188 ) ;
#175 = ORIENTED_EDGE ( 'NONE', *, *, #152, .T. ) ;
#176 = MANIFOLD_SOLID_BREP ( 'Revolve - Cutting Edge', #239 ) ;
#177 = CARTESIAN_POINT ( 'NONE',  ( 5.737470254005349551E-18, 0.000000000000000000, 0.04684999999999999581 ) ) ;
#178 = EDGE_LOOP ( 'NONE', ( #130, #317 ) ) ;
#179 = CIRCLE ( 'NONE', #285, 0.1250000000000000555 ) ;
#180 = APPLICATION_PROTOCOL_DEFINITION ( 'draft international standard', 'automotive_design', 1998, #171 ) ;
#181 = PLANE ( 'NONE',  #81 ) ;
#182 = DIRECTION ( 'NONE',  ( -0.000000000000000000, -1.000000000000000000, -0.000000000000000000 ) ) ;
#183 = VECTOR ( 'NONE', #17, 39.37007874015748143 ) ;
#184 = DIRECTION ( 'NONE',  ( -1.000000000000000000, -2.759456510021075690E-17, 0.000000000000000000 ) ) ;
#185 = UNCERTAINTY_MEASURE_WITH_UNIT (LENGTH_MEASURE( 1.000000000000000082E-05 ), #122, 'distance_accuracy_value', 'NONE');
#186 = FACE_OUTER_BOUND ( 'NONE', #324, .T. ) ;
#187 = LINE ( 'NONE', #24, #334 ) ;
#188 =( GEOMETRIC_REPRESENTATION_CONTEXT ( 3 ) GLOBAL_UNCERTAINTY_ASSIGNED_CONTEXT ( ( #328 ) ) GLOBAL_UNIT_ASSIGNED_CONTEXT ( ( #86, #88, #205 ) ) REPRESENTATION_CONTEXT ( 'NONE', 'WORKASPACE' ) );
#189 = ADVANCED_FACE ( 'NONE', ( #331 ), #51, .T. ) ;
#190 =( CONVERSION_BASED_UNIT ( 'INCH', #77 ) LENGTH_UNIT ( ) NAMED_UNIT ( #199 ) );
#191 = AXIS2_PLACEMENT_3D ( 'NONE', #87, #182, #98 ) ;
#192 = DIRECTION ( 'NONE',  ( 0.000000000000000000, 0.000000000000000000, -1.000000000000000000 ) ) ;
#193 = EDGE_CURVE ( 'NONE', #61, #59, #187, .T. ) ;
#194 = PRESENTATION_STYLE_ASSIGNMENT (( #288 ) ) ;
#195 = FILL_AREA_STYLE ('',( #311 ) ) ;
#196 = PRESENTATION_LAYER_ASSIGNMENT (  '', '', ( #286 ) ) ;
#197 =( CONVERSION_BASED_UNIT ( 'INCH', #342 ) LENGTH_UNIT ( ) NAMED_UNIT ( #82 ) );
#198 = SURFACE_STYLE_FILL_AREA ( #195 ) ;
#199 = DIMENSIONAL_EXPONENTS ( 1.000000000000000000, 0.000000000000000000, 0.000000000000000000, 0.000000000000000000, 0.000000000000000000, 0.000000000000000000, 0.000000000000000000 ) ;
#200 = MECHANICAL_DESIGN_GEOMETRIC_PRESENTATION_REPRESENTATION (  '', ( #337 ), #249 ) ;
#201 = ORIENTED_EDGE ( 'NONE', *, *, #146, .T. ) ;
#202 = DIRECTION ( 'NONE',  ( 0.000000000000000000, 0.000000000000000000, -1.000000000000000000 ) ) ;
#203 =( NAMED_UNIT ( * ) SI_UNIT ( $, .STERADIAN. ) SOLID_ANGLE_UNIT ( ) );
#204 = ORIENTED_EDGE ( 'NONE', *, *, #283, .T. ) ;
#205 =( NAMED_UNIT ( * ) SI_UNIT ( $, .STERADIAN. ) SOLID_ANGLE_UNIT ( ) );
#206 = COLOUR_RGB ( '',0.7921568627450980005, 0.8196078431372548767, 0.9333333333333333481 ) ;
#207 = ORIENTED_EDGE ( 'NONE', *, *, #164, .F. ) ;
#208 = CARTESIAN_POINT ( 'NONE',  ( 7.582401355855259480E-33, 0.2810000000000000830, 0.000000000000000000 ) ) ;
#209 = ORIENTED_EDGE ( 'NONE', *, *, #347, .T. ) ;
#210 = DIRECTION ( 'NONE',  ( -2.759456510021075690E-17, 1.000000000000000000, 0.000000000000000000 ) ) ;
#211 = DIRECTION ( 'NONE',  ( 0.000000000000000000, 0.000000000000000000, 1.000000000000000000 ) ) ;
#212 = FACE_OUTER_BOUND ( 'NONE', #120, .T. ) ;
#213 = PRODUCT_CONTEXT ( 'NONE', #272, 'mechanical' ) ;
#214 = FILL_AREA_STYLE_COLOUR ( '', #9 ) ;
#215 = UNCERTAINTY_MEASURE_WITH_UNIT (LENGTH_MEASURE( 1.000000000000000082E-05 ), #39, 'distance_accuracy_value', 'NONE');
#216 = VECTOR ( 'NONE', #236, 39.37007874015747433 ) ;
#217 = EDGE_CURVE ( 'NONE', #100, #261, #273, .T. ) ;
#218 = EDGE_LOOP ( 'NONE', ( #227, #63 ) ) ;
#219 = FILL_AREA_STYLE ('',( #214 ) ) ;
#220 = EDGE_CURVE ( 'NONE', #117, #235, #108, .T. ) ;
#221 = DIRECTION ( 'NONE',  ( -2.759456510021075690E-17, 1.000000000000000000, -0.000000000000000000 ) ) ;
#222 = COLOUR_RGB ( '',1.000000000000000000, 0.000000000000000000, 0.000000000000000000 ) ;
#223 = DIRECTION ( 'NONE',  ( -2.759456510021075690E-17, 1.000000000000000000, -0.000000000000000000 ) ) ;
#224 = CLOSED_SHELL ( 'NONE', ( #137, #237, #102, #60, #96, #157 ) ) ;
#225 = CYLINDRICAL_SURFACE ( 'NONE', #255, 0.04684999999999999581 ) ;
#226 =( CONVERSION_BASED_UNIT ( 'INCH', #163 ) LENGTH_UNIT ( ) NAMED_UNIT ( #229 ) );
#227 = ORIENTED_EDGE ( 'NONE', *, *, #283, .F. ) ;
#228 = DIRECTION ( 'NONE',  ( -2.759456510021075690E-17, 1.000000000000000000, -0.000000000000000000 ) ) ;
#229 = DIMENSIONAL_EXPONENTS ( 1.000000000000000000, 0.000000000000000000, 0.000000000000000000, 0.000000000000000000, 0.000000000000000000, 0.000000000000000000, 0.000000000000000000 ) ;
#230 = EDGE_CURVE ( 'NONE', #261, #100, #179, .T. ) ;
#231 = PRESENTATION_STYLE_ASSIGNMENT (( #115 ) ) ;
#232 =( NAMED_UNIT ( * ) PLANE_ANGLE_UNIT ( ) SI_UNIT ( $, .RADIAN. ) );
#233 = PRESENTATION_LAYER_ASSIGNMENT (  '', '', ( #92 ) ) ;
#234 = ORIENTED_EDGE ( 'NONE', *, *, #326, .T. ) ;
#235 = VERTEX_POINT ( 'NONE', #252 ) ;
#236 = DIRECTION ( 'NONE',  ( 0.2588190451025213501, 0.9659258262890682012, 3.169619151431772953E-17 ) ) ;
#237 = ADVANCED_FACE ( 'NONE', ( #5 ), #314, .T. ) ;
#238 = DIRECTION ( 'NONE',  ( -1.000000000000000000, 0.000000000000000000, 0.000000000000000000 ) ) ;
#239 = CLOSED_SHELL ( 'NONE', ( #257, #250, #189, #22 ) ) ;
#240 = ORIENTED_EDGE ( 'NONE', *, *, #152, .F. ) ;
#241 = DIRECTION ( 'NONE',  ( -0.000000000000000000, -1.000000000000000000, -0.000000000000000000 ) ) ;
#242 = PLANE ( 'NONE',  #7 ) ;
#243 = LENGTH_MEASURE_WITH_UNIT ( LENGTH_MEASURE( 0.02539999999999999897 ), #356 );
#244 = DIRECTION ( 'NONE',  ( -2.759456510021075690E-17, 1.000000000000000000, -0.000000000000000000 ) ) ;
#245 =( NAMED_UNIT ( * ) PLANE_ANGLE_UNIT ( ) SI_UNIT ( $, .RADIAN. ) );
#246 = CARTESIAN_POINT ( 'NONE',  ( -8.048224527251757369E-18, 0.5726597706115070796, 0.000000000000000000 ) ) ;
#247 =( GEOMETRIC_REPRESENTATION_CONTEXT ( 3 ) GLOBAL_UNCERTAINTY_ASSIGNED_CONTEXT ( ( #166 ) ) GLOBAL_UNIT_ASSIGNED_CONTEXT ( ( #197, #58, #203 ) ) REPRESENTATION_CONTEXT ( 'NONE', 'WORKASPACE' ) );
#248 = ORIENTED_EDGE ( 'NONE', *, *, #217, .F. ) ;
#249 =( GEOMETRIC_REPRESENTATION_CONTEXT ( 3 ) GLOBAL_UNCERTAINTY_ASSIGNED_CONTEXT ( ( #132 ) ) GLOBAL_UNIT_ASSIGNED_CONTEXT ( ( #190, #305, #133 ) ) REPRESENTATION_CONTEXT ( 'NONE', 'WORKASPACE' ) );
#250 = ADVANCED_FACE ( 'NONE', ( #131 ), #279, .T. ) ;
#251 = PRODUCT_DEFINITION_SHAPE ( 'NONE', 'NONE',  #260 ) ;
#252 = CARTESIAN_POINT ( 'NONE',  ( 0.04684999999999999581, 0.2810000000000000830, 1.052277762167363039E-17 ) ) ;
#253 = ORIENTED_EDGE ( 'NONE', *, *, #111, .F. ) ;
#254 = SURFACE_STYLE_FILL_AREA ( #101 ) ;
#255 = AXIS2_PLACEMENT_3D ( 'NONE', #10, #116, #202 ) ;
#256 = CARTESIAN_POINT ( 'NONE',  ( -0.04684999999999999581, 0.2810000000000000830, 0.000000000000000000 ) ) ;
#257 = ADVANCED_FACE ( 'NONE', ( #284 ), #225, .T. ) ;
#258 = DIMENSIONAL_EXPONENTS ( 1.000000000000000000, 0.000000000000000000, 0.000000000000000000, 0.000000000000000000, 0.000000000000000000, 0.000000000000000000, 0.000000000000000000 ) ;
#259 = ORIENTED_EDGE ( 'NONE', *, *, #65, .T. ) ;
#260 = PRODUCT_DEFINITION ( 'UNKNOWN', '', #148, #141 ) ;
#261 = VERTEX_POINT ( 'NONE', #110 ) ;
#262 = MECHANICAL_DESIGN_GEOMETRIC_PRESENTATION_REPRESENTATION (  '', ( #32 ), #281 ) ;
#263 = EDGE_CURVE ( 'NONE', #16, #265, #136, .T. ) ;
#264 = CARTESIAN_POINT ( 'NONE',  ( 0.04684999999999999581, 0.2810000000000000830, 5.737470254005349551E-18 ) ) ;
#265 = VERTEX_POINT ( 'NONE', #339 ) ;
#266 = DIRECTION ( 'NONE',  ( 1.000000000000000000, 0.000000000000000000, 0.000000000000000000 ) ) ;
#267 = CARTESIAN_POINT ( 'NONE',  ( -6.123233995736766036E-17, 2.500000000000000000, 0.000000000000000000 ) ) ;
#268 = CIRCLE ( 'NONE', #191, 0.04684999999999999581 ) ;
#269 = DIRECTION ( 'NONE',  ( -2.759456510021075690E-17, 1.000000000000000000, -0.000000000000000000 ) ) ;
#270 = PRESENTATION_LAYER_ASSIGNMENT (  '', '', ( #32 ) ) ;
#271 = CARTESIAN_POINT ( 'NONE',  ( 7.582401355855259480E-33, 0.2810000000000000830, 0.000000000000000000 ) ) ;
#272 = APPLICATION_CONTEXT ( 'automotive_design' ) ;
#273 = CIRCLE ( 'NONE', #107, 0.1250000000000000555 ) ;
#274 = FILL_AREA_STYLE_COLOUR ( '', #206 ) ;
#275 = ORIENTED_EDGE ( 'NONE', *, *, #220, .F. ) ;
#276 = PRESENTATION_STYLE_ASSIGNMENT (( #25 ) ) ;
#277 =( LENGTH_UNIT ( ) NAMED_UNIT ( * ) SI_UNIT ( $, .METRE. ) );
#278 = VECTOR ( 'NONE', #123, 39.37007874015748143 ) ;
#279 = PLANE ( 'NONE',  #345 ) ;
#280 = PRESENTATION_LAYER_ASSIGNMENT (  '', '', ( #337 ) ) ;
#281 =( GEOMETRIC_REPRESENTATION_CONTEXT ( 3 ) GLOBAL_UNCERTAINTY_ASSIGNED_CONTEXT ( ( #333 ) ) GLOBAL_UNIT_ASSIGNED_CONTEXT ( ( #62, #232, #109 ) ) REPRESENTATION_CONTEXT ( 'NONE', 'WORKASPACE' ) );
#282 = SURFACE_STYLE_USAGE ( .BOTH. , #106 ) ;
#283 = EDGE_CURVE ( 'NONE', #61, #145, #66, .T. ) ;
#284 = FACE_OUTER_BOUND ( 'NONE', #351, .T. ) ;
#285 = AXIS2_PLACEMENT_3D ( 'NONE', #52, #221, #159 ) ;
#286 = STYLED_ITEM ( 'NONE', ( #231 ), #22 ) ;
#287 = FILL_AREA_STYLE_COLOUR ( '', #222 ) ;
#288 = SURFACE_STYLE_USAGE ( .BOTH. , #344 ) ;
#289 = AXIS2_PLACEMENT_3D ( 'NONE', #43, #241, #352 ) ;
#290 = ORIENTED_EDGE ( 'NONE', *, *, #78, .T. ) ;
#291 = CARTESIAN_POINT ( 'NONE',  ( 0.1250000000000000000, 0.5726597706115070796, 1.530808498934191201E-17 ) ) ;
#292 =( NAMED_UNIT ( * ) PLANE_ANGLE_UNIT ( ) SI_UNIT ( $, .RADIAN. ) );
#293 = CIRCLE ( 'NONE', #158, 0.04684999999999999581 ) ;
#294 = EDGE_CURVE ( 'NONE', #117, #265, #31, .T. ) ;
#295 = VERTEX_POINT ( 'NONE', #341 ) ;
#296 = SHAPE_DEFINITION_REPRESENTATION ( #251, #174 ) ;
#297 = CARTESIAN_POINT ( 'NONE',  ( 0.000000000000000000, 0.000000000000000000, 0.000000000000000000 ) ) ;
#298 = EDGE_LOOP ( 'NONE', ( #41, #85, #76, #322 ) ) ;
#299 = FILL_AREA_STYLE ('',( #68 ) ) ;
#300 = DIRECTION ( 'NONE',  ( -2.759456510021075690E-17, 1.000000000000000000, -0.000000000000000000 ) ) ;
#301 = CARTESIAN_POINT ( 'NONE',  ( 0.1249999999999999584, 2.500000000000000000, 1.530808498934191817E-17 ) ) ;
#302 = FACE_OUTER_BOUND ( 'NONE', #112, .T. ) ;
#303 = CARTESIAN_POINT ( 'NONE',  ( -6.123233995736766036E-17, 2.500000000000000000, 0.000000000000000000 ) ) ;
#304 = MECHANICAL_DESIGN_GEOMETRIC_PRESENTATION_REPRESENTATION (  '', ( #170 ), #23 ) ;
#305 =( NAMED_UNIT ( * ) PLANE_ANGLE_UNIT ( ) SI_UNIT ( $, .RADIAN. ) );
#306 = MANIFOLD_SOLID_BREP ( 'Revolve - Tool Body (Reduced Cut Diameter)', #224 ) ;
#307 = PRODUCT ( '84048', '84048', '', ( #213 ) ) ;
#308 = PRESENTATION_LAYER_ASSIGNMENT (  '', '', ( #330 ) ) ;
#309 = DIRECTION ( 'NONE',  ( -1.000000000000000000, 0.000000000000000000, 0.000000000000000000 ) ) ;
#310 = DIRECTION ( 'NONE',  ( -1.000000000000000000, 0.000000000000000000, 0.000000000000000000 ) ) ;
#311 = FILL_AREA_STYLE_COLOUR ( '', #140 ) ;
#312 = CARTESIAN_POINT ( 'NONE',  ( 0.000000000000000000, 0.000000000000000000, 0.000000000000000000 ) ) ;
#313 = DIRECTION ( 'NONE',  ( -1.000000000000000000, 0.000000000000000000, 0.000000000000000000 ) ) ;
#314 = CONICAL_SURFACE ( 'NONE', #42, 0.04684999999999999581, 0.2617993877991500740 ) ;
#315 = SURFACE_SIDE_STYLE ('',( #198 ) ) ;
#316 = PRESENTATION_STYLE_ASSIGNMENT (( #57 ) ) ;
#317 = ORIENTED_EDGE ( 'NONE', *, *, #230, .T. ) ;
#318 = DIMENSIONAL_EXPONENTS ( 1.000000000000000000, 0.000000000000000000, 0.000000000000000000, 0.000000000000000000, 0.000000000000000000, 0.000000000000000000, 0.000000000000000000 ) ;
#319 = ORIENTED_EDGE ( 'NONE', *, *, #326, .F. ) ;
#320 = AXIS2_PLACEMENT_3D ( 'NONE', #20, #269, #125 ) ;
#321 = DIRECTION ( 'NONE',  ( 2.759456510021075690E-17, -1.000000000000000000, 0.000000000000000000 ) ) ;
#322 = ORIENTED_EDGE ( 'NONE', *, *, #294, .F. ) ;
#323 = DIRECTION ( 'NONE',  ( -0.000000000000000000, -1.000000000000000000, -0.000000000000000000 ) ) ;
#324 = EDGE_LOOP ( 'NONE', ( #209, #21 ) ) ;
#325 = FILL_AREA_STYLE ('',( #274 ) ) ;
#326 = EDGE_CURVE ( 'NONE', #265, #100, #79, .T. ) ;
#327 = CARTESIAN_POINT ( 'NONE',  ( 0.000000000000000000, 0.2810000000000000275, -0.04684999999999999581 ) ) ;
#328 = UNCERTAINTY_MEASURE_WITH_UNIT (LENGTH_MEASURE( 1.000000000000000082E-05 ), #86, 'distance_accuracy_value', 'NONE');
#329 = CARTESIAN_POINT ( 'NONE',  ( 0.1250000000000000000, 2.500000000000000000, 0.000000000000000000 ) ) ;
#330 = STYLED_ITEM ( 'NONE', ( #316 ), #306 ) ;
#331 = FACE_OUTER_BOUND ( 'NONE', #150, .T. ) ;
#332 = EDGE_CURVE ( 'NONE', #235, #16, #124, .T. ) ;
#333 = UNCERTAINTY_MEASURE_WITH_UNIT (LENGTH_MEASURE( 1.000000000000000082E-05 ), #62, 'distance_accuracy_value', 'NONE');
#334 = VECTOR ( 'NONE', #134, 39.37007874015748143 ) ;
#335 = ORIENTED_EDGE ( 'NONE', *, *, #294, .T. ) ;
#336 =( NAMED_UNIT ( * ) PLANE_ANGLE_UNIT ( ) SI_UNIT ( $, .RADIAN. ) );
#337 = STYLED_ITEM ( 'NONE', ( #276 ), #189 ) ;
#338 =( NAMED_UNIT ( * ) SI_UNIT ( $, .STERADIAN. ) SOLID_ANGLE_UNIT ( ) );
#339 = CARTESIAN_POINT ( 'NONE',  ( -0.1249999999999999861, 0.5726597706115070796, 0.000000000000000000 ) ) ;
#340 = LENGTH_MEASURE_WITH_UNIT ( LENGTH_MEASURE( 0.02539999999999999897 ), #139 );
#341 = CARTESIAN_POINT ( 'NONE',  ( 5.737470254005349551E-18, 0.000000000000000000, 0.04684999999999999581 ) ) ;
#342 = LENGTH_MEASURE_WITH_UNIT ( LENGTH_MEASURE( 0.02539999999999999897 ), #80 );
#343 = DIRECTION ( 'NONE',  ( -0.000000000000000000, -1.000000000000000000, -0.000000000000000000 ) ) ;
#344 = SURFACE_SIDE_STYLE ('',( #36 ) ) ;
#345 = AXIS2_PLACEMENT_3D ( 'NONE', #54, #165, #168 ) ;
#346 = ORIENTED_EDGE ( 'NONE', *, *, #230, .F. ) ;
#347 = EDGE_CURVE ( 'NONE', #59, #295, #354, .T. ) ;
#348 = LENGTH_MEASURE_WITH_UNIT ( LENGTH_MEASURE( 0.02539999999999999897 ), #143 );
#349 = EDGE_LOOP ( 'NONE', ( #275, #253 ) ) ;
#350 = DIRECTION ( 'NONE',  ( -1.000000000000000000, 0.000000000000000000, 0.000000000000000000 ) ) ;
#351 = EDGE_LOOP ( 'NONE', ( #204, #201, #35, #13 ) ) ;
#352 = DIRECTION ( 'NONE',  ( 0.000000000000000000, 0.000000000000000000, -1.000000000000000000 ) ) ;
#353 = CYLINDRICAL_SURFACE ( 'NONE', #160, 0.1250000000000000278 ) ;
#354 = CIRCLE ( 'NONE', #289, 0.04684999999999999581 ) ;
#355 = LINE ( 'NONE', #301, #12 ) ;
#356 =( LENGTH_UNIT ( ) NAMED_UNIT ( * ) SI_UNIT ( $, .METRE. ) );
#357 = FACE_OUTER_BOUND ( 'NONE', #178, .T. ) ;
#358 = AXIS2_PLACEMENT_3D ( 'NONE', #312, #8, #93 ) ;
#359 = ORIENTED_EDGE ( 'NONE', *, *, #263, .F. ) ;
ENDSEC;
END-ISO-10303-21;
