ISO-10303-21;
HEADER;
FILE_DESCRIPTION (( 'STEP AP214' ),
    '1' );
FILE_NAME ('Micro_DM-312-2120.STEP',
    '2021-09-02T16:02:10',
    ( '' ),
    ( '' ),
    'SwSTEP 2.0',
    'SolidWorks 2020',
    '' );
FILE_SCHEMA (( 'AUTOMOTIVE_DESIGN' ));
ENDSEC;

DATA;
#1 = APPLICATION_CONTEXT ( 'automotive_design' ) ;
#2 = ORIENTED_EDGE ( 'NONE', *, *, #200, .T. ) ;
#3 = CONICAL_SURFACE ( 'NONE', #174, 0.007499999999999999722, 1.047197551196600296 ) ;
#4 = AXIS2_PLACEMENT_3D ( 'NONE', #152, #261, #306 ) ;
#5 = CARTESIAN_POINT ( 'NONE',  ( 0.0000000000000000000, 0.0000000000000000000, 2.484999999999999432 ) ) ;
#6 = LINE ( 'NONE', #86, #123 ) ;
#7 = CARTESIAN_POINT ( 'NONE',  ( 0.1562500000000000000, 1.913510623667739463E-17, 2.484999999999999432 ) ) ;
#8 = CIRCLE ( 'NONE', #223, 0.007499999999999999722 ) ;
#9 = FACE_OUTER_BOUND ( 'NONE', #301, .T. ) ;
#10 = PLANE ( 'NONE',  #40 ) ;
#11 = CARTESIAN_POINT ( 'NONE',  ( -0.1562500000000000000, 0.0000000000000000000, 2.500000000000000000 ) ) ;
#12 = DIRECTION ( 'NONE',  ( -0.7071067811865410224, 0.0000000000000000000, -0.7071067811865539010 ) ) ;
#13 = CIRCLE ( 'NONE', #211, 0.1562500000000000000 ) ;
#14 = EDGE_LOOP ( 'NONE', ( #271, #143, #279, #219 ) ) ;
#15 = EDGE_CURVE ( 'NONE', #318, #120, #292, .T. ) ;
#16 = EDGE_CURVE ( 'NONE', #120, #318, #42, .T. ) ;
#17 = ORIENTED_EDGE ( 'NONE', *, *, #285, .F. ) ;
#18 = CARTESIAN_POINT ( 'NONE',  ( 0.0000000000000000000, 0.0000000000000000000, 2.500000000000000000 ) ) ;
#19 = ORIENTED_EDGE ( 'NONE', *, *, #309, .T. ) ;
#20 = CIRCLE ( 'NONE', #176, 0.007499999999999999722 ) ;
#21 = EDGE_CURVE ( 'NONE', #43, #94, #72, .T. ) ;
#22 = ADVANCED_FACE ( 'NONE', ( #51 ), #25, .T. ) ;
#23 = DIRECTION ( 'NONE',  ( -0.0000000000000000000, -0.0000000000000000000, -1.000000000000000000 ) ) ;
#24 = AXIS2_PLACEMENT_3D ( 'NONE', #270, #140, #95 ) ;
#25 = PLANE ( 'NONE',  #145 ) ;
#26 = ADVANCED_FACE ( 'NONE', ( #229 ), #37, .T. ) ;
#27 = CARTESIAN_POINT ( 'NONE',  ( -0.1561999999999999500, 1.912898300268165357E-17, 0.08585198502849683555 ) ) ;
#28 = EDGE_CURVE ( 'NONE', #274, #217, #60, .T. ) ;
#29 = DIRECTION ( 'NONE',  ( -0.0000000000000000000, 0.0000000000000000000, -1.000000000000000000 ) ) ;
#30 = DIRECTION ( 'NONE',  ( -0.0000000000000000000, -0.0000000000000000000, -1.000000000000000000 ) ) ;
#31 =( GEOMETRIC_REPRESENTATION_CONTEXT ( 3 ) GLOBAL_UNCERTAINTY_ASSIGNED_CONTEXT ( ( #293 ) ) GLOBAL_UNIT_ASSIGNED_CONTEXT ( ( #218, #67, #240 ) ) REPRESENTATION_CONTEXT ( 'NONE', 'WORKASPACE' ) );
#32 = AXIS2_PLACEMENT_3D ( 'NONE', #189, #157, #212 ) ;
#33 = CARTESIAN_POINT ( 'NONE',  ( 0.0000000000000000000, 0.0000000000000000000, 0.0000000000000000000 ) ) ;
#34 = CARTESIAN_POINT ( 'NONE',  ( 0.0000000000000000000, 0.0000000000000000000, 0.0000000000000000000 ) ) ;
#35 = CARTESIAN_POINT ( 'NONE',  ( 0.0000000000000000000, 0.0000000000000000000, 0.8129999999999997229 ) ) ;
#36 = ADVANCED_FACE ( 'NONE', ( #204 ), #260, .T. ) ;
#37 = CONICAL_SURFACE ( 'NONE', #4, 0.1412499999999994871, 0.7853981633974391752 ) ;
#38 = DIRECTION ( 'NONE',  ( -1.000000000000000000, 0.0000000000000000000, 0.0000000000000000000 ) ) ;
#39 = CYLINDRICAL_SURFACE ( 'NONE', #32, 0.1562000000000000333 ) ;
#40 = AXIS2_PLACEMENT_3D ( 'NONE', #213, #186, #288 ) ;
#41 = FACE_OUTER_BOUND ( 'NONE', #147, .T. ) ;
#42 = CIRCLE ( 'NONE', #256, 0.1562000000000000888 ) ;
#43 = VERTEX_POINT ( 'NONE', #27 ) ;
#44 = APPLICATION_PROTOCOL_DEFINITION ( 'draft international standard', 'automotive_design', 1998, #48 ) ;
#45 = ORIENTED_EDGE ( 'NONE', *, *, #21, .T. ) ;
#46 = DIRECTION ( 'NONE',  ( -0.0000000000000000000, -0.0000000000000000000, -1.000000000000000000 ) ) ;
#47 = ORIENTED_EDGE ( 'NONE', *, *, #78, .F. ) ;
#48 = APPLICATION_CONTEXT ( 'automotive_design' ) ;
#49 = EDGE_CURVE ( 'NONE', #217, #96, #305, .T. ) ;
#50 = DIRECTION ( 'NONE',  ( 1.000000000000000000, 0.0000000000000000000, -0.0000000000000000000 ) ) ;
#51 = FACE_OUTER_BOUND ( 'NONE', #247, .T. ) ;
#52 = STYLED_ITEM ( 'NONE', ( #58 ), #269 ) ;
#53 = CARTESIAN_POINT ( 'NONE',  ( 0.0000000000000000000, 0.0000000000000000000, 0.8129999999999999449 ) ) ;
#54 = EDGE_CURVE ( 'NONE', #217, #274, #13, .T. ) ;
#55 = CARTESIAN_POINT ( 'NONE',  ( 0.1562000000000000888, 0.0000000000000000000, 0.8129999999999999449 ) ) ;
#56 = ORIENTED_EDGE ( 'NONE', *, *, #54, .T. ) ;
#57 = DIRECTION ( 'NONE',  ( 0.7071067811865410224, 8.659560562354852739E-17, -0.7071067811865539010 ) ) ;
#58 = PRESENTATION_STYLE_ASSIGNMENT (( #105 ) ) ;
#59 = CARTESIAN_POINT ( 'NONE',  ( -0.1562000000000000888, 0.0000000000000000000, 0.8129999999999999449 ) ) ;
#60 = CIRCLE ( 'NONE', #302, 0.1562500000000000000 ) ;
#61 = LINE ( 'NONE', #187, #106 ) ;
#62 = EDGE_CURVE ( 'NONE', #116, #170, #8, .T. ) ;
#63 = DIRECTION ( 'NONE',  ( 1.000000000000000000, 0.0000000000000000000, 0.0000000000000000000 ) ) ;
#64 = FILL_AREA_STYLE ('',( #142 ) ) ;
#65 = AXIS2_PLACEMENT_3D ( 'NONE', #18, #46, #87 ) ;
#66 = ORIENTED_EDGE ( 'NONE', *, *, #230, .F. ) ;
#67 =( NAMED_UNIT ( * ) PLANE_ANGLE_UNIT ( ) SI_UNIT ( $, .RADIAN. ) );
#68 = EDGE_LOOP ( 'NONE', ( #99, #251, #45, #66 ) ) ;
#69 = ORIENTED_EDGE ( 'NONE', *, *, #200, .F. ) ;
#70 = CIRCLE ( 'NONE', #249, 0.1562500000000000000 ) ;
#71 = ORIENTED_EDGE ( 'NONE', *, *, #309, .F. ) ;
#72 = CIRCLE ( 'NONE', #282, 0.1562000000000000055 ) ;
#73 = CARTESIAN_POINT ( 'NONE',  ( 0.0000000000000000000, 0.0000000000000000000, 2.484999999999999432 ) ) ;
#74 = ADVANCED_FACE ( 'NONE', ( #253, #304 ), #283, .T. ) ;
#75 = DIRECTION ( 'NONE',  ( -0.0000000000000000000, -0.0000000000000000000, -1.000000000000000000 ) ) ;
#76 = DIRECTION ( 'NONE',  ( -1.000000000000000000, 0.0000000000000000000, 0.0000000000000000000 ) ) ;
#77 = DIRECTION ( 'NONE',  ( 0.0000000000000000000, 0.0000000000000000000, 1.000000000000000000 ) ) ;
#78 = EDGE_CURVE ( 'NONE', #94, #43, #118, .T. ) ;
#79 = ORIENTED_EDGE ( 'NONE', *, *, #62, .T. ) ;
#80 = DIRECTION ( 'NONE',  ( -0.0000000000000000000, -0.0000000000000000000, -1.000000000000000000 ) ) ;
#81 = EDGE_CURVE ( 'NONE', #310, #323, #307, .T. ) ;
#82 = DIRECTION ( 'NONE',  ( -0.0000000000000000000, -0.0000000000000000000, -1.000000000000000000 ) ) ;
#83 = PRODUCT_CONTEXT ( 'NONE', #48, 'mechanical' ) ;
#84 = CARTESIAN_POINT ( 'NONE',  ( 0.0000000000000000000, 0.0000000000000000000, 1.707404996040164512E-17 ) ) ;
#85 = CARTESIAN_POINT ( 'NONE',  ( 0.0000000000000000000, 0.0000000000000000000, 2.500000000000000000 ) ) ;
#86 = CARTESIAN_POINT ( 'NONE',  ( 0.1412499999999994871, 1.729813603795630110E-17, 2.500000000000000000 ) ) ;
#87 = DIRECTION ( 'NONE',  ( -1.000000000000000000, 0.0000000000000000000, 0.0000000000000000000 ) ) ;
#88 = EDGE_LOOP ( 'NONE', ( #2, #167 ) ) ;
#89 = EDGE_CURVE ( 'NONE', #170, #116, #20, .T. ) ;
#90 = EDGE_LOOP ( 'NONE', ( #71, #232, #241, #47 ) ) ;
#91 = COLOUR_RGB ( '',0.7921568627450980005, 0.8196078431372548767, 0.9333333333333333481 ) ;
#92 = AXIS2_PLACEMENT_3D ( 'NONE', #182, #329, #101 ) ;
#93 = LENGTH_MEASURE_WITH_UNIT ( LENGTH_MEASURE( 0.02539999999999999897 ), #146 );
#94 = VERTEX_POINT ( 'NONE', #237 ) ;
#95 = DIRECTION ( 'NONE',  ( 1.000000000000000000, 0.0000000000000000000, 0.0000000000000000000 ) ) ;
#96 = VERTEX_POINT ( 'NONE', #129 ) ;
#97 = EDGE_LOOP ( 'NONE', ( #177, #195 ) ) ;
#98 = ORIENTED_EDGE ( 'NONE', *, *, #89, .T. ) ;
#99 = ORIENTED_EDGE ( 'NONE', *, *, #89, .F. ) ;
#100 = DIRECTION ( 'NONE',  ( -1.000000000000000000, 0.0000000000000000000, 0.0000000000000000000 ) ) ;
#101 = DIRECTION ( 'NONE',  ( -1.000000000000000000, 0.0000000000000000000, 0.0000000000000000000 ) ) ;
#102 = CARTESIAN_POINT ( 'NONE',  ( 0.0000000000000000000, 0.0000000000000000000, 2.500000000000000000 ) ) ;
#103 = PRODUCT_RELATED_PRODUCT_CATEGORY ( 'part', '', ( #259 ) ) ;
#104 = DIRECTION ( 'NONE',  ( -1.000000000000000000, 0.0000000000000000000, 0.0000000000000000000 ) ) ;
#105 = SURFACE_STYLE_USAGE ( .BOTH. , #290 ) ;
#106 = VECTOR ( 'NONE', #158, 39.37007874015748143 ) ;
#107 = MECHANICAL_DESIGN_GEOMETRIC_PRESENTATION_REPRESENTATION (  '', ( #215 ), #228 ) ;
#108 = DIRECTION ( 'NONE',  ( -1.000000000000000000, 0.0000000000000000000, 0.0000000000000000000 ) ) ;
#109 = CARTESIAN_POINT ( 'NONE',  ( 0.007499999999999999722, 0.0000000000000000000, 1.707404996040164512E-17 ) ) ;
#110 = DIRECTION ( 'NONE',  ( -0.0000000000000000000, -0.0000000000000000000, -1.000000000000000000 ) ) ;
#111 = ADVANCED_FACE ( 'NONE', ( #268 ), #39, .T. ) ;
#112 =( NAMED_UNIT ( * ) SI_UNIT ( $, .STERADIAN. ) SOLID_ANGLE_UNIT ( ) );
#113 =( NAMED_UNIT ( * ) PLANE_ANGLE_UNIT ( ) SI_UNIT ( $, .RADIAN. ) );
#114 = EDGE_CURVE ( 'NONE', #96, #155, #287, .T. ) ;
#115 = CARTESIAN_POINT ( 'NONE',  ( 0.1412499999999994871, 1.821662113731684786E-17, 2.500000000000000000 ) ) ;
#116 = VERTEX_POINT ( 'NONE', #109 ) ;
#117 = CIRCLE ( 'NONE', #24, 0.1412499999999994871 ) ;
#118 = CIRCLE ( 'NONE', #242, 0.1562000000000000055 ) ;
#119 = ORIENTED_EDGE ( 'NONE', *, *, #81, .T. ) ;
#120 = VERTEX_POINT ( 'NONE', #59 ) ;
#121 =( CONVERSION_BASED_UNIT ( 'INCH', #278 ) LENGTH_UNIT ( ) NAMED_UNIT ( #130 ) );
#122 = ORIENTED_EDGE ( 'NONE', *, *, #21, .F. ) ;
#123 = VECTOR ( 'NONE', #57, 39.37007874015748854 ) ;
#124 = DIRECTION ( 'NONE',  ( 0.0000000000000000000, 0.0000000000000000000, -1.000000000000000000 ) ) ;
#125 = DIRECTION ( 'NONE',  ( -1.000000000000000000, 0.0000000000000000000, 0.0000000000000000000 ) ) ;
#126 = EDGE_CURVE ( 'NONE', #274, #155, #131, .T. ) ;
#127 = VECTOR ( 'NONE', #225, 39.37007874015748143 ) ;
#128 = CARTESIAN_POINT ( 'NONE',  ( 0.0000000000000000000, 0.0000000000000000000, 2.500000000000000000 ) ) ;
#129 = CARTESIAN_POINT ( 'NONE',  ( 0.1562500000000000000, 1.913510623667739463E-17, 0.8129999999999997229 ) ) ;
#130 = DIMENSIONAL_EXPONENTS ( 1.000000000000000000, 0.0000000000000000000, 0.0000000000000000000, 0.0000000000000000000, 0.0000000000000000000, 0.0000000000000000000, 0.0000000000000000000 ) ;
#131 = LINE ( 'NONE', #11, #137 ) ;
#132 = CYLINDRICAL_SURFACE ( 'NONE', #313, 0.1562000000000000333 ) ;
#133 = PRODUCT_DEFINITION_FORMATION_WITH_SPECIFIED_SOURCE ( 'ANY', '', #259, .NOT_KNOWN. ) ;
#134 = CARTESIAN_POINT ( 'NONE',  ( -0.007499999999999999722, 1.002373405102108630E-17, 1.707404996040164512E-17 ) ) ;
#135 = DIRECTION ( 'NONE',  ( -1.000000000000000000, 0.0000000000000000000, 0.0000000000000000000 ) ) ;
#136 = EDGE_LOOP ( 'NONE', ( #199, #19, #122, #296 ) ) ;
#137 = VECTOR ( 'NONE', #80, 39.37007874015748143 ) ;
#138 = FACE_OUTER_BOUND ( 'NONE', #14, .T. ) ;
#139 = ADVANCED_FACE ( 'NONE', ( #214 ), #132, .T. ) ;
#140 = DIRECTION ( 'NONE',  ( 0.0000000000000000000, 0.0000000000000000000, 1.000000000000000000 ) ) ;
#141 = ORIENTED_EDGE ( 'NONE', *, *, #303, .F. ) ;
#142 = FILL_AREA_STYLE_COLOUR ( '', #91 ) ;
#143 = ORIENTED_EDGE ( 'NONE', *, *, #62, .F. ) ;
#144 = MECHANICAL_DESIGN_GEOMETRIC_PRESENTATION_REPRESENTATION (  '', ( #52 ), #233 ) ;
#145 = AXIS2_PLACEMENT_3D ( 'NONE', #205, #258, #50 ) ;
#146 =( LENGTH_UNIT ( ) NAMED_UNIT ( * ) SI_UNIT ( $, .METRE. ) );
#147 = EDGE_LOOP ( 'NONE', ( #231, #192, #69, #221 ) ) ;
#148 =( NAMED_UNIT ( * ) PLANE_ANGLE_UNIT ( ) SI_UNIT ( $, .RADIAN. ) );
#149 = DIRECTION ( 'NONE',  ( -1.000000000000000000, 0.0000000000000000000, 0.0000000000000000000 ) ) ;
#150 = EDGE_CURVE ( 'NONE', #170, #43, #164, .T. ) ;
#151 = CARTESIAN_POINT ( 'NONE',  ( 0.0000000000000000000, 0.0000000000000000000, 0.08585198502849683555 ) ) ;
#152 = CARTESIAN_POINT ( 'NONE',  ( 0.0000000000000000000, 0.0000000000000000000, 2.500000000000000000 ) ) ;
#153 = COLOUR_RGB ( '',0.7921568627450980005, 0.8196078431372548767, 0.9333333333333333481 ) ;
#154 = EDGE_CURVE ( 'NONE', #310, #217, #6, .T. ) ;
#155 = VERTEX_POINT ( 'NONE', #238 ) ;
#156 = EDGE_LOOP ( 'NONE', ( #299, #197, #300, #17 ) ) ;
#157 = DIRECTION ( 'NONE',  ( -0.0000000000000000000, -0.0000000000000000000, -1.000000000000000000 ) ) ;
#158 = DIRECTION ( 'NONE',  ( -0.0000000000000000000, -0.0000000000000000000, -1.000000000000000000 ) ) ;
#159 = PRODUCT_DEFINITION_CONTEXT ( 'detailed design', #1, 'design' ) ;
#160 = FILL_AREA_STYLE ('',( #188 ) ) ;
#161 = AXIS2_PLACEMENT_3D ( 'NONE', #34, #162, #264 ) ;
#162 = DIRECTION ( 'NONE',  ( 0.0000000000000000000, 0.0000000000000000000, 1.000000000000000000 ) ) ;
#163 = AXIS2_PLACEMENT_3D ( 'NONE', #102, #77, #208 ) ;
#164 = LINE ( 'NONE', #236, #168 ) ;
#165 = CARTESIAN_POINT ( 'NONE',  ( 0.1562000000000000888, 1.912898300268166897E-17, 0.8129999999999999449 ) ) ;
#166 = CARTESIAN_POINT ( 'NONE',  ( -0.1412499999999994871, 0.0000000000000000000, 2.500000000000000000 ) ) ;
#167 = ORIENTED_EDGE ( 'NONE', *, *, #114, .T. ) ;
#168 = VECTOR ( 'NONE', #317, 39.37007874015748143 ) ;
#169 = SURFACE_SIDE_STYLE ('',( #194 ) ) ;
#170 = VERTEX_POINT ( 'NONE', #134 ) ;
#171 = ORIENTED_EDGE ( 'NONE', *, *, #303, .T. ) ;
#172 = DIRECTION ( 'NONE',  ( 1.000000000000000000, 0.0000000000000000000, 0.0000000000000000000 ) ) ;
#173 = ORIENTED_EDGE ( 'NONE', *, *, #285, .T. ) ;
#174 = AXIS2_PLACEMENT_3D ( 'NONE', #295, #320, #172 ) ;
#175 = EDGE_CURVE ( 'NONE', #120, #43, #61, .T. ) ;
#176 = AXIS2_PLACEMENT_3D ( 'NONE', #183, #23, #108 ) ;
#177 = ORIENTED_EDGE ( 'NONE', *, *, #16, .F. ) ;
#178 = DIRECTION ( 'NONE',  ( 1.000000000000000000, 0.0000000000000000000, 0.0000000000000000000 ) ) ;
#179 = DIRECTION ( 'NONE',  ( 0.0000000000000000000, 0.0000000000000000000, -1.000000000000000000 ) ) ;
#180 = AXIS2_PLACEMENT_3D ( 'NONE', #128, #281, #76 ) ;
#181 = DIRECTION ( 'NONE',  ( -0.0000000000000000000, -0.0000000000000000000, -1.000000000000000000 ) ) ;
#182 = CARTESIAN_POINT ( 'NONE',  ( 0.0000000000000000000, 0.0000000000000000000, 0.8129999999999999449 ) ) ;
#183 = CARTESIAN_POINT ( 'NONE',  ( 0.0000000000000000000, 0.0000000000000000000, 1.707404996040164512E-17 ) ) ;
#184 = APPLICATION_PROTOCOL_DEFINITION ( 'draft international standard', 'automotive_design', 1998, #1 ) ;
#185 = PRESENTATION_LAYER_ASSIGNMENT (  '', '', ( #215 ) ) ;
#186 = DIRECTION ( 'NONE',  ( 0.0000000000000000000, 0.0000000000000000000, 1.000000000000000000 ) ) ;
#187 = CARTESIAN_POINT ( 'NONE',  ( -0.1562000000000000333, 0.0000000000000000000, 0.0000000000000000000 ) ) ;
#188 = FILL_AREA_STYLE_COLOUR ( '', #153 ) ;
#189 = CARTESIAN_POINT ( 'NONE',  ( 0.0000000000000000000, 0.0000000000000000000, 0.0000000000000000000 ) ) ;
#190 = LINE ( 'NONE', #166, #255 ) ;
#191 = ORIENTED_EDGE ( 'NONE', *, *, #126, .T. ) ;
#192 = ORIENTED_EDGE ( 'NONE', *, *, #49, .T. ) ;
#193 = AXIS2_PLACEMENT_3D ( 'NONE', #85, #286, #104 ) ;
#194 = SURFACE_STYLE_FILL_AREA ( #64 ) ;
#195 = ORIENTED_EDGE ( 'NONE', *, *, #15, .F. ) ;
#196 = CARTESIAN_POINT ( 'NONE',  ( -0.1562500000000000000, 0.0000000000000000000, 2.484999999999999432 ) ) ;
#197 = ORIENTED_EDGE ( 'NONE', *, *, #154, .T. ) ;
#198 =( NAMED_UNIT ( * ) SI_UNIT ( $, .STERADIAN. ) SOLID_ANGLE_UNIT ( ) );
#199 = ORIENTED_EDGE ( 'NONE', *, *, #16, .T. ) ;
#200 = EDGE_CURVE ( 'NONE', #155, #96, #70, .T. ) ;
#201 = ORIENTED_EDGE ( 'NONE', *, *, #54, .F. ) ;
#202 = ADVANCED_FACE ( 'NONE', ( #239 ), #324, .T. ) ;
#203 = UNCERTAINTY_MEASURE_WITH_UNIT (LENGTH_MEASURE( 1.000000000000000082E-05 ), #121, 'distance_accuracy_value', 'NONE');
#204 = FACE_OUTER_BOUND ( 'NONE', #321, .T. ) ;
#205 = CARTESIAN_POINT ( 'NONE',  ( 0.0000000000000000000, 0.0000000000000000000, 2.500000000000000000 ) ) ;
#206 = DIRECTION ( 'NONE',  ( -1.000000000000000000, 0.0000000000000000000, 0.0000000000000000000 ) ) ;
#207 = DIMENSIONAL_EXPONENTS ( 1.000000000000000000, 0.0000000000000000000, 0.0000000000000000000, 0.0000000000000000000, 0.0000000000000000000, 0.0000000000000000000, 0.0000000000000000000 ) ;
#208 = DIRECTION ( 'NONE',  ( 1.000000000000000000, 0.0000000000000000000, 0.0000000000000000000 ) ) ;
#209 = LINE ( 'NONE', #265, #291 ) ;
#210 = SURFACE_STYLE_FILL_AREA ( #160 ) ;
#211 = AXIS2_PLACEMENT_3D ( 'NONE', #5, #124, #178 ) ;
#212 = DIRECTION ( 'NONE',  ( -1.000000000000000000, 0.0000000000000000000, 0.0000000000000000000 ) ) ;
#213 = CARTESIAN_POINT ( 'NONE',  ( 0.0000000000000000000, 0.0000000000000000000, 0.0000000000000000000 ) ) ;
#214 = FACE_OUTER_BOUND ( 'NONE', #136, .T. ) ;
#215 = STYLED_ITEM ( 'NONE', ( #248 ), #226 ) ;
#216 = LINE ( 'NONE', #246, #127 ) ;
#217 = VERTEX_POINT ( 'NONE', #7 ) ;
#218 =( CONVERSION_BASED_UNIT ( 'INCH', #93 ) LENGTH_UNIT ( ) NAMED_UNIT ( #235 ) );
#219 = ORIENTED_EDGE ( 'NONE', *, *, #78, .T. ) ;
#220 = CYLINDRICAL_SURFACE ( 'NONE', #65, 0.1562500000000000000 ) ;
#221 = ORIENTED_EDGE ( 'NONE', *, *, #126, .F. ) ;
#222 = CONICAL_SURFACE ( 'NONE', #257, 0.007499999999999999722, 1.047197551196600296 ) ;
#223 = AXIS2_PLACEMENT_3D ( 'NONE', #325, #181, #149 ) ;
#224 =( LENGTH_UNIT ( ) NAMED_UNIT ( * ) SI_UNIT ( $, .METRE. ) );
#225 = DIRECTION ( 'NONE',  ( -0.0000000000000000000, -0.0000000000000000000, -1.000000000000000000 ) ) ;
#226 = ADVANCED_BREP_SHAPE_REPRESENTATION ( 'Micro_DM-312-2120', ( #269, #161 ), #31 ) ;
#227 = DIRECTION ( 'NONE',  ( -0.0000000000000000000, -0.0000000000000000000, -1.000000000000000000 ) ) ;
#228 =( GEOMETRIC_REPRESENTATION_CONTEXT ( 3 ) GLOBAL_UNCERTAINTY_ASSIGNED_CONTEXT ( ( #203 ) ) GLOBAL_UNIT_ASSIGNED_CONTEXT ( ( #121, #148, #198 ) ) REPRESENTATION_CONTEXT ( 'NONE', 'WORKASPACE' ) );
#229 = FACE_OUTER_BOUND ( 'NONE', #156, .T. ) ;
#230 = EDGE_CURVE ( 'NONE', #116, #94, #209, .T. ) ;
#231 = ORIENTED_EDGE ( 'NONE', *, *, #28, .T. ) ;
#232 = ORIENTED_EDGE ( 'NONE', *, *, #15, .T. ) ;
#233 =( GEOMETRIC_REPRESENTATION_CONTEXT ( 3 ) GLOBAL_UNCERTAINTY_ASSIGNED_CONTEXT ( ( #326 ) ) GLOBAL_UNIT_ASSIGNED_CONTEXT ( ( #266, #113, #112 ) ) REPRESENTATION_CONTEXT ( 'NONE', 'WORKASPACE' ) );
#234 = CARTESIAN_POINT ( 'NONE',  ( 0.1562500000000000000, 1.913510623667739463E-17, 2.500000000000000000 ) ) ;
#235 = DIMENSIONAL_EXPONENTS ( 1.000000000000000000, 0.0000000000000000000, 0.0000000000000000000, 0.0000000000000000000, 0.0000000000000000000, 0.0000000000000000000, 0.0000000000000000000 ) ;
#236 = CARTESIAN_POINT ( 'NONE',  ( -0.007499999999999999722, 9.184850993605147975E-19, 1.707404996040164512E-17 ) ) ;
#237 = CARTESIAN_POINT ( 'NONE',  ( 0.1561999999999999500, 0.0000000000000000000, 0.08585198502849683555 ) ) ;
#238 = CARTESIAN_POINT ( 'NONE',  ( -0.1562500000000000000, 0.0000000000000000000, 0.8129999999999997229 ) ) ;
#239 = FACE_OUTER_BOUND ( 'NONE', #319, .T. ) ;
#240 =( NAMED_UNIT ( * ) SI_UNIT ( $, .STERADIAN. ) SOLID_ANGLE_UNIT ( ) );
#241 = ORIENTED_EDGE ( 'NONE', *, *, #175, .T. ) ;
#242 = AXIS2_PLACEMENT_3D ( 'NONE', #151, #227, #206 ) ;
#243 = CARTESIAN_POINT ( 'NONE',  ( -0.1412499999999994871, 0.0000000000000000000, 2.500000000000000000 ) ) ;
#244 = PRODUCT_DEFINITION_SHAPE ( 'NONE', 'NONE',  #245 ) ;
#245 = PRODUCT_DEFINITION ( 'UNKNOWN', '', #133, #159 ) ;
#246 = CARTESIAN_POINT ( 'NONE',  ( 0.1562000000000000333, 1.912898300268165973E-17, 0.0000000000000000000 ) ) ;
#247 = EDGE_LOOP ( 'NONE', ( #171, #119 ) ) ;
#248 = PRESENTATION_STYLE_ASSIGNMENT (( #273 ) ) ;
#249 = AXIS2_PLACEMENT_3D ( 'NONE', #35, #314, #289 ) ;
#250 = CLOSED_SHELL ( 'NONE', ( #139, #328, #26, #312, #36, #22, #202, #74, #275, #111, #252 ) ) ;
#251 = ORIENTED_EDGE ( 'NONE', *, *, #150, .T. ) ;
#252 = ADVANCED_FACE ( 'NONE', ( #9 ), #10, .F. ) ;
#253 = FACE_BOUND ( 'NONE', #97, .T. ) ;
#254 = DIRECTION ( 'NONE',  ( -1.000000000000000000, 0.0000000000000000000, 0.0000000000000000000 ) ) ;
#255 = VECTOR ( 'NONE', #12, 39.37007874015748854 ) ;
#256 = AXIS2_PLACEMENT_3D ( 'NONE', #53, #30, #254 ) ;
#257 = AXIS2_PLACEMENT_3D ( 'NONE', #84, #294, #63 ) ;
#258 = DIRECTION ( 'NONE',  ( 0.0000000000000000000, 0.0000000000000000000, 1.000000000000000000 ) ) ;
#259 = PRODUCT ( 'Micro_DM-312-2120', 'Micro_DM-312-2120', '', ( #83 ) ) ;
#260 = CYLINDRICAL_SURFACE ( 'NONE', #180, 0.1562500000000000000 ) ;
#261 = DIRECTION ( 'NONE',  ( 0.0000000000000000000, 0.0000000000000000000, -1.000000000000000000 ) ) ;
#262 = CARTESIAN_POINT ( 'NONE',  ( 0.0000000000000000000, 0.0000000000000000000, 0.8129999999999997229 ) ) ;
#263 =( LENGTH_UNIT ( ) NAMED_UNIT ( * ) SI_UNIT ( $, .METRE. ) );
#264 = DIRECTION ( 'NONE',  ( 1.000000000000000000, 0.0000000000000000000, 0.0000000000000000000 ) ) ;
#265 = CARTESIAN_POINT ( 'NONE',  ( 0.007499999999999999722, 0.0000000000000000000, 1.707404996040164512E-17 ) ) ;
#266 =( CONVERSION_BASED_UNIT ( 'INCH', #315 ) LENGTH_UNIT ( ) NAMED_UNIT ( #207 ) );
#267 = AXIS2_PLACEMENT_3D ( 'NONE', #55, #29, #125 ) ;
#268 = FACE_OUTER_BOUND ( 'NONE', #90, .T. ) ;
#269 = MANIFOLD_SOLID_BREP ( 'Cut-Revolve4', #250 ) ;
#270 = CARTESIAN_POINT ( 'NONE',  ( 0.0000000000000000000, 0.0000000000000000000, 2.500000000000000000 ) ) ;
#271 = ORIENTED_EDGE ( 'NONE', *, *, #150, .F. ) ;
#272 = AXIS2_PLACEMENT_3D ( 'NONE', #262, #82, #135 ) ;
#273 = SURFACE_STYLE_USAGE ( .BOTH. , #169 ) ;
#274 = VERTEX_POINT ( 'NONE', #196 ) ;
#275 = ADVANCED_FACE ( 'NONE', ( #138 ), #222, .T. ) ;
#276 = ORIENTED_EDGE ( 'NONE', *, *, #49, .F. ) ;
#277 = PRESENTATION_LAYER_ASSIGNMENT (  '', '', ( #52 ) ) ;
#278 = LENGTH_MEASURE_WITH_UNIT ( LENGTH_MEASURE( 0.02539999999999999897 ), #224 );
#279 = ORIENTED_EDGE ( 'NONE', *, *, #230, .T. ) ;
#280 = DIRECTION ( 'NONE',  ( -0.0000000000000000000, -0.0000000000000000000, -1.000000000000000000 ) ) ;
#281 = DIRECTION ( 'NONE',  ( -0.0000000000000000000, -0.0000000000000000000, -1.000000000000000000 ) ) ;
#282 = AXIS2_PLACEMENT_3D ( 'NONE', #284, #75, #100 ) ;
#283 = PLANE ( 'NONE',  #267 ) ;
#284 = CARTESIAN_POINT ( 'NONE',  ( 0.0000000000000000000, 0.0000000000000000000, 0.08585198502849683555 ) ) ;
#285 = EDGE_CURVE ( 'NONE', #323, #274, #190, .T. ) ;
#286 = DIRECTION ( 'NONE',  ( 0.0000000000000000000, 0.0000000000000000000, -1.000000000000000000 ) ) ;
#287 = CIRCLE ( 'NONE', #272, 0.1562500000000000000 ) ;
#288 = DIRECTION ( 'NONE',  ( 1.000000000000000000, 0.0000000000000000000, -0.0000000000000000000 ) ) ;
#289 = DIRECTION ( 'NONE',  ( -1.000000000000000000, 0.0000000000000000000, 0.0000000000000000000 ) ) ;
#290 = SURFACE_SIDE_STYLE ('',( #210 ) ) ;
#291 = VECTOR ( 'NONE', #311, 39.37007874015748143 ) ;
#292 = CIRCLE ( 'NONE', #92, 0.1562000000000000888 ) ;
#293 = UNCERTAINTY_MEASURE_WITH_UNIT (LENGTH_MEASURE( 1.000000000000000082E-05 ), #218, 'distance_accuracy_value', 'NONE');
#294 = DIRECTION ( 'NONE',  ( 0.0000000000000000000, 0.0000000000000000000, 1.000000000000000000 ) ) ;
#295 = CARTESIAN_POINT ( 'NONE',  ( 0.0000000000000000000, 0.0000000000000000000, 1.707404996040164512E-17 ) ) ;
#296 = ORIENTED_EDGE ( 'NONE', *, *, #175, .F. ) ;
#297 = ORIENTED_EDGE ( 'NONE', *, *, #114, .F. ) ;
#298 = VECTOR ( 'NONE', #280, 39.37007874015748143 ) ;
#299 = ORIENTED_EDGE ( 'NONE', *, *, #81, .F. ) ;
#300 = ORIENTED_EDGE ( 'NONE', *, *, #28, .F. ) ;
#301 = EDGE_LOOP ( 'NONE', ( #79, #98 ) ) ;
#302 = AXIS2_PLACEMENT_3D ( 'NONE', #73, #179, #327 ) ;
#303 = EDGE_CURVE ( 'NONE', #323, #310, #117, .T. ) ;
#304 = FACE_OUTER_BOUND ( 'NONE', #88, .T. ) ;
#305 = LINE ( 'NONE', #234, #298 ) ;
#306 = DIRECTION ( 'NONE',  ( -1.000000000000000000, 0.0000000000000000000, 0.0000000000000000000 ) ) ;
#307 = CIRCLE ( 'NONE', #163, 0.1412499999999994871 ) ;
#308 = ORIENTED_EDGE ( 'NONE', *, *, #154, .F. ) ;
#309 = EDGE_CURVE ( 'NONE', #318, #94, #216, .T. ) ;
#310 = VERTEX_POINT ( 'NONE', #115 ) ;
#311 = DIRECTION ( 'NONE',  ( 0.8660254037844398178, 0.0000000000000000000, 0.4999999999999977240 ) ) ;
#312 = ADVANCED_FACE ( 'NONE', ( #41 ), #220, .T. ) ;
#313 = AXIS2_PLACEMENT_3D ( 'NONE', #33, #110, #38 ) ;
#314 = DIRECTION ( 'NONE',  ( -0.0000000000000000000, -0.0000000000000000000, -1.000000000000000000 ) ) ;
#315 = LENGTH_MEASURE_WITH_UNIT ( LENGTH_MEASURE( 0.02539999999999999897 ), #263 );
#316 = SHAPE_DEFINITION_REPRESENTATION ( #244, #226 ) ;
#317 = DIRECTION ( 'NONE',  ( -0.8660254037844398178, 1.060575238724908517E-16, 0.4999999999999977240 ) ) ;
#318 = VERTEX_POINT ( 'NONE', #165 ) ;
#319 = EDGE_LOOP ( 'NONE', ( #308, #141, #173, #201 ) ) ;
#320 = DIRECTION ( 'NONE',  ( 0.0000000000000000000, 0.0000000000000000000, 1.000000000000000000 ) ) ;
#321 = EDGE_LOOP ( 'NONE', ( #276, #56, #191, #297 ) ) ;
#322 = FACE_OUTER_BOUND ( 'NONE', #68, .T. ) ;
#323 = VERTEX_POINT ( 'NONE', #243 ) ;
#324 = CONICAL_SURFACE ( 'NONE', #193, 0.1412499999999994871, 0.7853981633974391752 ) ;
#325 = CARTESIAN_POINT ( 'NONE',  ( 0.0000000000000000000, 0.0000000000000000000, 1.707404996040164512E-17 ) ) ;
#326 = UNCERTAINTY_MEASURE_WITH_UNIT (LENGTH_MEASURE( 1.000000000000000082E-05 ), #266, 'distance_accuracy_value', 'NONE');
#327 = DIRECTION ( 'NONE',  ( 1.000000000000000000, 0.0000000000000000000, 0.0000000000000000000 ) ) ;
#328 = ADVANCED_FACE ( 'NONE', ( #322 ), #3, .T. ) ;
#329 = DIRECTION ( 'NONE',  ( -0.0000000000000000000, -0.0000000000000000000, -1.000000000000000000 ) ) ;
ENDSEC;
END-ISO-10303-21;
