ISO-10303-21;
HEADER;
FILE_DESCRIPTION (( 'STEP AP214' ),
    '1' );
FILE_NAME ('Micro_RSC-250-24.STEP',
    '2021-09-03T17:49:27',
    ( '' ),
    ( '' ),
    'SwSTEP 2.0',
    'SolidWorks 2020',
    '' );
FILE_SCHEMA (( 'AUTOMOTIVE_DESIGN' ));
ENDSEC;

DATA;
#1 = DIRECTION ( 'NONE',  ( -0.5000000000000012212, -6.123233995736780827E-17, -0.8660254037844377084 ) ) ;
#2 = DIRECTION ( 'NONE',  ( -1.000000000000000000, 0.0000000000000000000, 0.0000000000000000000 ) ) ;
#3 = DIRECTION ( 'NONE',  ( -0.0000000000000000000, -0.0000000000000000000, -1.000000000000000000 ) ) ;
#4 = AXIS2_PLACEMENT_3D ( 'NONE', #56, #144, #116 ) ;
#5 = ADVANCED_FACE ( 'NONE', ( #91 ), #227, .F. ) ;
#6 = CLOSED_SHELL ( 'NONE', ( #171, #150, #69, #156, #122, #5, #50, #80 ) ) ;
#7 = CARTESIAN_POINT ( 'NONE',  ( 0.0000000000000000000, 0.0000000000000000000, 0.0000000000000000000 ) ) ;
#8 = CARTESIAN_POINT ( 'NONE',  ( 0.1250000000000000000, 1.530808498934191509E-17, 0.2095781477158334405 ) ) ;
#9 = EDGE_LOOP ( 'NONE', ( #170, #111, #221, #11 ) ) ;
#10 = CIRCLE ( 'NONE', #43, 0.1250000000000000000 ) ;
#11 = ORIENTED_EDGE ( 'NONE', *, *, #240, .F. ) ;
#12 =( NAMED_UNIT ( * ) SI_UNIT ( $, .STERADIAN. ) SOLID_ANGLE_UNIT ( ) );
#13 = CARTESIAN_POINT ( 'NONE',  ( 0.003999999999999994879, 0.0000000000000000000, 4.000000000000000000 ) ) ;
#14 = DIRECTION ( 'NONE',  ( 0.5000000000000012212, 0.0000000000000000000, 0.8660254037844377084 ) ) ;
#15 = EDGE_LOOP ( 'NONE', ( #243, #94, #115, #95 ) ) ;
#16 = AXIS2_PLACEMENT_3D ( 'NONE', #188, #84, #67 ) ;
#17 = ORIENTED_EDGE ( 'NONE', *, *, #182, .F. ) ;
#18 =( NAMED_UNIT ( * ) SI_UNIT ( $, .STERADIAN. ) SOLID_ANGLE_UNIT ( ) );
#19 = AXIS2_PLACEMENT_3D ( 'NONE', #232, #140, #42 ) ;
#20 = DIRECTION ( 'NONE',  ( 0.0000000000000000000, 0.0000000000000000000, -1.000000000000000000 ) ) ;
#21 = CARTESIAN_POINT ( 'NONE',  ( 0.0000000000000000000, 0.0000000000000000000, 0.0000000000000000000 ) ) ;
#22 = LINE ( 'NONE', #185, #207 ) ;
#23 = UNCERTAINTY_MEASURE_WITH_UNIT (LENGTH_MEASURE( 1.000000000000000082E-05 ), #93, 'distance_accuracy_value', 'NONE');
#24 = COLOUR_RGB ( '',0.7921568627450980005, 0.8196078431372548767, 0.9333333333333333481 ) ;
#25 = CARTESIAN_POINT ( 'NONE',  ( 0.0000000000000000000, 0.0000000000000000000, 0.0000000000000000000 ) ) ;
#26 = MANIFOLD_SOLID_BREP ( 'Mirror1', #6 ) ;
#27 = CIRCLE ( 'NONE', #98, 0.003999999999999994879 ) ;
#28 = FACE_OUTER_BOUND ( 'NONE', #15, .T. ) ;
#29 = DIRECTION ( 'NONE',  ( -1.000000000000000000, 0.0000000000000000000, 0.0000000000000000000 ) ) ;
#30 = VECTOR ( 'NONE', #1, 39.37007874015748854 ) ;
#31 =( NAMED_UNIT ( * ) PLANE_ANGLE_UNIT ( ) SI_UNIT ( $, .RADIAN. ) );
#32 = EDGE_CURVE ( 'NONE', #194, #89, #230, .T. ) ;
#33 = DIRECTION ( 'NONE',  ( 0.0000000000000000000, 0.0000000000000000000, -1.000000000000000000 ) ) ;
#34 = ORIENTED_EDGE ( 'NONE', *, *, #92, .T. ) ;
#35 = CARTESIAN_POINT ( 'NONE',  ( -0.003999999999999994879, 7.898971854500427644E-18, 0.0000000000000000000 ) ) ;
#36 = SURFACE_SIDE_STYLE ('',( #158 ) ) ;
#37 = AXIS2_PLACEMENT_3D ( 'NONE', #217, #99, #190 ) ;
#38 = SHAPE_DEFINITION_REPRESENTATION ( #229, #132 ) ;
#39 = ORIENTED_EDGE ( 'NONE', *, *, #212, .T. ) ;
#40 = MECHANICAL_DESIGN_GEOMETRIC_PRESENTATION_REPRESENTATION (  '', ( #168 ), #157 ) ;
#41 = COLOUR_RGB ( '',0.7921568627450980005, 0.8196078431372548767, 0.9333333333333333481 ) ;
#42 = DIRECTION ( 'NONE',  ( 1.000000000000000000, 0.0000000000000000000, 0.0000000000000000000 ) ) ;
#43 = AXIS2_PLACEMENT_3D ( 'NONE', #206, #123, #61 ) ;
#44 = CARTESIAN_POINT ( 'NONE',  ( -0.1250000000000000000, 0.0000000000000000000, 3.790421852284166615 ) ) ;
#45 = FACE_OUTER_BOUND ( 'NONE', #9, .T. ) ;
#46 = DIRECTION ( 'NONE',  ( -0.5000000000000012212, 6.123233995736780827E-17, 0.8660254037844377084 ) ) ;
#47 = UNCERTAINTY_MEASURE_WITH_UNIT (LENGTH_MEASURE( 1.000000000000000082E-05 ), #136, 'distance_accuracy_value', 'NONE');
#48 = ORIENTED_EDGE ( 'NONE', *, *, #244, .T. ) ;
#49 =( LENGTH_UNIT ( ) NAMED_UNIT ( * ) SI_UNIT ( $, .METRE. ) );
#50 = ADVANCED_FACE ( 'NONE', ( #224 ), #189, .T. ) ;
#51 = DIRECTION ( 'NONE',  ( 1.000000000000000000, 0.0000000000000000000, 0.0000000000000000000 ) ) ;
#52 = ORIENTED_EDGE ( 'NONE', *, *, #240, .T. ) ;
#53 = CARTESIAN_POINT ( 'NONE',  ( 0.003999999999999994879, 0.0000000000000000000, 0.0000000000000000000 ) ) ;
#54 =( NAMED_UNIT ( * ) PLANE_ANGLE_UNIT ( ) SI_UNIT ( $, .RADIAN. ) );
#55 = APPLICATION_PROTOCOL_DEFINITION ( 'draft international standard', 'automotive_design', 1998, #204 ) ;
#56 = CARTESIAN_POINT ( 'NONE',  ( 0.0000000000000000000, 0.0000000000000000000, 4.000000000000000000 ) ) ;
#57 = SURFACE_STYLE_USAGE ( .BOTH. , #36 ) ;
#58 = EDGE_CURVE ( 'NONE', #77, #178, #87, .T. ) ;
#59 = PRESENTATION_LAYER_ASSIGNMENT (  '', '', ( #168 ) ) ;
#60 = ORIENTED_EDGE ( 'NONE', *, *, #212, .F. ) ;
#61 = DIRECTION ( 'NONE',  ( -1.000000000000000000, 0.0000000000000000000, 0.0000000000000000000 ) ) ;
#62 = CIRCLE ( 'NONE', #163, 0.1250000000000000000 ) ;
#63 = CARTESIAN_POINT ( 'NONE',  ( 0.0000000000000000000, 0.0000000000000000000, 0.0000000000000000000 ) ) ;
#64 = STYLED_ITEM ( 'NONE', ( #191 ), #132 ) ;
#65 = EDGE_CURVE ( 'NONE', #149, #89, #74, .T. ) ;
#66 = CONICAL_SURFACE ( 'NONE', #19, 0.003999999999999994879, 0.5235987755983003700 ) ;
#67 = DIRECTION ( 'NONE',  ( -1.000000000000000000, 0.0000000000000000000, 0.0000000000000000000 ) ) ;
#68 = DIRECTION ( 'NONE',  ( -1.000000000000000000, 0.0000000000000000000, 0.0000000000000000000 ) ) ;
#69 = ADVANCED_FACE ( 'NONE', ( #45 ), #219, .T. ) ;
#70 = DIRECTION ( 'NONE',  ( -1.000000000000000000, 0.0000000000000000000, 0.0000000000000000000 ) ) ;
#71 = AXIS2_PLACEMENT_3D ( 'NONE', #7, #165, #218 ) ;
#72 = EDGE_CURVE ( 'NONE', #178, #77, #10, .T. ) ;
#73 = DIRECTION ( 'NONE',  ( 0.5000000000000012212, 0.0000000000000000000, -0.8660254037844377084 ) ) ;
#74 = CIRCLE ( 'NONE', #146, 0.1250000000000000000 ) ;
#75 = ORIENTED_EDGE ( 'NONE', *, *, #114, .T. ) ;
#76 =( NAMED_UNIT ( * ) PLANE_ANGLE_UNIT ( ) SI_UNIT ( $, .RADIAN. ) );
#77 = VERTEX_POINT ( 'NONE', #8 ) ;
#78 = EDGE_LOOP ( 'NONE', ( #60, #179, #90, #198 ) ) ;
#79 = CIRCLE ( 'NONE', #108, 0.003999999999999994879 ) ;
#80 = ADVANCED_FACE ( 'NONE', ( #85 ), #100, .T. ) ;
#81 = DIRECTION ( 'NONE',  ( 0.0000000000000000000, 0.0000000000000000000, 1.000000000000000000 ) ) ;
#82 = LINE ( 'NONE', #237, #119 ) ;
#83 = CARTESIAN_POINT ( 'NONE',  ( 0.003999999999999994879, 0.0000000000000000000, 4.000000000000000000 ) ) ;
#84 = DIRECTION ( 'NONE',  ( -0.0000000000000000000, -0.0000000000000000000, -1.000000000000000000 ) ) ;
#85 = FACE_OUTER_BOUND ( 'NONE', #213, .T. ) ;
#86 = CIRCLE ( 'NONE', #161, 0.003999999999999994879 ) ;
#87 = CIRCLE ( 'NONE', #125, 0.1250000000000000000 ) ;
#88 = AXIS2_PLACEMENT_3D ( 'NONE', #151, #169, #51 ) ;
#89 = VERTEX_POINT ( 'NONE', #143 ) ;
#90 = ORIENTED_EDGE ( 'NONE', *, *, #72, .T. ) ;
#91 = FACE_OUTER_BOUND ( 'NONE', #174, .T. ) ;
#92 = EDGE_CURVE ( 'NONE', #248, #149, #101, .T. ) ;
#93 =( CONVERSION_BASED_UNIT ( 'INCH', #222 ) LENGTH_UNIT ( ) NAMED_UNIT ( #193 ) );
#94 = ORIENTED_EDGE ( 'NONE', *, *, #102, .F. ) ;
#95 = ORIENTED_EDGE ( 'NONE', *, *, #58, .T. ) ;
#96 = EDGE_LOOP ( 'NONE', ( #17, #226, #52, #138 ) ) ;
#97 = AXIS2_PLACEMENT_3D ( 'NONE', #239, #159, #70 ) ;
#98 = AXIS2_PLACEMENT_3D ( 'NONE', #175, #33, #210 ) ;
#99 = DIRECTION ( 'NONE',  ( 0.0000000000000000000, 0.0000000000000000000, 1.000000000000000000 ) ) ;
#100 = PLANE ( 'NONE',  #37 ) ;
#101 = LINE ( 'NONE', #216, #30 ) ;
#102 = EDGE_CURVE ( 'NONE', #238, #225, #86, .T. ) ;
#103 = VECTOR ( 'NONE', #195, 39.37007874015748143 ) ;
#104 = DIRECTION ( 'NONE',  ( -0.0000000000000000000, -0.0000000000000000000, -1.000000000000000000 ) ) ;
#105 = DIRECTION ( 'NONE',  ( 1.000000000000000000, 0.0000000000000000000, 0.0000000000000000000 ) ) ;
#106 = SURFACE_SIDE_STYLE ('',( #147 ) ) ;
#107 = ORIENTED_EDGE ( 'NONE', *, *, #65, .F. ) ;
#108 = AXIS2_PLACEMENT_3D ( 'NONE', #184, #20, #2 ) ;
#109 =( CONVERSION_BASED_UNIT ( 'INCH', #245 ) LENGTH_UNIT ( ) NAMED_UNIT ( #173 ) );
#110 = APPLICATION_CONTEXT ( 'automotive_design' ) ;
#111 = ORIENTED_EDGE ( 'NONE', *, *, #182, .T. ) ;
#112 = CARTESIAN_POINT ( 'NONE',  ( -0.1250000000000000000, 0.0000000000000000000, 4.000000000000000000 ) ) ;
#113 = CARTESIAN_POINT ( 'NONE',  ( 0.0000000000000000000, 0.0000000000000000000, 0.0000000000000000000 ) ) ;
#114 = EDGE_CURVE ( 'NONE', #248, #194, #79, .T. ) ;
#115 = ORIENTED_EDGE ( 'NONE', *, *, #228, .T. ) ;
#116 = DIRECTION ( 'NONE',  ( 1.000000000000000000, 0.0000000000000000000, 0.0000000000000000000 ) ) ;
#117 = FACE_OUTER_BOUND ( 'NONE', #78, .T. ) ;
#118 = PRODUCT_DEFINITION ( 'UNKNOWN', '', #214, #242 ) ;
#119 = VECTOR ( 'NONE', #46, 39.37007874015748854 ) ;
#120 = CIRCLE ( 'NONE', #233, 0.003999999999999994879 ) ;
#121 = MECHANICAL_DESIGN_GEOMETRIC_PRESENTATION_REPRESENTATION (  '', ( #64 ), #223 ) ;
#122 = ADVANCED_FACE ( 'NONE', ( #28 ), #186, .T. ) ;
#123 = DIRECTION ( 'NONE',  ( -0.0000000000000000000, -0.0000000000000000000, -1.000000000000000000 ) ) ;
#124 = DIRECTION ( 'NONE',  ( -1.000000000000000000, 0.0000000000000000000, 0.0000000000000000000 ) ) ;
#125 = AXIS2_PLACEMENT_3D ( 'NONE', #139, #145, #68 ) ;
#126 = ORIENTED_EDGE ( 'NONE', *, *, #102, .T. ) ;
#127 = ORIENTED_EDGE ( 'NONE', *, *, #114, .F. ) ;
#128 = SURFACE_STYLE_USAGE ( .BOTH. , #106 ) ;
#129 = PRODUCT_CONTEXT ( 'NONE', #204, 'mechanical' ) ;
#130 = PRESENTATION_LAYER_ASSIGNMENT (  '', '', ( #64 ) ) ;
#131 = CARTESIAN_POINT ( 'NONE',  ( 0.003999999999999994879, 0.0000000000000000000, 0.0000000000000000000 ) ) ;
#132 = ADVANCED_BREP_SHAPE_REPRESENTATION ( 'Micro_RSC-250-24', ( #26, #88 ), #164 ) ;
#133 = FILL_AREA_STYLE_COLOUR ( '', #41 ) ;
#134 = FILL_AREA_STYLE ('',( #199 ) ) ;
#135 = PRODUCT ( 'Micro_RSC-250-24', 'Micro_RSC-250-24', '', ( #129 ) ) ;
#136 =( CONVERSION_BASED_UNIT ( 'INCH', #215 ) LENGTH_UNIT ( ) NAMED_UNIT ( #176 ) );
#137 = AXIS2_PLACEMENT_3D ( 'NONE', #113, #247, #153 ) ;
#138 = ORIENTED_EDGE ( 'NONE', *, *, #58, .F. ) ;
#139 = CARTESIAN_POINT ( 'NONE',  ( 0.0000000000000000000, 0.0000000000000000000, 0.2095781477158334405 ) ) ;
#140 = DIRECTION ( 'NONE',  ( 0.0000000000000000000, 0.0000000000000000000, -1.000000000000000000 ) ) ;
#141 = EDGE_CURVE ( 'NONE', #225, #178, #82, .T. ) ;
#142 = CONICAL_SURFACE ( 'NONE', #246, 0.003999999999999994879, 0.5235987755983003700 ) ;
#143 = CARTESIAN_POINT ( 'NONE',  ( 0.1250000000000000000, 1.530808498934191509E-17, 3.790421852284166615 ) ) ;
#144 = DIRECTION ( 'NONE',  ( 0.0000000000000000000, 0.0000000000000000000, -1.000000000000000000 ) ) ;
#145 = DIRECTION ( 'NONE',  ( -0.0000000000000000000, -0.0000000000000000000, -1.000000000000000000 ) ) ;
#146 = AXIS2_PLACEMENT_3D ( 'NONE', #231, #201, #200 ) ;
#147 = SURFACE_STYLE_FILL_AREA ( #172 ) ;
#148 = LINE ( 'NONE', #112, #103 ) ;
#149 = VERTEX_POINT ( 'NONE', #44 ) ;
#150 = ADVANCED_FACE ( 'NONE', ( #117 ), #142, .T. ) ;
#151 = CARTESIAN_POINT ( 'NONE',  ( 0.0000000000000000000, 0.0000000000000000000, 0.0000000000000000000 ) ) ;
#152 = EDGE_LOOP ( 'NONE', ( #249, #75, #211, #107 ) ) ;
#153 = DIRECTION ( 'NONE',  ( 1.000000000000000000, 0.0000000000000000000, -0.0000000000000000000 ) ) ;
#154 = ORIENTED_EDGE ( 'NONE', *, *, #32, .F. ) ;
#155 = ORIENTED_EDGE ( 'NONE', *, *, #197, .F. ) ;
#156 = ADVANCED_FACE ( 'NONE', ( #181 ), #167, .T. ) ;
#157 =( GEOMETRIC_REPRESENTATION_CONTEXT ( 3 ) GLOBAL_UNCERTAINTY_ASSIGNED_CONTEXT ( ( #47 ) ) GLOBAL_UNIT_ASSIGNED_CONTEXT ( ( #136, #54, #18 ) ) REPRESENTATION_CONTEXT ( 'NONE', 'WORKASPACE' ) );
#158 = SURFACE_STYLE_FILL_AREA ( #134 ) ;
#159 = DIRECTION ( 'NONE',  ( -0.0000000000000000000, -0.0000000000000000000, -1.000000000000000000 ) ) ;
#160 = FACE_OUTER_BOUND ( 'NONE', #177, .T. ) ;
#161 = AXIS2_PLACEMENT_3D ( 'NONE', #21, #220, #124 ) ;
#162 = CARTESIAN_POINT ( 'NONE',  ( 0.0000000000000000000, 0.0000000000000000000, 3.790421852284166615 ) ) ;
#163 = AXIS2_PLACEMENT_3D ( 'NONE', #162, #236, #205 ) ;
#164 =( GEOMETRIC_REPRESENTATION_CONTEXT ( 3 ) GLOBAL_UNCERTAINTY_ASSIGNED_CONTEXT ( ( #187 ) ) GLOBAL_UNIT_ASSIGNED_CONTEXT ( ( #109, #31, #12 ) ) REPRESENTATION_CONTEXT ( 'NONE', 'WORKASPACE' ) );
#165 = DIRECTION ( 'NONE',  ( 0.0000000000000000000, 0.0000000000000000000, 1.000000000000000000 ) ) ;
#166 = ORIENTED_EDGE ( 'NONE', *, *, #244, .F. ) ;
#167 = CYLINDRICAL_SURFACE ( 'NONE', #97, 0.1250000000000000000 ) ;
#168 = STYLED_ITEM ( 'NONE', ( #196 ), #26 ) ;
#169 = DIRECTION ( 'NONE',  ( 0.0000000000000000000, 0.0000000000000000000, 1.000000000000000000 ) ) ;
#170 = ORIENTED_EDGE ( 'NONE', *, *, #65, .T. ) ;
#171 = ADVANCED_FACE ( 'NONE', ( #160 ), #66, .T. ) ;
#172 = FILL_AREA_STYLE ('',( #133 ) ) ;
#173 = DIMENSIONAL_EXPONENTS ( 1.000000000000000000, 0.0000000000000000000, 0.0000000000000000000, 0.0000000000000000000, 0.0000000000000000000, 0.0000000000000000000, 0.0000000000000000000 ) ;
#174 = EDGE_LOOP ( 'NONE', ( #126, #39 ) ) ;
#175 = CARTESIAN_POINT ( 'NONE',  ( 0.0000000000000000000, 0.0000000000000000000, 4.000000000000000000 ) ) ;
#176 = DIMENSIONAL_EXPONENTS ( 1.000000000000000000, 0.0000000000000000000, 0.0000000000000000000, 0.0000000000000000000, 0.0000000000000000000, 0.0000000000000000000, 0.0000000000000000000 ) ;
#177 = EDGE_LOOP ( 'NONE', ( #48, #34, #155, #154 ) ) ;
#178 = VERTEX_POINT ( 'NONE', #202 ) ;
#179 = ORIENTED_EDGE ( 'NONE', *, *, #141, .T. ) ;
#180 =( LENGTH_UNIT ( ) NAMED_UNIT ( * ) SI_UNIT ( $, .METRE. ) );
#181 = FACE_OUTER_BOUND ( 'NONE', #96, .T. ) ;
#182 = EDGE_CURVE ( 'NONE', #89, #77, #22, .T. ) ;
#183 = APPLICATION_PROTOCOL_DEFINITION ( 'draft international standard', 'automotive_design', 1998, #110 ) ;
#184 = CARTESIAN_POINT ( 'NONE',  ( 0.0000000000000000000, 0.0000000000000000000, 4.000000000000000000 ) ) ;
#185 = CARTESIAN_POINT ( 'NONE',  ( 0.1250000000000000000, 1.530808498934191509E-17, 4.000000000000000000 ) ) ;
#186 = CONICAL_SURFACE ( 'NONE', #71, 0.003999999999999994879, 0.5235987755983003700 ) ;
#187 = UNCERTAINTY_MEASURE_WITH_UNIT (LENGTH_MEASURE( 1.000000000000000082E-05 ), #109, 'distance_accuracy_value', 'NONE');
#188 = CARTESIAN_POINT ( 'NONE',  ( 0.0000000000000000000, 0.0000000000000000000, 4.000000000000000000 ) ) ;
#189 = CONICAL_SURFACE ( 'NONE', #4, 0.003999999999999994879, 0.5235987755983003700 ) ;
#190 = DIRECTION ( 'NONE',  ( 1.000000000000000000, 0.0000000000000000000, -0.0000000000000000000 ) ) ;
#191 = PRESENTATION_STYLE_ASSIGNMENT (( #128 ) ) ;
#192 = LINE ( 'NONE', #53, #235 ) ;
#193 = DIMENSIONAL_EXPONENTS ( 1.000000000000000000, 0.0000000000000000000, 0.0000000000000000000, 0.0000000000000000000, 0.0000000000000000000, 0.0000000000000000000, 0.0000000000000000000 ) ;
#194 = VERTEX_POINT ( 'NONE', #83 ) ;
#195 = DIRECTION ( 'NONE',  ( -0.0000000000000000000, -0.0000000000000000000, -1.000000000000000000 ) ) ;
#196 = PRESENTATION_STYLE_ASSIGNMENT (( #57 ) ) ;
#197 = EDGE_CURVE ( 'NONE', #89, #149, #62, .T. ) ;
#198 = ORIENTED_EDGE ( 'NONE', *, *, #228, .F. ) ;
#199 = FILL_AREA_STYLE_COLOUR ( '', #24 ) ;
#200 = DIRECTION ( 'NONE',  ( -1.000000000000000000, 0.0000000000000000000, 0.0000000000000000000 ) ) ;
#201 = DIRECTION ( 'NONE',  ( 0.0000000000000000000, 0.0000000000000000000, -1.000000000000000000 ) ) ;
#202 = CARTESIAN_POINT ( 'NONE',  ( -0.1250000000000000000, 0.0000000000000000000, 0.2095781477158334405 ) ) ;
#203 = VECTOR ( 'NONE', #73, 39.37007874015748854 ) ;
#204 = APPLICATION_CONTEXT ( 'automotive_design' ) ;
#205 = DIRECTION ( 'NONE',  ( -1.000000000000000000, 0.0000000000000000000, 0.0000000000000000000 ) ) ;
#206 = CARTESIAN_POINT ( 'NONE',  ( 0.0000000000000000000, 0.0000000000000000000, 0.2095781477158334405 ) ) ;
#207 = VECTOR ( 'NONE', #3, 39.37007874015748143 ) ;
#208 =( NAMED_UNIT ( * ) SI_UNIT ( $, .STERADIAN. ) SOLID_ANGLE_UNIT ( ) );
#209 = CARTESIAN_POINT ( 'NONE',  ( -0.003999999999999994879, -7.898971854500430725E-18, 4.000000000000000000 ) ) ;
#210 = DIRECTION ( 'NONE',  ( -1.000000000000000000, 0.0000000000000000000, 0.0000000000000000000 ) ) ;
#211 = ORIENTED_EDGE ( 'NONE', *, *, #32, .T. ) ;
#212 = EDGE_CURVE ( 'NONE', #225, #238, #120, .T. ) ;
#213 = EDGE_LOOP ( 'NONE', ( #166, #127 ) ) ;
#214 = PRODUCT_DEFINITION_FORMATION_WITH_SPECIFIED_SOURCE ( 'ANY', '', #135, .NOT_KNOWN. ) ;
#215 = LENGTH_MEASURE_WITH_UNIT ( LENGTH_MEASURE( 0.02539999999999999897 ), #180 );
#216 = CARTESIAN_POINT ( 'NONE',  ( -0.003999999999999994879, -4.898587196589406797E-19, 4.000000000000000000 ) ) ;
#217 = CARTESIAN_POINT ( 'NONE',  ( 0.0000000000000000000, 0.0000000000000000000, 4.000000000000000000 ) ) ;
#218 = DIRECTION ( 'NONE',  ( 1.000000000000000000, 0.0000000000000000000, 0.0000000000000000000 ) ) ;
#219 = CYLINDRICAL_SURFACE ( 'NONE', #16, 0.1250000000000000000 ) ;
#220 = DIRECTION ( 'NONE',  ( -0.0000000000000000000, -0.0000000000000000000, -1.000000000000000000 ) ) ;
#221 = ORIENTED_EDGE ( 'NONE', *, *, #72, .F. ) ;
#222 = LENGTH_MEASURE_WITH_UNIT ( LENGTH_MEASURE( 0.02539999999999999897 ), #49 );
#223 =( GEOMETRIC_REPRESENTATION_CONTEXT ( 3 ) GLOBAL_UNCERTAINTY_ASSIGNED_CONTEXT ( ( #23 ) ) GLOBAL_UNIT_ASSIGNED_CONTEXT ( ( #93, #76, #208 ) ) REPRESENTATION_CONTEXT ( 'NONE', 'WORKASPACE' ) );
#224 = FACE_OUTER_BOUND ( 'NONE', #152, .T. ) ;
#225 = VERTEX_POINT ( 'NONE', #35 ) ;
#226 = ORIENTED_EDGE ( 'NONE', *, *, #197, .T. ) ;
#227 = PLANE ( 'NONE',  #137 ) ;
#228 = EDGE_CURVE ( 'NONE', #238, #77, #192, .T. ) ;
#229 = PRODUCT_DEFINITION_SHAPE ( 'NONE', 'NONE',  #118 ) ;
#230 = LINE ( 'NONE', #13, #203 ) ;
#231 = CARTESIAN_POINT ( 'NONE',  ( 0.0000000000000000000, 0.0000000000000000000, 3.790421852284166615 ) ) ;
#232 = CARTESIAN_POINT ( 'NONE',  ( 0.0000000000000000000, 0.0000000000000000000, 4.000000000000000000 ) ) ;
#233 = AXIS2_PLACEMENT_3D ( 'NONE', #25, #104, #29 ) ;
#234 = PRODUCT_RELATED_PRODUCT_CATEGORY ( 'part', '', ( #135 ) ) ;
#235 = VECTOR ( 'NONE', #14, 39.37007874015748854 ) ;
#236 = DIRECTION ( 'NONE',  ( 0.0000000000000000000, 0.0000000000000000000, -1.000000000000000000 ) ) ;
#237 = CARTESIAN_POINT ( 'NONE',  ( -0.003999999999999994879, 4.898587196589406797E-19, 0.0000000000000000000 ) ) ;
#238 = VERTEX_POINT ( 'NONE', #131 ) ;
#239 = CARTESIAN_POINT ( 'NONE',  ( 0.0000000000000000000, 0.0000000000000000000, 4.000000000000000000 ) ) ;
#240 = EDGE_CURVE ( 'NONE', #149, #178, #148, .T. ) ;
#241 =( LENGTH_UNIT ( ) NAMED_UNIT ( * ) SI_UNIT ( $, .METRE. ) );
#242 = PRODUCT_DEFINITION_CONTEXT ( 'detailed design', #110, 'design' ) ;
#243 = ORIENTED_EDGE ( 'NONE', *, *, #141, .F. ) ;
#244 = EDGE_CURVE ( 'NONE', #194, #248, #27, .T. ) ;
#245 = LENGTH_MEASURE_WITH_UNIT ( LENGTH_MEASURE( 0.02539999999999999897 ), #241 );
#246 = AXIS2_PLACEMENT_3D ( 'NONE', #63, #81, #105 ) ;
#247 = DIRECTION ( 'NONE',  ( 0.0000000000000000000, 0.0000000000000000000, 1.000000000000000000 ) ) ;
#248 = VERTEX_POINT ( 'NONE', #209 ) ;
#249 = ORIENTED_EDGE ( 'NONE', *, *, #92, .F. ) ;
ENDSEC;
END-ISO-10303-21;
