ISO-10303-21;
HEADER;
FILE_DESCRIPTION (( 'STEP AP214' ),
    '1' );
FILE_NAME ('59651.STEP',
    '2023-07-24T15:19:35',
    ( '' ),
    ( '' ),
    'SwSTEP 2.0',
    'SolidWorks 2023',
    '' );
FILE_SCHEMA (( 'AUTOMOTIVE_DESIGN' ));
ENDSEC;

DATA;
#1 = DIRECTION ( 'NONE',  ( 0.000000000000000000, 0.000000000000000000, -1.000000000000000000 ) ) ;
#2 = DIRECTION ( 'NONE',  ( 0.000000000000000000, 0.000000000000000000, -1.000000000000000000 ) ) ;
#3 = CARTESIAN_POINT ( 'NONE',  ( 0.000000000000000000, 12.00000000000000000, 0.000000000000000000 ) ) ;
#4 = VERTEX_POINT ( 'NONE', #199 ) ;
#5 = PRODUCT_DEFINITION_FORMATION_WITH_SPECIFIED_SOURCE ( 'ANY', '', #316, .NOT_KNOWN. ) ;
#6 = EDGE_LOOP ( 'NONE', ( #225, #290 ) ) ;
#7 =( NAMED_UNIT ( * ) SI_UNIT ( $, .STERADIAN. ) SOLID_ANGLE_UNIT ( ) );
#8 = STYLED_ITEM ( 'NONE', ( #220 ), #14 ) ;
#9 = VECTOR ( 'NONE', #268, 1000.000000000000000 ) ;
#10 =( NAMED_UNIT ( * ) PLANE_ANGLE_UNIT ( ) SI_UNIT ( $, .RADIAN. ) );
#11 = FACE_OUTER_BOUND ( 'NONE', #6, .T. ) ;
#12 =( LENGTH_UNIT ( ) NAMED_UNIT ( * ) SI_UNIT ( .MILLI., .METRE. ) );
#13 = VECTOR ( 'NONE', #256, 1000.000000000000000 ) ;
#14 = ADVANCED_FACE ( 'NONE', ( #357 ), #330, .T. ) ;
#15 = COLOUR_RGB ( '',1.000000000000000000, 0.000000000000000000, 0.000000000000000000 ) ;
#16 = ORIENTED_EDGE ( 'NONE', *, *, #320, .T. ) ;
#17 = CARTESIAN_POINT ( 'NONE',  ( 3.061616997868383634E-16, 0.5000000000000000000, 2.500000000000000444 ) ) ;
#18 = UNCERTAINTY_MEASURE_WITH_UNIT (LENGTH_MEASURE( 1.000000000000000082E-05 ), #12, 'distance_accuracy_value', 'NONE');
#19 = SURFACE_STYLE_USAGE ( .BOTH. , #274 ) ;
#20 = PRESENTATION_STYLE_ASSIGNMENT (( #293 ) ) ;
#21 =( LENGTH_UNIT ( ) NAMED_UNIT ( * ) SI_UNIT ( .MILLI., .METRE. ) );
#22 = SURFACE_STYLE_FILL_AREA ( #309 ) ;
#23 = SURFACE_STYLE_USAGE ( .BOTH. , #184 ) ;
#24 = DIRECTION ( 'NONE',  ( 0.000000000000000000, 0.000000000000000000, -1.000000000000000000 ) ) ;
#25 = EDGE_CURVE ( 'NONE', #197, #79, #171, .T. ) ;
#26 = STYLED_ITEM ( 'NONE', ( #325 ), #139 ) ;
#27 = AXIS2_PLACEMENT_3D ( 'NONE', #17, #126, #101 ) ;
#28 = DIRECTION ( 'NONE',  ( -1.203932746194552959E-16, 1.000000000000000000, -0.000000000000000000 ) ) ;
#29 = SURFACE_STYLE_USAGE ( .BOTH. , #64 ) ;
#30 = CARTESIAN_POINT ( 'NONE',  ( 0.000000000000000000, 0.000000000000000000, 0.000000000000000000 ) ) ;
#31 = CARTESIAN_POINT ( 'NONE',  ( 2.999999999999996891, 63.00000000000000000, 3.673940397442052472E-16 ) ) ;
#32 = DIRECTION ( 'NONE',  ( -0.000000000000000000, -1.000000000000000000, -0.000000000000000000 ) ) ;
#33 =( LENGTH_UNIT ( ) NAMED_UNIT ( * ) SI_UNIT ( .MILLI., .METRE. ) );
#34 = PRODUCT_DEFINITION_SHAPE ( 'NONE', 'NONE',  #328 ) ;
#35 =( GEOMETRIC_REPRESENTATION_CONTEXT ( 3 ) GLOBAL_UNCERTAINTY_ASSIGNED_CONTEXT ( ( #105 ) ) GLOBAL_UNIT_ASSIGNED_CONTEXT ( ( #21, #366, #245 ) ) REPRESENTATION_CONTEXT ( 'NONE', 'WORKASPACE' ) );
#36 = EDGE_CURVE ( 'NONE', #298, #79, #161, .T. ) ;
#37 = PRESENTATION_STYLE_ASSIGNMENT (( #253 ) ) ;
#38 = EDGE_LOOP ( 'NONE', ( #236, #149 ) ) ;
#39 =( NAMED_UNIT ( * ) PLANE_ANGLE_UNIT ( ) SI_UNIT ( $, .RADIAN. ) );
#40 = CARTESIAN_POINT ( 'NONE',  ( 9.324138683375338132E-15, 11.99999999999999645, 0.000000000000000000 ) ) ;
#41 = SURFACE_STYLE_FILL_AREA ( #179 ) ;
#42 = EDGE_CURVE ( 'NONE', #54, #4, #141, .T. ) ;
#43 = COLOUR_RGB ( '',1.000000000000000000, 0.000000000000000000, 0.000000000000000000 ) ;
#44 =( NAMED_UNIT ( * ) PLANE_ANGLE_UNIT ( ) SI_UNIT ( $, .RADIAN. ) );
#45 = MECHANICAL_DESIGN_GEOMETRIC_PRESENTATION_REPRESENTATION (  '', ( #196 ), #99 ) ;
#46 = CARTESIAN_POINT ( 'NONE',  ( 3.673940397442059868E-16, 12.00000000000000000, 3.000000000000000000 ) ) ;
#47 = PLANE ( 'NONE',  #337 ) ;
#48 = ORIENTED_EDGE ( 'NONE', *, *, #287, .F. ) ;
#49 = CARTESIAN_POINT ( 'NONE',  ( 3.673940397442059868E-16, 0.000000000000000000, 3.000000000000000000 ) ) ;
#50 = STYLED_ITEM ( 'NONE', ( #37 ), #232 ) ;
#51 = ORIENTED_EDGE ( 'NONE', *, *, #352, .F. ) ;
#52 = CARTESIAN_POINT ( 'NONE',  ( 0.000000000000000000, 0.5000000000000000000, 0.000000000000000000 ) ) ;
#53 =( LENGTH_UNIT ( ) NAMED_UNIT ( * ) SI_UNIT ( .MILLI., .METRE. ) );
#54 = VERTEX_POINT ( 'NONE', #113 ) ;
#55 = ADVANCED_FACE ( 'NONE', ( #88 ), #317, .T. ) ;
#56 = EDGE_CURVE ( 'NONE', #300, #197, #246, .T. ) ;
#57 = COLOUR_RGB ( '',0.7921568627450980005, 0.8196078431372548767, 0.9333333333333333481 ) ;
#58 = AXIS2_PLACEMENT_3D ( 'NONE', #242, #85, #136 ) ;
#59 = DIRECTION ( 'NONE',  ( -1.203932746194552959E-16, 1.000000000000000000, -0.000000000000000000 ) ) ;
#60 = DIRECTION ( 'NONE',  ( -1.203932746194552959E-16, 1.000000000000000000, -0.000000000000000000 ) ) ;
#61 = DIRECTION ( 'NONE',  ( 0.000000000000000000, 0.000000000000000000, -1.000000000000000000 ) ) ;
#62 = DIRECTION ( 'NONE',  ( -1.000000000000000000, 0.000000000000000000, 0.000000000000000000 ) ) ;
#63 =( GEOMETRIC_REPRESENTATION_CONTEXT ( 3 ) GLOBAL_UNCERTAINTY_ASSIGNED_CONTEXT ( ( #269 ) ) GLOBAL_UNIT_ASSIGNED_CONTEXT ( ( #147, #10, #340 ) ) REPRESENTATION_CONTEXT ( 'NONE', 'WORKASPACE' ) );
#64 = SURFACE_SIDE_STYLE ('',( #319 ) ) ;
#65 = MANIFOLD_SOLID_BREP ( 'Revolve - Tool Body (Straight Shanked)', #169 ) ;
#66 = ADVANCED_FACE ( 'NONE', ( #229 ), #163, .T. ) ;
#67 = STYLED_ITEM ( 'NONE', ( #145 ), #260 ) ;
#68 = CARTESIAN_POINT ( 'NONE',  ( 3.000000000000000444, 63.00000000000000000, 3.673940397442054938E-16 ) ) ;
#69 = VERTEX_POINT ( 'NONE', #46 ) ;
#70 = DIRECTION ( 'NONE',  ( -1.203932746194552959E-16, 1.000000000000000000, -0.000000000000000000 ) ) ;
#71 = PRESENTATION_LAYER_ASSIGNMENT (  '', '', ( #26 ) ) ;
#72 = ORIENTED_EDGE ( 'NONE', *, *, #36, .F. ) ;
#73 = DIRECTION ( 'NONE',  ( -0.000000000000000000, -1.000000000000000000, -0.000000000000000000 ) ) ;
#74 = AXIS2_PLACEMENT_3D ( 'NONE', #345, #168, #194 ) ;
#75 = LINE ( 'NONE', #49, #9 ) ;
#76 = ORIENTED_EDGE ( 'NONE', *, *, #162, .T. ) ;
#77 = CARTESIAN_POINT ( 'NONE',  ( 9.324138683375338132E-15, 11.99999999999999645, 0.000000000000000000 ) ) ;
#78 = UNCERTAINTY_MEASURE_WITH_UNIT (LENGTH_MEASURE( 1.000000000000000082E-05 ), #334, 'distance_accuracy_value', 'NONE');
#79 = VERTEX_POINT ( 'NONE', #68 ) ;
#80 = COLOUR_RGB ( '',1.000000000000000000, 0.000000000000000000, 0.000000000000000000 ) ;
#81 = AXIS2_PLACEMENT_3D ( 'NONE', #142, #32, #1 ) ;
#82 = EDGE_LOOP ( 'NONE', ( #72, #200, #267, #48 ) ) ;
#83 = APPLICATION_PROTOCOL_DEFINITION ( 'draft international standard', 'automotive_design', 1998, #308 ) ;
#84 = UNCERTAINTY_MEASURE_WITH_UNIT (LENGTH_MEASURE( 1.000000000000000082E-05 ), #53, 'distance_accuracy_value', 'NONE');
#85 = DIRECTION ( 'NONE',  ( -0.000000000000000000, -1.000000000000000000, -0.000000000000000000 ) ) ;
#86 = ADVANCED_FACE ( 'NONE', ( #261 ), #322, .T. ) ;
#87 = DIRECTION ( 'NONE',  ( -0.000000000000000000, -1.000000000000000000, -0.000000000000000000 ) ) ;
#88 = FACE_OUTER_BOUND ( 'NONE', #82, .T. ) ;
#89 = CARTESIAN_POINT ( 'NONE',  ( 3.184081677783117402E-15, 63.00000000000000000, 0.000000000000000000 ) ) ;
#90 = DIRECTION ( 'NONE',  ( 0.000000000000000000, -0.000000000000000000, 1.000000000000000000 ) ) ;
#91 = DIRECTION ( 'NONE',  ( 0.000000000000000000, -1.000000000000000000, -0.000000000000000000 ) ) ;
#92 = STYLED_ITEM ( 'NONE', ( #239 ), #143 ) ;
#93 = AXIS2_PLACEMENT_3D ( 'NONE', #123, #226, #351 ) ;
#94 = CARTESIAN_POINT ( 'NONE',  ( -2.999999999999993783, 63.00000000000000000, 0.000000000000000000 ) ) ;
#95 = EDGE_CURVE ( 'NONE', #300, #298, #347, .T. ) ;
#96 = FILL_AREA_STYLE ('',( #218 ) ) ;
#97 = CLOSED_SHELL ( 'NONE', ( #232, #260, #14, #143, #86, #139 ) ) ;
#98 = CARTESIAN_POINT ( 'NONE',  ( 9.324138683375338132E-15, 12.00000000000000000, 0.000000000000000000 ) ) ;
#99 =( GEOMETRIC_REPRESENTATION_CONTEXT ( 3 ) GLOBAL_UNCERTAINTY_ASSIGNED_CONTEXT ( ( #78 ) ) GLOBAL_UNIT_ASSIGNED_CONTEXT ( ( #334, #152, #233 ) ) REPRESENTATION_CONTEXT ( 'NONE', 'WORKASPACE' ) );
#100 = EDGE_LOOP ( 'NONE', ( #157, #16, #336, #107 ) ) ;
#101 = DIRECTION ( 'NONE',  ( -1.224646799147353454E-16, 0.000000000000000000, -1.000000000000000000 ) ) ;
#102 = ORIENTED_EDGE ( 'NONE', *, *, #36, .T. ) ;
#103 = CARTESIAN_POINT ( 'NONE',  ( 3.184081677783117402E-15, 63.00000000000000000, 0.000000000000000000 ) ) ;
#104 = SURFACE_SIDE_STYLE ('',( #354 ) ) ;
#105 = UNCERTAINTY_MEASURE_WITH_UNIT (LENGTH_MEASURE( 1.000000000000000082E-05 ), #21, 'distance_accuracy_value', 'NONE');
#106 = DIRECTION ( 'NONE',  ( -0.000000000000000000, -1.000000000000000000, -0.000000000000000000 ) ) ;
#107 = ORIENTED_EDGE ( 'NONE', *, *, #42, .F. ) ;
#108 = FILL_AREA_STYLE_COLOUR ( '', #43 ) ;
#109 =( NAMED_UNIT ( * ) SI_UNIT ( $, .STERADIAN. ) SOLID_ANGLE_UNIT ( ) );
#110 = STYLED_ITEM ( 'NONE', ( #297 ), #86 ) ;
#111 = COLOUR_RGB ( '',1.000000000000000000, 0.000000000000000000, 0.000000000000000000 ) ;
#112 = DIRECTION ( 'NONE',  ( 0.000000000000000000, 0.000000000000000000, -1.000000000000000000 ) ) ;
#113 = CARTESIAN_POINT ( 'NONE',  ( 0.000000000000000000, 12.00000000000000000, -3.000000000000000000 ) ) ;
#114 = MECHANICAL_DESIGN_GEOMETRIC_PRESENTATION_REPRESENTATION (  '', ( #92 ), #35 ) ;
#115 =( NAMED_UNIT ( * ) SI_UNIT ( $, .STERADIAN. ) SOLID_ANGLE_UNIT ( ) );
#116 = AXIS2_PLACEMENT_3D ( 'NONE', #77, #117, #120 ) ;
#117 = DIRECTION ( 'NONE',  ( -1.203932746194552959E-16, 1.000000000000000000, -0.000000000000000000 ) ) ;
#118 = ORIENTED_EDGE ( 'NONE', *, *, #305, .F. ) ;
#119 =( LENGTH_UNIT ( ) NAMED_UNIT ( * ) SI_UNIT ( .MILLI., .METRE. ) );
#120 = DIRECTION ( 'NONE',  ( -1.000000000000000000, 0.000000000000000000, 0.000000000000000000 ) ) ;
#121 = SURFACE_STYLE_FILL_AREA ( #248 ) ;
#122 = ORIENTED_EDGE ( 'NONE', *, *, #204, .F. ) ;
#123 = CARTESIAN_POINT ( 'NONE',  ( 0.000000000000000000, 0.5000000000000000000, -2.500000000000000444 ) ) ;
#124 = PRESENTATION_LAYER_ASSIGNMENT (  '', '', ( #67 ) ) ;
#125 = DIRECTION ( 'NONE',  ( 1.203932746194552959E-16, -1.000000000000000000, 0.000000000000000000 ) ) ;
#126 = DIRECTION ( 'NONE',  ( 1.000000000000000000, 0.000000000000000000, -1.224646799147353207E-16 ) ) ;
#127 = UNCERTAINTY_MEASURE_WITH_UNIT (LENGTH_MEASURE( 1.000000000000000082E-05 ), #190, 'distance_accuracy_value', 'NONE');
#128 = STYLED_ITEM ( 'NONE', ( #254 ), #65 ) ;
#129 = AXIS2_PLACEMENT_3D ( 'NONE', #363, #106, #361 ) ;
#130 = DIRECTION ( 'NONE',  ( 0.000000000000000000, 0.000000000000000000, 1.000000000000000000 ) ) ;
#131 = APPLICATION_CONTEXT ( 'automotive_design' ) ;
#132 = CARTESIAN_POINT ( 'NONE',  ( 3.367778697655221505E-16, 0.000000000000000000, 2.500000000000000444 ) ) ;
#133 =( NAMED_UNIT ( * ) SI_UNIT ( $, .STERADIAN. ) SOLID_ANGLE_UNIT ( ) );
#134 =( GEOMETRIC_REPRESENTATION_CONTEXT ( 3 ) GLOBAL_UNCERTAINTY_ASSIGNED_CONTEXT ( ( #177 ) ) GLOBAL_UNIT_ASSIGNED_CONTEXT ( ( #33, #39, #7 ) ) REPRESENTATION_CONTEXT ( 'NONE', 'WORKASPACE' ) );
#135 = CIRCLE ( 'NONE', #74, 2.500000000000000444 ) ;
#136 = DIRECTION ( 'NONE',  ( 0.000000000000000000, 0.000000000000000000, -1.000000000000000000 ) ) ;
#137 = MECHANICAL_DESIGN_GEOMETRIC_PRESENTATION_REPRESENTATION (  '', ( #50 ), #266 ) ;
#138 = SURFACE_STYLE_USAGE ( .BOTH. , #140 ) ;
#139 = ADVANCED_FACE ( 'NONE', ( #288 ), #47, .T. ) ;
#140 = SURFACE_SIDE_STYLE ('',( #278 ) ) ;
#141 = LINE ( 'NONE', #213, #13 ) ;
#142 = CARTESIAN_POINT ( 'NONE',  ( 0.000000000000000000, 0.5000000000000000000, 0.000000000000000000 ) ) ;
#143 = ADVANCED_FACE ( 'NONE', ( #206 ), #234, .T. ) ;
#144 = VERTEX_POINT ( 'NONE', #132 ) ;
#145 = PRESENTATION_STYLE_ASSIGNMENT (( #29 ) ) ;
#146 = DIRECTION ( 'NONE',  ( -1.203932746194552959E-16, 1.000000000000000000, 0.000000000000000000 ) ) ;
#147 =( LENGTH_UNIT ( ) NAMED_UNIT ( * ) SI_UNIT ( .MILLI., .METRE. ) );
#148 = SURFACE_SIDE_STYLE ('',( #41 ) ) ;
#149 = ORIENTED_EDGE ( 'NONE', *, *, #250, .F. ) ;
#150 = MECHANICAL_DESIGN_GEOMETRIC_PRESENTATION_REPRESENTATION (  '', ( #110 ), #192 ) ;
#151 = AXIS2_PLACEMENT_3D ( 'NONE', #30, #221, #112 ) ;
#152 =( NAMED_UNIT ( * ) PLANE_ANGLE_UNIT ( ) SI_UNIT ( $, .RADIAN. ) );
#153 = FILL_AREA_STYLE_COLOUR ( '', #80 ) ;
#154 = EDGE_LOOP ( 'NONE', ( #182, #231, #265, #333 ) ) ;
#155 = MECHANICAL_DESIGN_GEOMETRIC_PRESENTATION_REPRESENTATION (  '', ( #26 ), #224 ) ;
#156 = AXIS2_PLACEMENT_3D ( 'NONE', #103, #329, #271 ) ;
#157 = ORIENTED_EDGE ( 'NONE', *, *, #186, .T. ) ;
#158 = ORIENTED_EDGE ( 'NONE', *, *, #352, .T. ) ;
#159 = UNCERTAINTY_MEASURE_WITH_UNIT (LENGTH_MEASURE( 1.000000000000000082E-05 ), #304, 'distance_accuracy_value', 'NONE');
#160 = AXIS2_PLACEMENT_3D ( 'NONE', #273, #130, #205 ) ;
#161 = LINE ( 'NONE', #31, #202 ) ;
#162 = EDGE_CURVE ( 'NONE', #285, #4, #303, .T. ) ;
#163 = CYLINDRICAL_SURFACE ( 'NONE', #243, 2.999999999999993783 ) ;
#164 = PRODUCT_RELATED_PRODUCT_CATEGORY ( 'part', '', ( #316 ) ) ;
#165 = AXIS2_PLACEMENT_3D ( 'NONE', #52, #238, #201 ) ;
#166 = DIRECTION ( 'NONE',  ( -1.000000000000000000, 0.000000000000000000, 0.000000000000000000 ) ) ;
#167 = DIRECTION ( 'NONE',  ( -0.000000000000000000, -1.000000000000000000, -0.000000000000000000 ) ) ;
#168 = DIRECTION ( 'NONE',  ( -0.000000000000000000, -1.000000000000000000, -0.000000000000000000 ) ) ;
#169 = CLOSED_SHELL ( 'NONE', ( #66, #335, #55, #314 ) ) ;
#170 = EDGE_LOOP ( 'NONE', ( #259, #355, #289, #51 ) ) ;
#171 = CIRCLE ( 'NONE', #252, 2.999999999999996891 ) ;
#172 = DIRECTION ( 'NONE',  ( 0.000000000000000000, 0.000000000000000000, -1.000000000000000000 ) ) ;
#173 = ORIENTED_EDGE ( 'NONE', *, *, #25, .F. ) ;
#174 = FILL_AREA_STYLE_COLOUR ( '', #369 ) ;
#175 = CIRCLE ( 'NONE', #27, 0.4999999999999995559 ) ;
#176 = EDGE_LOOP ( 'NONE', ( #307, #227 ) ) ;
#177 = UNCERTAINTY_MEASURE_WITH_UNIT (LENGTH_MEASURE( 1.000000000000000082E-05 ), #33, 'distance_accuracy_value', 'NONE');
#178 =( NAMED_UNIT ( * ) SI_UNIT ( $, .STERADIAN. ) SOLID_ANGLE_UNIT ( ) );
#179 = FILL_AREA_STYLE ('',( #153 ) ) ;
#180 = EDGE_CURVE ( 'NONE', #356, #144, #216, .T. ) ;
#181 = AXIS2_PLACEMENT_3D ( 'NONE', #89, #277, #166 ) ;
#182 = ORIENTED_EDGE ( 'NONE', *, *, #320, .F. ) ;
#183 = PRODUCT_CONTEXT ( 'NONE', #131, 'mechanical' ) ;
#184 = SURFACE_SIDE_STYLE ('',( #365 ) ) ;
#185 = CYLINDRICAL_SURFACE ( 'NONE', #129, 3.000000000000000000 ) ;
#186 = EDGE_CURVE ( 'NONE', #54, #69, #358, .T. ) ;
#187 = CIRCLE ( 'NONE', #156, 2.999999999999996891 ) ;
#188 =( NAMED_UNIT ( * ) PLANE_ANGLE_UNIT ( ) SI_UNIT ( $, .RADIAN. ) );
#189 = FILL_AREA_STYLE_COLOUR ( '', #15 ) ;
#190 =( LENGTH_UNIT ( ) NAMED_UNIT ( * ) SI_UNIT ( .MILLI., .METRE. ) );
#191 = EDGE_CURVE ( 'NONE', #4, #285, #272, .T. ) ;
#192 =( GEOMETRIC_REPRESENTATION_CONTEXT ( 3 ) GLOBAL_UNCERTAINTY_ASSIGNED_CONTEXT ( ( #18 ) ) GLOBAL_UNIT_ASSIGNED_CONTEXT ( ( #12, #44, #178 ) ) REPRESENTATION_CONTEXT ( 'NONE', 'WORKASPACE' ) );
#193 = CIRCLE ( 'NONE', #116, 2.999999999999991562 ) ;
#194 = DIRECTION ( 'NONE',  ( 0.000000000000000000, 0.000000000000000000, -1.000000000000000000 ) ) ;
#195 = PRESENTATION_LAYER_ASSIGNMENT (  '', '', ( #8 ) ) ;
#196 = STYLED_ITEM ( 'NONE', ( #20 ), #312 ) ;
#197 = VERTEX_POINT ( 'NONE', #94 ) ;
#198 = CARTESIAN_POINT ( 'NONE',  ( 0.000000000000000000, 0.000000000000000000, -2.500000000000000444 ) ) ;
#199 = CARTESIAN_POINT ( 'NONE',  ( 0.000000000000000000, 0.5000000000000000000, -3.000000000000000000 ) ) ;
#200 = ORIENTED_EDGE ( 'NONE', *, *, #323, .T. ) ;
#201 = DIRECTION ( 'NONE',  ( 0.000000000000000000, 0.000000000000000000, -1.000000000000000000 ) ) ;
#202 = VECTOR ( 'NONE', #60, 1000.000000000000000 ) ;
#203 = AXIS2_PLACEMENT_3D ( 'NONE', #212, #87, #24 ) ;
#204 = EDGE_CURVE ( 'NONE', #144, #356, #135, .T. ) ;
#205 = DIRECTION ( 'NONE',  ( 1.000000000000000000, 0.000000000000000000, 0.000000000000000000 ) ) ;
#206 = FACE_OUTER_BOUND ( 'NONE', #362, .T. ) ;
#207 = UNCERTAINTY_MEASURE_WITH_UNIT (LENGTH_MEASURE( 1.000000000000000082E-05 ), #119, 'distance_accuracy_value', 'NONE');
#208 = MECHANICAL_DESIGN_GEOMETRIC_PRESENTATION_REPRESENTATION (  '', ( #8 ), #63 ) ;
#209 = AXIS2_PLACEMENT_3D ( 'NONE', #3, #344, #255 ) ;
#210 =( NAMED_UNIT ( * ) SI_UNIT ( $, .STERADIAN. ) SOLID_ANGLE_UNIT ( ) );
#211 = DIRECTION ( 'NONE',  ( 0.000000000000000000, 1.000000000000000000, 0.000000000000000000 ) ) ;
#212 = CARTESIAN_POINT ( 'NONE',  ( 0.000000000000000000, 12.00000000000000000, 0.000000000000000000 ) ) ;
#213 = CARTESIAN_POINT ( 'NONE',  ( 0.000000000000000000, 0.000000000000000000, -3.000000000000000000 ) ) ;
#214 = PRESENTATION_LAYER_ASSIGNMENT (  '', '', ( #128 ) ) ;
#215 = CARTESIAN_POINT ( 'NONE',  ( 0.000000000000000000, 12.00000000000000000, 0.000000000000000000 ) ) ;
#216 = CIRCLE ( 'NONE', #151, 2.500000000000000444 ) ;
#217 =( GEOMETRIC_REPRESENTATION_CONTEXT ( 3 ) GLOBAL_UNCERTAINTY_ASSIGNED_CONTEXT ( ( #127 ) ) GLOBAL_UNIT_ASSIGNED_CONTEXT ( ( #190, #281, #115 ) ) REPRESENTATION_CONTEXT ( 'NONE', 'WORKASPACE' ) );
#218 = FILL_AREA_STYLE_COLOUR ( '', #235 ) ;
#219 =( GEOMETRIC_REPRESENTATION_CONTEXT ( 3 ) GLOBAL_UNCERTAINTY_ASSIGNED_CONTEXT ( ( #84 ) ) GLOBAL_UNIT_ASSIGNED_CONTEXT ( ( #53, #188, #133 ) ) REPRESENTATION_CONTEXT ( 'NONE', 'WORKASPACE' ) );
#220 = PRESENTATION_STYLE_ASSIGNMENT (( #23 ) ) ;
#221 = DIRECTION ( 'NONE',  ( -0.000000000000000000, -1.000000000000000000, -0.000000000000000000 ) ) ;
#222 = FILL_AREA_STYLE ('',( #367 ) ) ;
#223 = FACE_OUTER_BOUND ( 'NONE', #275, .T. ) ;
#224 =( GEOMETRIC_REPRESENTATION_CONTEXT ( 3 ) GLOBAL_UNCERTAINTY_ASSIGNED_CONTEXT ( ( #159 ) ) GLOBAL_UNIT_ASSIGNED_CONTEXT ( ( #304, #338, #210 ) ) REPRESENTATION_CONTEXT ( 'NONE', 'WORKASPACE' ) );
#225 = ORIENTED_EDGE ( 'NONE', *, *, #25, .T. ) ;
#226 = DIRECTION ( 'NONE',  ( -1.000000000000000000, 0.000000000000000000, 0.000000000000000000 ) ) ;
#227 = ORIENTED_EDGE ( 'NONE', *, *, #204, .T. ) ;
#228 = CARTESIAN_POINT ( 'NONE',  ( 0.000000000000000000, 0.000000000000000000, 0.000000000000000000 ) ) ;
#229 = FACE_OUTER_BOUND ( 'NONE', #331, .T. ) ;
#230 = DIRECTION ( 'NONE',  ( 1.000000000000000000, 1.203932746194552959E-16, 0.000000000000000000 ) ) ;
#231 = ORIENTED_EDGE ( 'NONE', *, *, #250, .T. ) ;
#232 = ADVANCED_FACE ( 'NONE', ( #282 ), #185, .T. ) ;
#233 =( NAMED_UNIT ( * ) SI_UNIT ( $, .STERADIAN. ) SOLID_ANGLE_UNIT ( ) );
#234 = TOROIDAL_SURFACE ( 'NONE', #58, 2.500000000000000444, 0.4999999999999997780 ) ;
#235 = COLOUR_RGB ( '',1.000000000000000000, 0.000000000000000000, 0.000000000000000000 ) ;
#236 = ORIENTED_EDGE ( 'NONE', *, *, #186, .F. ) ;
#237 = DIRECTION ( 'NONE',  ( -1.203932746194552959E-16, 1.000000000000000000, -0.000000000000000000 ) ) ;
#238 = DIRECTION ( 'NONE',  ( -0.000000000000000000, -1.000000000000000000, -0.000000000000000000 ) ) ;
#239 = PRESENTATION_STYLE_ASSIGNMENT (( #19 ) ) ;
#240 = APPLICATION_PROTOCOL_DEFINITION ( 'draft international standard', 'automotive_design', 1998, #131 ) ;
#241 = FILL_AREA_STYLE ('',( #189 ) ) ;
#242 = CARTESIAN_POINT ( 'NONE',  ( 0.000000000000000000, 0.5000000000000000000, 0.000000000000000000 ) ) ;
#243 = AXIS2_PLACEMENT_3D ( 'NONE', #326, #70, #291 ) ;
#244 = CIRCLE ( 'NONE', #93, 0.4999999999999995559 ) ;
#245 =( NAMED_UNIT ( * ) SI_UNIT ( $, .STERADIAN. ) SOLID_ANGLE_UNIT ( ) );
#246 = LINE ( 'NONE', #313, #264 ) ;
#247 = SHAPE_DEFINITION_REPRESENTATION ( #34, #294 ) ;
#248 = FILL_AREA_STYLE ('',( #286 ) ) ;
#249 = CARTESIAN_POINT ( 'NONE',  ( 3.673940397442059868E-16, 0.5000000000000000000, 3.000000000000000000 ) ) ;
#250 = EDGE_CURVE ( 'NONE', #69, #54, #348, .T. ) ;
#251 = FILL_AREA_STYLE ('',( #280 ) ) ;
#252 = AXIS2_PLACEMENT_3D ( 'NONE', #342, #28, #62 ) ;
#253 = SURFACE_STYLE_USAGE ( .BOTH. , #283 ) ;
#254 = PRESENTATION_STYLE_ASSIGNMENT (( #138 ) ) ;
#255 = DIRECTION ( 'NONE',  ( 0.000000000000000000, 0.000000000000000000, -1.000000000000000000 ) ) ;
#256 = DIRECTION ( 'NONE',  ( -0.000000000000000000, -1.000000000000000000, -0.000000000000000000 ) ) ;
#257 = AXIS2_PLACEMENT_3D ( 'NONE', #98, #146, #262 ) ;
#258 = ORIENTED_EDGE ( 'NONE', *, *, #95, .F. ) ;
#259 = ORIENTED_EDGE ( 'NONE', *, *, #191, .T. ) ;
#260 = ADVANCED_FACE ( 'NONE', ( #310 ), #321, .T. ) ;
#261 = FACE_OUTER_BOUND ( 'NONE', #154, .T. ) ;
#262 = DIRECTION ( 'NONE',  ( -1.000000000000000000, -1.203932746194552959E-16, 0.000000000000000000 ) ) ;
#263 = SURFACE_STYLE_USAGE ( .BOTH. , #148 ) ;
#264 = VECTOR ( 'NONE', #59, 1000.000000000000000 ) ;
#265 = ORIENTED_EDGE ( 'NONE', *, *, #42, .T. ) ;
#266 =( GEOMETRIC_REPRESENTATION_CONTEXT ( 3 ) GLOBAL_UNCERTAINTY_ASSIGNED_CONTEXT ( ( #207 ) ) GLOBAL_UNIT_ASSIGNED_CONTEXT ( ( #119, #306, #109 ) ) REPRESENTATION_CONTEXT ( 'NONE', 'WORKASPACE' ) );
#267 = ORIENTED_EDGE ( 'NONE', *, *, #56, .T. ) ;
#268 = DIRECTION ( 'NONE',  ( -0.000000000000000000, -1.000000000000000000, -0.000000000000000000 ) ) ;
#269 = UNCERTAINTY_MEASURE_WITH_UNIT (LENGTH_MEASURE( 1.000000000000000082E-05 ), #147, 'distance_accuracy_value', 'NONE');
#270 = COLOUR_RGB ( '',1.000000000000000000, 0.000000000000000000, 0.000000000000000000 ) ;
#271 = DIRECTION ( 'NONE',  ( -1.000000000000000000, 0.000000000000000000, 0.000000000000000000 ) ) ;
#272 = CIRCLE ( 'NONE', #81, 3.000000000000000000 ) ;
#273 = CARTESIAN_POINT ( 'NONE',  ( 0.000000000000000000, 0.000000000000000000, 0.000000000000000000 ) ) ;
#274 = SURFACE_SIDE_STYLE ('',( #22 ) ) ;
#275 = EDGE_LOOP ( 'NONE', ( #258, #349 ) ) ;
#276 = PRESENTATION_LAYER_ASSIGNMENT (  '', '', ( #92 ) ) ;
#277 = DIRECTION ( 'NONE',  ( -1.203932746194552959E-16, 1.000000000000000000, -0.000000000000000000 ) ) ;
#278 = SURFACE_STYLE_FILL_AREA ( #251 ) ;
#279 = MECHANICAL_DESIGN_GEOMETRIC_PRESENTATION_REPRESENTATION (  '', ( #67 ), #217 ) ;
#280 = FILL_AREA_STYLE_COLOUR ( '', #57 ) ;
#281 =( NAMED_UNIT ( * ) PLANE_ANGLE_UNIT ( ) SI_UNIT ( $, .RADIAN. ) );
#282 = FACE_OUTER_BOUND ( 'NONE', #100, .T. ) ;
#283 = SURFACE_SIDE_STYLE ('',( #315 ) ) ;
#284 = AXIS2_PLACEMENT_3D ( 'NONE', #339, #91, #2 ) ;
#285 = VERTEX_POINT ( 'NONE', #249 ) ;
#286 = FILL_AREA_STYLE_COLOUR ( '', #270 ) ;
#287 = EDGE_CURVE ( 'NONE', #79, #197, #187, .T. ) ;
#288 = FACE_OUTER_BOUND ( 'NONE', #38, .T. ) ;
#289 = ORIENTED_EDGE ( 'NONE', *, *, #180, .F. ) ;
#290 = ORIENTED_EDGE ( 'NONE', *, *, #287, .T. ) ;
#291 = DIRECTION ( 'NONE',  ( -1.000000000000000000, 0.000000000000000000, 0.000000000000000000 ) ) ;
#292 = AXIS2_PLACEMENT_3D ( 'NONE', #370, #167, #61 ) ;
#293 = SURFACE_STYLE_USAGE ( .BOTH. , #104 ) ;
#294 = ADVANCED_BREP_SHAPE_REPRESENTATION ( '59651', ( #312, #65, #160 ), #219 ) ;
#295 = ORIENTED_EDGE ( 'NONE', *, *, #95, .T. ) ;
#296 = CARTESIAN_POINT ( 'NONE',  ( 3.000000000000000000, 11.99999999999999645, 3.673940397442054938E-16 ) ) ;
#297 = PRESENTATION_STYLE_ASSIGNMENT (( #332 ) ) ;
#298 = VERTEX_POINT ( 'NONE', #296 ) ;
#299 = CARTESIAN_POINT ( 'NONE',  ( 3.000000000000000000, 63.00000000000000000, 0.000000000000000000 ) ) ;
#300 = VERTEX_POINT ( 'NONE', #350 ) ;
#301 = MECHANICAL_DESIGN_GEOMETRIC_PRESENTATION_REPRESENTATION (  '', ( #128 ), #134 ) ;
#302 = PLANE ( 'NONE',  #318 ) ;
#303 = CIRCLE ( 'NONE', #292, 3.000000000000000000 ) ;
#304 =( LENGTH_UNIT ( ) NAMED_UNIT ( * ) SI_UNIT ( .MILLI., .METRE. ) );
#305 = EDGE_CURVE ( 'NONE', #285, #144, #175, .T. ) ;
#306 =( NAMED_UNIT ( * ) PLANE_ANGLE_UNIT ( ) SI_UNIT ( $, .RADIAN. ) );
#307 = ORIENTED_EDGE ( 'NONE', *, *, #180, .T. ) ;
#308 = APPLICATION_CONTEXT ( 'automotive_design' ) ;
#309 = FILL_AREA_STYLE ('',( #108 ) ) ;
#310 = FACE_OUTER_BOUND ( 'NONE', #170, .T. ) ;
#311 = AXIS2_PLACEMENT_3D ( 'NONE', #228, #73, #172 ) ;
#312 = MANIFOLD_SOLID_BREP ( 'Revolve - Cutting Edge', #97 ) ;
#313 = CARTESIAN_POINT ( 'NONE',  ( -2.999999999999991118, 63.00000000000000000, 0.000000000000000000 ) ) ;
#314 = ADVANCED_FACE ( 'NONE', ( #11 ), #302, .F. ) ;
#315 = SURFACE_STYLE_FILL_AREA ( #96 ) ;
#316 = PRODUCT ( '59651', '59651', '', ( #183 ) ) ;
#317 = CYLINDRICAL_SURFACE ( 'NONE', #181, 2.999999999999993783 ) ;
#318 = AXIS2_PLACEMENT_3D ( 'NONE', #299, #125, #230 ) ;
#319 = SURFACE_STYLE_FILL_AREA ( #222 ) ;
#320 = EDGE_CURVE ( 'NONE', #69, #285, #75, .T. ) ;
#321 = TOROIDAL_SURFACE ( 'NONE', #165, 2.500000000000000444, 0.4999999999999997780 ) ;
#322 = CYLINDRICAL_SURFACE ( 'NONE', #311, 3.000000000000000000 ) ;
#323 = EDGE_CURVE ( 'NONE', #298, #300, #193, .T. ) ;
#324 = SURFACE_SIDE_STYLE ('',( #121 ) ) ;
#325 = PRESENTATION_STYLE_ASSIGNMENT (( #263 ) ) ;
#326 = CARTESIAN_POINT ( 'NONE',  ( 3.184081677783117402E-15, 63.00000000000000000, 0.000000000000000000 ) ) ;
#327 = ORIENTED_EDGE ( 'NONE', *, *, #56, .F. ) ;
#328 = PRODUCT_DEFINITION ( 'UNKNOWN', '', #5, #359 ) ;
#329 = DIRECTION ( 'NONE',  ( -1.203932746194552959E-16, 1.000000000000000000, -0.000000000000000000 ) ) ;
#330 = PLANE ( 'NONE',  #284 ) ;
#331 = EDGE_LOOP ( 'NONE', ( #295, #102, #173, #327 ) ) ;
#332 = SURFACE_STYLE_USAGE ( .BOTH. , #324 ) ;
#333 = ORIENTED_EDGE ( 'NONE', *, *, #162, .F. ) ;
#334 =( LENGTH_UNIT ( ) NAMED_UNIT ( * ) SI_UNIT ( .MILLI., .METRE. ) );
#335 = ADVANCED_FACE ( 'NONE', ( #223 ), #346, .F. ) ;
#336 = ORIENTED_EDGE ( 'NONE', *, *, #191, .F. ) ;
#337 = AXIS2_PLACEMENT_3D ( 'NONE', #215, #211, #90 ) ;
#338 =( NAMED_UNIT ( * ) PLANE_ANGLE_UNIT ( ) SI_UNIT ( $, .RADIAN. ) );
#339 = CARTESIAN_POINT ( 'NONE',  ( 0.000000000000000000, 0.000000000000000000, 0.000000000000000000 ) ) ;
#340 =( NAMED_UNIT ( * ) SI_UNIT ( $, .STERADIAN. ) SOLID_ANGLE_UNIT ( ) );
#341 = PRESENTATION_LAYER_ASSIGNMENT (  '', '', ( #50 ) ) ;
#342 = CARTESIAN_POINT ( 'NONE',  ( 3.184081677783117402E-15, 63.00000000000000000, 0.000000000000000000 ) ) ;
#343 = PRESENTATION_LAYER_ASSIGNMENT (  '', '', ( #110 ) ) ;
#344 = DIRECTION ( 'NONE',  ( -0.000000000000000000, -1.000000000000000000, -0.000000000000000000 ) ) ;
#345 = CARTESIAN_POINT ( 'NONE',  ( 0.000000000000000000, 0.000000000000000000, 0.000000000000000000 ) ) ;
#346 = PLANE ( 'NONE',  #257 ) ;
#347 = CIRCLE ( 'NONE', #368, 2.999999999999991562 ) ;
#348 = CIRCLE ( 'NONE', #203, 3.000000000000000000 ) ;
#349 = ORIENTED_EDGE ( 'NONE', *, *, #323, .F. ) ;
#350 = CARTESIAN_POINT ( 'NONE',  ( -2.999999999999981792, 11.99999999999999645, 0.000000000000000000 ) ) ;
#351 = DIRECTION ( 'NONE',  ( 0.000000000000000000, 0.000000000000000000, 1.000000000000000000 ) ) ;
#352 = EDGE_CURVE ( 'NONE', #4, #356, #244, .T. ) ;
#353 = DIRECTION ( 'NONE',  ( -1.000000000000000000, 0.000000000000000000, 0.000000000000000000 ) ) ;
#354 = SURFACE_STYLE_FILL_AREA ( #360 ) ;
#355 = ORIENTED_EDGE ( 'NONE', *, *, #305, .T. ) ;
#356 = VERTEX_POINT ( 'NONE', #198 ) ;
#357 = FACE_OUTER_BOUND ( 'NONE', #176, .T. ) ;
#358 = CIRCLE ( 'NONE', #209, 3.000000000000000000 ) ;
#359 = PRODUCT_DEFINITION_CONTEXT ( 'detailed design', #308, 'design' ) ;
#360 = FILL_AREA_STYLE ('',( #174 ) ) ;
#361 = DIRECTION ( 'NONE',  ( 0.000000000000000000, 0.000000000000000000, -1.000000000000000000 ) ) ;
#362 = EDGE_LOOP ( 'NONE', ( #118, #76, #158, #122 ) ) ;
#363 = CARTESIAN_POINT ( 'NONE',  ( 0.000000000000000000, 0.000000000000000000, 0.000000000000000000 ) ) ;
#364 = PRESENTATION_LAYER_ASSIGNMENT (  '', '', ( #196 ) ) ;
#365 = SURFACE_STYLE_FILL_AREA ( #241 ) ;
#366 =( NAMED_UNIT ( * ) PLANE_ANGLE_UNIT ( ) SI_UNIT ( $, .RADIAN. ) );
#367 = FILL_AREA_STYLE_COLOUR ( '', #111 ) ;
#368 = AXIS2_PLACEMENT_3D ( 'NONE', #40, #237, #353 ) ;
#369 = COLOUR_RGB ( '',0.7921568627450980005, 0.8196078431372548767, 0.9333333333333333481 ) ;
#370 = CARTESIAN_POINT ( 'NONE',  ( 0.000000000000000000, 0.5000000000000000000, 0.000000000000000000 ) ) ;
ENDSEC;
END-ISO-10303-21;
