ISO-10303-21;
HEADER;
FILE_DESCRIPTION (( 'STEP AP214' ),
    '1' );
FILE_NAME ('Micro_BMS-032-2.STEP',
    '2021-09-03T15:10:58',
    ( '' ),
    ( '' ),
    'SwSTEP 2.0',
    'SolidWorks 2020',
    '' );
FILE_SCHEMA (( 'AUTOMOTIVE_DESIGN' ));
ENDSEC;

DATA;
#1 = CARTESIAN_POINT ( 'NONE',  ( 0.0000000000000000000, 0.0000000000000000000, 1.485000000000000764 ) ) ;
#2 = CARTESIAN_POINT ( 'NONE',  ( 5.878304635907297015E-18, 0.0000000000000000000, 0.04800000000000000100 ) ) ;
#3 = VECTOR ( 'NONE', #32, 39.37007874015748143 ) ;
#4 = DIRECTION ( 'NONE',  ( 0.0000000000000000000, 1.000000000000000000, 0.0000000000000000000 ) ) ;
#5 = ORIENTED_EDGE ( 'NONE', *, *, #146, .T. ) ;
#6 = DIRECTION ( 'NONE',  ( 1.224646799147353454E-16, 0.0000000000000000000, 1.000000000000000000 ) ) ;
#7 = ORIENTED_EDGE ( 'NONE', *, *, #67, .F. ) ;
#8 = CARTESIAN_POINT ( 'NONE',  ( 0.04750000000000064587, 6.735557395310482421E-18, 1.500000000000000222 ) ) ;
#9 = PRODUCT_RELATED_PRODUCT_CATEGORY ( 'part', '', ( #133 ) ) ;
#10 = CARTESIAN_POINT ( 'NONE',  ( 0.01598400000000000862, 0.0000000000000000000, 0.04800000000000000100 ) ) ;
#11 = CIRCLE ( 'NONE', #188, 0.04750000000000064587 ) ;
#12 = VECTOR ( 'NONE', #20, 39.37007874015748143 ) ;
#13 = ORIENTED_EDGE ( 'NONE', *, *, #173, .F. ) ;
#14 = CARTESIAN_POINT ( 'NONE',  ( 0.01598400000000000515, 1.957475443757129660E-18, 0.01598400000000000168 ) ) ;
#15 = ADVANCED_FACE ( 'NONE', ( #228 ), #248, .T. ) ;
#16 = CIRCLE ( 'NONE', #39, 0.01598400000000000168 ) ;
#17 = EDGE_CURVE ( 'NONE', #123, #287, #84, .T. ) ;
#18 = DIRECTION ( 'NONE',  ( -1.000000000000000000, 0.0000000000000000000, 0.0000000000000000000 ) ) ;
#19 = AXIS2_PLACEMENT_3D ( 'NONE', #21, #119, #94 ) ;
#20 = DIRECTION ( 'NONE',  ( -0.0000000000000000000, -0.0000000000000000000, -1.000000000000000000 ) ) ;
#21 = CARTESIAN_POINT ( 'NONE',  ( 0.0000000000000000000, 0.0000000000000000000, 1.500000000000000222 ) ) ;
#22 = APPLICATION_CONTEXT ( 'automotive_design' ) ;
#23 = DIRECTION ( 'NONE',  ( -1.000000000000000000, 0.0000000000000000000, 0.0000000000000000000 ) ) ;
#24 =( CONVERSION_BASED_UNIT ( 'INCH', #69 ) LENGTH_UNIT ( ) NAMED_UNIT ( #63 ) );
#25 = UNCERTAINTY_MEASURE_WITH_UNIT (LENGTH_MEASURE( 1.000000000000000082E-05 ), #97, 'distance_accuracy_value', 'NONE');
#26 = VECTOR ( 'NONE', #255, 39.37007874015748143 ) ;
#27 = ORIENTED_EDGE ( 'NONE', *, *, #202, .T. ) ;
#28 = CARTESIAN_POINT ( 'NONE',  ( 0.0000000000000000000, 0.0000000000000000000, 1.500000000000000222 ) ) ;
#29 = CARTESIAN_POINT ( 'NONE',  ( 0.04750000000000064587, 5.817072295950006528E-18, 1.500000000000000222 ) ) ;
#30 = ORIENTED_EDGE ( 'NONE', *, *, #61, .F. ) ;
#31 = CARTESIAN_POINT ( 'NONE',  ( 0.0000000000000000000, 0.0000000000000000000, 1.485000000000000764 ) ) ;
#32 = DIRECTION ( 'NONE',  ( -1.224646799147353454E-16, -0.0000000000000000000, -1.000000000000000000 ) ) ;
#33 = LINE ( 'NONE', #76, #253 ) ;
#34 = CIRCLE ( 'NONE', #194, 0.06250000000000000000 ) ;
#35 = COLOUR_RGB ( '',0.7921568627450980005, 0.8196078431372548767, 0.9333333333333333481 ) ;
#36 = ORIENTED_EDGE ( 'NONE', *, *, #321, .F. ) ;
#37 = DIRECTION ( 'NONE',  ( -1.000000000000000000, 0.0000000000000000000, 0.0000000000000000000 ) ) ;
#38 = SURFACE_SIDE_STYLE ('',( #314 ) ) ;
#39 = AXIS2_PLACEMENT_3D ( 'NONE', #288, #293, #37 ) ;
#40 = EDGE_CURVE ( 'NONE', #48, #309, #161, .T. ) ;
#41 = CARTESIAN_POINT ( 'NONE',  ( 5.878304635907297015E-18, 0.0000000000000000000, 0.04800000000000000100 ) ) ;
#42 = CARTESIAN_POINT ( 'NONE',  ( 3.818514178598799583E-17, 0.0000000000000000000, 0.3118053451213360083 ) ) ;
#43 = AXIS2_PLACEMENT_3D ( 'NONE', #2, #99, #181 ) ;
#44 =( GEOMETRIC_REPRESENTATION_CONTEXT ( 3 ) GLOBAL_UNCERTAINTY_ASSIGNED_CONTEXT ( ( #319 ) ) GLOBAL_UNIT_ASSIGNED_CONTEXT ( ( #24, #152, #79 ) ) REPRESENTATION_CONTEXT ( 'NONE', 'WORKASPACE' ) );
#45 = ORIENTED_EDGE ( 'NONE', *, *, #267, .F. ) ;
#46 = ADVANCED_FACE ( 'NONE', ( #222 ), #100, .T. ) ;
#47 =( NAMED_UNIT ( * ) SI_UNIT ( $, .STERADIAN. ) SOLID_ANGLE_UNIT ( ) );
#48 = VERTEX_POINT ( 'NONE', #325 ) ;
#49 = ORIENTED_EDGE ( 'NONE', *, *, #125, .T. ) ;
#50 = AXIS2_PLACEMENT_3D ( 'NONE', #54, #237, #209 ) ;
#51 = DIRECTION ( 'NONE',  ( 0.0000000000000000000, -1.000000000000000000, 0.0000000000000000000 ) ) ;
#52 = EDGE_CURVE ( 'NONE', #312, #270, #150, .T. ) ;
#53 = DIRECTION ( 'NONE',  ( -0.0000000000000000000, -0.0000000000000000000, -1.000000000000000000 ) ) ;
#54 = CARTESIAN_POINT ( 'NONE',  ( 1.957475443757130046E-18, 0.0000000000000000000, 0.01598400000000000168 ) ) ;
#55 = EDGE_CURVE ( 'NONE', #129, #160, #11, .T. ) ;
#56 = LINE ( 'NONE', #127, #3 ) ;
#57 = PRESENTATION_LAYER_ASSIGNMENT (  '', '', ( #134 ) ) ;
#58 = ORIENTED_EDGE ( 'NONE', *, *, #173, .T. ) ;
#59 = CARTESIAN_POINT ( 'NONE',  ( -0.06250000000000000000, 0.0000000000000000000, 1.500000000000000222 ) ) ;
#60 = ORIENTED_EDGE ( 'NONE', *, *, #210, .T. ) ;
#61 = EDGE_CURVE ( 'NONE', #82, #158, #208, .T. ) ;
#62 = APPLICATION_PROTOCOL_DEFINITION ( 'draft international standard', 'automotive_design', 1998, #22 ) ;
#63 = DIMENSIONAL_EXPONENTS ( 1.000000000000000000, 0.0000000000000000000, 0.0000000000000000000, 0.0000000000000000000, 0.0000000000000000000, 0.0000000000000000000, 0.0000000000000000000 ) ;
#64 = ADVANCED_FACE ( 'NONE', ( #144 ), #250, .T. ) ;
#65 = ORIENTED_EDGE ( 'NONE', *, *, #210, .F. ) ;
#66 = CARTESIAN_POINT ( 'NONE',  ( 0.06250000000000000000, 7.654042494670956004E-18, 1.500000000000000222 ) ) ;
#67 = EDGE_CURVE ( 'NONE', #287, #123, #263, .T. ) ;
#68 = AXIS2_PLACEMENT_3D ( 'NONE', #75, #154, #211 ) ;
#69 = LENGTH_MEASURE_WITH_UNIT ( LENGTH_MEASURE( 0.02539999999999999897 ), #322 );
#70 = DIRECTION ( 'NONE',  ( 1.224646799147353454E-16, 0.0000000000000000000, 1.000000000000000000 ) ) ;
#71 = CARTESIAN_POINT ( 'NONE',  ( 0.0000000000000000000, 0.0000000000000000000, 1.500000000000000222 ) ) ;
#72 = FACE_OUTER_BOUND ( 'NONE', #297, .T. ) ;
#73 = PRODUCT_DEFINITION ( 'UNKNOWN', '', #219, #135 ) ;
#74 = CONICAL_SURFACE ( 'NONE', #43, 0.01598400000000000168, 0.1745329251994338360 ) ;
#75 = CARTESIAN_POINT ( 'NONE',  ( 0.0000000000000000000, 0.0000000000000000000, 1.500000000000000222 ) ) ;
#76 = CARTESIAN_POINT ( 'NONE',  ( -0.01598399999999999474, 1.957475443757129660E-18, 0.04800000000000000100 ) ) ;
#77 = LINE ( 'NONE', #29, #301 ) ;
#78 = ORIENTED_EDGE ( 'NONE', *, *, #292, .F. ) ;
#79 =( NAMED_UNIT ( * ) SI_UNIT ( $, .STERADIAN. ) SOLID_ANGLE_UNIT ( ) );
#80 = AXIS2_PLACEMENT_3D ( 'NONE', #201, #70, #286 ) ;
#81 = DIRECTION ( 'NONE',  ( 1.000000000000000000, 0.0000000000000000000, 0.0000000000000000000 ) ) ;
#82 = VERTEX_POINT ( 'NONE', #281 ) ;
#83 = DIRECTION ( 'NONE',  ( 1.224646799147353207E-16, 1.000000000000000000, -0.0000000000000000000 ) ) ;
#84 = CIRCLE ( 'NONE', #315, 0.01598400000000000515 ) ;
#85 = ORIENTED_EDGE ( 'NONE', *, *, #321, .T. ) ;
#86 = ORIENTED_EDGE ( 'NONE', *, *, #259, .F. ) ;
#87 = FILL_AREA_STYLE ('',( #264 ) ) ;
#88 = DIRECTION ( 'NONE',  ( -1.224646799147353454E-16, -0.0000000000000000000, -1.000000000000000000 ) ) ;
#89 = CIRCLE ( 'NONE', #141, 0.01598400000000000168 ) ;
#90 =( GEOMETRIC_REPRESENTATION_CONTEXT ( 3 ) GLOBAL_UNCERTAINTY_ASSIGNED_CONTEXT ( ( #25 ) ) GLOBAL_UNIT_ASSIGNED_CONTEXT ( ( #97, #118, #247 ) ) REPRESENTATION_CONTEXT ( 'NONE', 'WORKASPACE' ) );
#91 =( LENGTH_UNIT ( ) NAMED_UNIT ( * ) SI_UNIT ( $, .METRE. ) );
#92 = EDGE_LOOP ( 'NONE', ( #78, #139, #310, #323 ) ) ;
#93 = FILL_AREA_STYLE ('',( #225 ) ) ;
#94 = DIRECTION ( 'NONE',  ( 1.000000000000000000, 0.0000000000000000000, -0.0000000000000000000 ) ) ;
#95 = DIRECTION ( 'NONE',  ( 0.0000000000000000000, 0.0000000000000000000, 1.000000000000000000 ) ) ;
#96 = AXIS2_PLACEMENT_3D ( 'NONE', #165, #162, #159 ) ;
#97 =( CONVERSION_BASED_UNIT ( 'INCH', #176 ) LENGTH_UNIT ( ) NAMED_UNIT ( #221 ) );
#98 = DIRECTION ( 'NONE',  ( 0.0000000000000000000, 0.0000000000000000000, -1.000000000000000000 ) ) ;
#99 = DIRECTION ( 'NONE',  ( 1.224646799147353454E-16, 0.0000000000000000000, 1.000000000000000000 ) ) ;
#100 = CONICAL_SURFACE ( 'NONE', #178, 0.04750000000000064587, 0.7853981633974457255 ) ;
#101 = DIRECTION ( 'NONE',  ( 1.000000000000000000, 0.0000000000000000000, 0.0000000000000000000 ) ) ;
#102 = ADVANCED_FACE ( 'NONE', ( #187 ), #283, .T. ) ;
#103 = EDGE_LOOP ( 'NONE', ( #86, #136, #261, #148 ) ) ;
#104 = LINE ( 'NONE', #10, #238 ) ;
#105 = ORIENTED_EDGE ( 'NONE', *, *, #120, .T. ) ;
#106 = DIRECTION ( 'NONE',  ( 1.000000000000000000, 0.0000000000000000000, 0.0000000000000000000 ) ) ;
#107 = DIRECTION ( 'NONE',  ( 0.1736481776669313304, 0.0000000000000000000, 0.9848077530122077983 ) ) ;
#108 = EDGE_LOOP ( 'NONE', ( #200, #189, #289, #205 ) ) ;
#109 = DIRECTION ( 'NONE',  ( -1.000000000000000000, 0.0000000000000000000, 1.224646799147353454E-16 ) ) ;
#110 = EDGE_CURVE ( 'NONE', #160, #129, #249, .T. ) ;
#111 = ORIENTED_EDGE ( 'NONE', *, *, #110, .F. ) ;
#112 = CYLINDRICAL_SURFACE ( 'NONE', #302, 0.01598400000000000515 ) ;
#113 = AXIS2_PLACEMENT_3D ( 'NONE', #260, #6, #106 ) ;
#114 = AXIS2_PLACEMENT_3D ( 'NONE', #285, #142, #291 ) ;
#115 = FACE_OUTER_BOUND ( 'NONE', #276, .T. ) ;
#116 = PRODUCT_DEFINITION_SHAPE ( 'NONE', 'NONE',  #73 ) ;
#117 = EDGE_LOOP ( 'NONE', ( #36, #49, #5, #13 ) ) ;
#118 =( NAMED_UNIT ( * ) PLANE_ANGLE_UNIT ( ) SI_UNIT ( $, .RADIAN. ) );
#119 = DIRECTION ( 'NONE',  ( 0.0000000000000000000, 0.0000000000000000000, 1.000000000000000000 ) ) ;
#120 = EDGE_CURVE ( 'NONE', #309, #123, #56, .T. ) ;
#121 = DIRECTION ( 'NONE',  ( -1.000000000000000000, 0.0000000000000000000, 1.224646799147353454E-16 ) ) ;
#122 = DIRECTION ( 'NONE',  ( -1.000000000000000000, 0.0000000000000000000, 0.0000000000000000000 ) ) ;
#123 = VERTEX_POINT ( 'NONE', #130 ) ;
#124 = CIRCLE ( 'NONE', #203, 0.01598400000000000168 ) ;
#125 = EDGE_CURVE ( 'NONE', #270, #312, #218, .T. ) ;
#126 = CARTESIAN_POINT ( 'NONE',  ( 0.0000000000000000000, 0.0000000000000000000, 1.500000000000000222 ) ) ;
#127 = CARTESIAN_POINT ( 'NONE',  ( -0.01598400000000000515, 0.0000000000000000000, 1.957475443757130431E-18 ) ) ;
#128 = DIRECTION ( 'NONE',  ( 0.7071067811865456854, 8.659560562354911904E-17, -0.7071067811865493491 ) ) ;
#129 = VERTEX_POINT ( 'NONE', #236 ) ;
#130 = CARTESIAN_POINT ( 'NONE',  ( -0.01598400000000000168, 0.0000000000000000000, 0.01598400000000000515 ) ) ;
#131 = CARTESIAN_POINT ( 'NONE',  ( 1.957475443757130046E-18, 0.0000000000000000000, 0.01598400000000000168 ) ) ;
#132 = EDGE_LOOP ( 'NONE', ( #272, #60, #171 ) ) ;
#133 = PRODUCT ( 'Micro_BMS-032-2', 'Micro_BMS-032-2', '', ( #294 ) ) ;
#134 = STYLED_ITEM ( 'NONE', ( #299 ), #217 ) ;
#135 = PRODUCT_DEFINITION_CONTEXT ( 'detailed design', #22, 'design' ) ;
#136 = ORIENTED_EDGE ( 'NONE', *, *, #55, .F. ) ;
#137 = SURFACE_STYLE_USAGE ( .BOTH. , #38 ) ;
#138 = EDGE_LOOP ( 'NONE', ( #65, #241, #7 ) ) ;
#139 = ORIENTED_EDGE ( 'NONE', *, *, #164, .T. ) ;
#140 = CYLINDRICAL_SURFACE ( 'NONE', #195, 0.01598400000000000515 ) ;
#141 = AXIS2_PLACEMENT_3D ( 'NONE', #266, #83, #143 ) ;
#142 = DIRECTION ( 'NONE',  ( 0.0000000000000000000, 0.0000000000000000000, 1.000000000000000000 ) ) ;
#143 = DIRECTION ( 'NONE',  ( -1.000000000000000000, 1.224646799147353207E-16, 0.0000000000000000000 ) ) ;
#144 = FACE_OUTER_BOUND ( 'NONE', #233, .T. ) ;
#145 = AXIS2_PLACEMENT_3D ( 'NONE', #28, #254, #81 ) ;
#146 = EDGE_CURVE ( 'NONE', #312, #82, #307, .T. ) ;
#147 = LINE ( 'NONE', #66, #12 ) ;
#148 = ORIENTED_EDGE ( 'NONE', *, *, #125, .F. ) ;
#149 = EDGE_LOOP ( 'NONE', ( #175, #85, #30, #172 ) ) ;
#150 = CIRCLE ( 'NONE', #213, 0.06250000000000000000 ) ;
#151 = DIRECTION ( 'NONE',  ( 1.000000000000000000, 0.0000000000000000000, 0.0000000000000000000 ) ) ;
#152 =( NAMED_UNIT ( * ) PLANE_ANGLE_UNIT ( ) SI_UNIT ( $, .RADIAN. ) );
#153 = SPHERICAL_SURFACE ( 'NONE', #50, 0.01598400000000000168 ) ;
#154 = DIRECTION ( 'NONE',  ( -0.0000000000000000000, -0.0000000000000000000, -1.000000000000000000 ) ) ;
#155 = VECTOR ( 'NONE', #163, 39.37007874015748143 ) ;
#156 = ORIENTED_EDGE ( 'NONE', *, *, #17, .T. ) ;
#157 = CARTESIAN_POINT ( 'NONE',  ( 2.936213165635694876E-18, 0.0000000000000000000, 0.0000000000000000000 ) ) ;
#158 = VERTEX_POINT ( 'NONE', #234 ) ;
#159 = DIRECTION ( 'NONE',  ( -1.000000000000000000, 0.0000000000000000000, 0.0000000000000000000 ) ) ;
#160 = VERTEX_POINT ( 'NONE', #8 ) ;
#161 = CIRCLE ( 'NONE', #182, 0.01598400000000000168 ) ;
#162 = DIRECTION ( 'NONE',  ( 0.0000000000000000000, 0.0000000000000000000, -1.000000000000000000 ) ) ;
#163 = DIRECTION ( 'NONE',  ( -0.7071067811865456854, 0.0000000000000000000, -0.7071067811865493491 ) ) ;
#164 = EDGE_CURVE ( 'NONE', #309, #82, #33, .T. ) ;
#165 = CARTESIAN_POINT ( 'NONE',  ( 0.0000000000000000000, 0.0000000000000000000, 1.500000000000000222 ) ) ;
#166 = VERTEX_POINT ( 'NONE', #157 ) ;
#167 = UNCERTAINTY_MEASURE_WITH_UNIT (LENGTH_MEASURE( 1.000000000000000082E-05 ), #220, 'distance_accuracy_value', 'NONE');
#168 = CARTESIAN_POINT ( 'NONE',  ( 0.06250000000000000000, 7.654042494670956004E-18, 1.485000000000000764 ) ) ;
#169 = AXIS2_PLACEMENT_3D ( 'NONE', #31, #230, #256 ) ;
#170 = ORIENTED_EDGE ( 'NONE', *, *, #259, .T. ) ;
#171 = ORIENTED_EDGE ( 'NONE', *, *, #17, .F. ) ;
#172 = ORIENTED_EDGE ( 'NONE', *, *, #146, .F. ) ;
#173 = EDGE_CURVE ( 'NONE', #158, #82, #34, .T. ) ;
#174 = SURFACE_SIDE_STYLE ('',( #251 ) ) ;
#175 = ORIENTED_EDGE ( 'NONE', *, *, #52, .T. ) ;
#176 = LENGTH_MEASURE_WITH_UNIT ( LENGTH_MEASURE( 0.02539999999999999897 ), #91 );
#177 = CARTESIAN_POINT ( 'NONE',  ( 1.957475443757130046E-18, 0.0000000000000000000, 0.01598400000000000168 ) ) ;
#178 = AXIS2_PLACEMENT_3D ( 'NONE', #126, #229, #23 ) ;
#179 = DIRECTION ( 'NONE',  ( -0.0000000000000000000, -0.0000000000000000000, -1.000000000000000000 ) ) ;
#180 = ORIENTED_EDGE ( 'NONE', *, *, #55, .T. ) ;
#181 = DIRECTION ( 'NONE',  ( 1.000000000000000000, 0.0000000000000000000, 0.0000000000000000000 ) ) ;
#182 = AXIS2_PLACEMENT_3D ( 'NONE', #41, #252, #18 ) ;
#183 =( GEOMETRIC_REPRESENTATION_CONTEXT ( 3 ) GLOBAL_UNCERTAINTY_ASSIGNED_CONTEXT ( ( #167 ) ) GLOBAL_UNIT_ASSIGNED_CONTEXT ( ( #220, #244, #47 ) ) REPRESENTATION_CONTEXT ( 'NONE', 'WORKASPACE' ) );
#184 = CARTESIAN_POINT ( 'NONE',  ( 0.01598400000000000515, 1.957475443757129660E-18, -1.957475443757130431E-18 ) ) ;
#185 = ADVANCED_FACE ( 'NONE', ( #72 ), #275, .T. ) ;
#186 = DIRECTION ( 'NONE',  ( -0.1736481776669311639, 2.126576849575782392E-17, 0.9848077530122080203 ) ) ;
#187 = FACE_OUTER_BOUND ( 'NONE', #132, .T. ) ;
#188 = AXIS2_PLACEMENT_3D ( 'NONE', #199, #95, #274 ) ;
#189 = ORIENTED_EDGE ( 'NONE', *, *, #227, .T. ) ;
#190 = FACE_OUTER_BOUND ( 'NONE', #138, .T. ) ;
#191 = ORIENTED_EDGE ( 'NONE', *, *, #40, .F. ) ;
#192 = ORIENTED_EDGE ( 'NONE', *, *, #40, .T. ) ;
#193 = CARTESIAN_POINT ( 'NONE',  ( 0.0000000000000000000, 0.0000000000000000000, 0.0000000000000000000 ) ) ;
#194 = AXIS2_PLACEMENT_3D ( 'NONE', #212, #258, #101 ) ;
#195 = AXIS2_PLACEMENT_3D ( 'NONE', #193, #242, #109 ) ;
#196 = LENGTH_MEASURE_WITH_UNIT ( LENGTH_MEASURE( 0.02539999999999999897 ), #216 );
#197 = AXIS2_PLACEMENT_3D ( 'NONE', #42, #303, #223 ) ;
#198 = ADVANCED_FACE ( 'NONE', ( #190 ), #153, .T. ) ;
#199 = CARTESIAN_POINT ( 'NONE',  ( 0.0000000000000000000, 0.0000000000000000000, 1.500000000000000222 ) ) ;
#200 = ORIENTED_EDGE ( 'NONE', *, *, #292, .T. ) ;
#201 = CARTESIAN_POINT ( 'NONE',  ( 1.957475443757130046E-18, 0.0000000000000000000, 0.01598400000000000168 ) ) ;
#202 = EDGE_CURVE ( 'NONE', #48, #158, #104, .T. ) ;
#203 = AXIS2_PLACEMENT_3D ( 'NONE', #279, #51, #207 ) ;
#204 = ADVANCED_FACE ( 'NONE', ( #214 ), #74, .T. ) ;
#205 = ORIENTED_EDGE ( 'NONE', *, *, #120, .F. ) ;
#206 = DIRECTION ( 'NONE',  ( 1.000000000000000000, 0.0000000000000000000, 0.0000000000000000000 ) ) ;
#207 = DIRECTION ( 'NONE',  ( 0.0000000000000000000, 0.0000000000000000000, -1.000000000000000000 ) ) ;
#208 = CIRCLE ( 'NONE', #197, 0.06250000000000000000 ) ;
#209 = DIRECTION ( 'NONE',  ( 1.000000000000000000, 0.0000000000000000000, 0.0000000000000000000 ) ) ;
#210 = EDGE_CURVE ( 'NONE', #166, #287, #124, .T. ) ;
#211 = DIRECTION ( 'NONE',  ( -1.000000000000000000, 0.0000000000000000000, 0.0000000000000000000 ) ) ;
#212 = CARTESIAN_POINT ( 'NONE',  ( 3.818514178598799583E-17, 0.0000000000000000000, 0.3118053451213360083 ) ) ;
#213 = AXIS2_PLACEMENT_3D ( 'NONE', #1, #98, #206 ) ;
#214 = FACE_OUTER_BOUND ( 'NONE', #92, .T. ) ;
#215 = ORIENTED_EDGE ( 'NONE', *, *, #52, .F. ) ;
#216 =( LENGTH_UNIT ( ) NAMED_UNIT ( * ) SI_UNIT ( $, .METRE. ) );
#217 = ADVANCED_BREP_SHAPE_REPRESENTATION ( 'Micro_BMS-032-2', ( #313, #114 ), #90 ) ;
#218 = CIRCLE ( 'NONE', #169, 0.06250000000000000000 ) ;
#219 = PRODUCT_DEFINITION_FORMATION_WITH_SPECIFIED_SOURCE ( 'ANY', '', #133, .NOT_KNOWN. ) ;
#220 =( CONVERSION_BASED_UNIT ( 'INCH', #196 ) LENGTH_UNIT ( ) NAMED_UNIT ( #246 ) );
#221 = DIMENSIONAL_EXPONENTS ( 1.000000000000000000, 0.0000000000000000000, 0.0000000000000000000, 0.0000000000000000000, 0.0000000000000000000, 0.0000000000000000000, 0.0000000000000000000 ) ;
#222 = FACE_OUTER_BOUND ( 'NONE', #103, .T. ) ;
#223 = DIRECTION ( 'NONE',  ( 1.000000000000000000, 0.0000000000000000000, 0.0000000000000000000 ) ) ;
#224 = ADVANCED_FACE ( 'NONE', ( #282 ), #306, .T. ) ;
#225 = FILL_AREA_STYLE_COLOUR ( '', #35 ) ;
#226 = DIRECTION ( 'NONE',  ( -1.000000000000000000, 0.0000000000000000000, 1.335245398554932983E-16 ) ) ;
#227 = EDGE_CURVE ( 'NONE', #48, #287, #308, .T. ) ;
#228 = FACE_OUTER_BOUND ( 'NONE', #117, .T. ) ;
#229 = DIRECTION ( 'NONE',  ( 0.0000000000000000000, 0.0000000000000000000, -1.000000000000000000 ) ) ;
#230 = DIRECTION ( 'NONE',  ( 0.0000000000000000000, 0.0000000000000000000, -1.000000000000000000 ) ) ;
#231 = LINE ( 'NONE', #311, #155 ) ;
#232 = CLOSED_SHELL ( 'NONE', ( #198, #318, #204, #298, #224, #15, #64, #46, #185, #304, #102 ) ) ;
#233 = EDGE_LOOP ( 'NONE', ( #180, #296 ) ) ;
#234 = CARTESIAN_POINT ( 'NONE',  ( 0.06250000000000002776, 7.654042494670959086E-18, 0.3118053451213360083 ) ) ;
#235 = EDGE_LOOP ( 'NONE', ( #300, #192, #105, #156 ) ) ;
#236 = CARTESIAN_POINT ( 'NONE',  ( -0.04750000000000064587, 0.0000000000000000000, 1.500000000000000222 ) ) ;
#237 = DIRECTION ( 'NONE',  ( 0.0000000000000000000, 1.000000000000000000, 0.0000000000000000000 ) ) ;
#238 = VECTOR ( 'NONE', #107, 39.37007874015748143 ) ;
#239 = MECHANICAL_DESIGN_GEOMETRIC_PRESENTATION_REPRESENTATION (  '', ( #316 ), #183 ) ;
#240 = PRESENTATION_STYLE_ASSIGNMENT (( #137 ) ) ;
#241 = ORIENTED_EDGE ( 'NONE', *, *, #277, .T. ) ;
#242 = DIRECTION ( 'NONE',  ( -1.224646799147353454E-16, -0.0000000000000000000, -1.000000000000000000 ) ) ;
#243 = CONICAL_SURFACE ( 'NONE', #96, 0.04750000000000064587, 0.7853981633974457255 ) ;
#244 =( NAMED_UNIT ( * ) PLANE_ANGLE_UNIT ( ) SI_UNIT ( $, .RADIAN. ) );
#245 = SHAPE_DEFINITION_REPRESENTATION ( #116, #217 ) ;
#246 = DIMENSIONAL_EXPONENTS ( 1.000000000000000000, 0.0000000000000000000, 0.0000000000000000000, 0.0000000000000000000, 0.0000000000000000000, 0.0000000000000000000, 0.0000000000000000000 ) ;
#247 =( NAMED_UNIT ( * ) SI_UNIT ( $, .STERADIAN. ) SOLID_ANGLE_UNIT ( ) );
#248 = CYLINDRICAL_SURFACE ( 'NONE', #278, 0.06250000000000000000 ) ;
#249 = CIRCLE ( 'NONE', #145, 0.04750000000000064587 ) ;
#250 = PLANE ( 'NONE',  #19 ) ;
#251 = SURFACE_STYLE_FILL_AREA ( #93 ) ;
#252 = DIRECTION ( 'NONE',  ( -1.224646799147353454E-16, -0.0000000000000000000, -1.000000000000000000 ) ) ;
#253 = VECTOR ( 'NONE', #186, 39.37007874015747433 ) ;
#254 = DIRECTION ( 'NONE',  ( 0.0000000000000000000, 0.0000000000000000000, 1.000000000000000000 ) ) ;
#255 = DIRECTION ( 'NONE',  ( -1.224646799147353454E-16, -0.0000000000000000000, -1.000000000000000000 ) ) ;
#256 = DIRECTION ( 'NONE',  ( 1.000000000000000000, 0.0000000000000000000, 0.0000000000000000000 ) ) ;
#257 = VECTOR ( 'NONE', #53, 39.37007874015748143 ) ;
#258 = DIRECTION ( 'NONE',  ( -1.224646799147353454E-16, -0.0000000000000000000, -1.000000000000000000 ) ) ;
#259 = EDGE_CURVE ( 'NONE', #160, #270, #77, .T. ) ;
#260 = CARTESIAN_POINT ( 'NONE',  ( 5.878304635907297015E-18, 0.0000000000000000000, 0.04800000000000000100 ) ) ;
#261 = ORIENTED_EDGE ( 'NONE', *, *, #267, .T. ) ;
#262 = FACE_OUTER_BOUND ( 'NONE', #235, .T. ) ;
#263 = CIRCLE ( 'NONE', #80, 0.01598400000000000515 ) ;
#264 = FILL_AREA_STYLE_COLOUR ( '', #284 ) ;
#265 = APPLICATION_CONTEXT ( 'automotive_design' ) ;
#266 = CARTESIAN_POINT ( 'NONE',  ( 1.957475443757130046E-18, 0.0000000000000000000, 0.01598400000000000168 ) ) ;
#267 = EDGE_CURVE ( 'NONE', #129, #312, #231, .T. ) ;
#268 = CARTESIAN_POINT ( 'NONE',  ( -0.01598399999999999474, 4.805758969214043988E-18, 0.04800000000000000100 ) ) ;
#269 = AXIS2_PLACEMENT_3D ( 'NONE', #131, #4, #151 ) ;
#270 = VERTEX_POINT ( 'NONE', #168 ) ;
#271 = FACE_OUTER_BOUND ( 'NONE', #108, .T. ) ;
#272 = ORIENTED_EDGE ( 'NONE', *, *, #277, .F. ) ;
#273 = SURFACE_STYLE_USAGE ( .BOTH. , #174 ) ;
#274 = DIRECTION ( 'NONE',  ( 1.000000000000000000, 0.0000000000000000000, 0.0000000000000000000 ) ) ;
#275 = CONICAL_SURFACE ( 'NONE', #113, 0.01598400000000000168, 0.1745329251994338360 ) ;
#276 = EDGE_LOOP ( 'NONE', ( #111, #170, #215, #45 ) ) ;
#277 = EDGE_CURVE ( 'NONE', #166, #123, #89, .T. ) ;
#278 = AXIS2_PLACEMENT_3D ( 'NONE', #71, #179, #122 ) ;
#279 = CARTESIAN_POINT ( 'NONE',  ( 1.957475443757130046E-18, 0.0000000000000000000, 0.01598400000000000168 ) ) ;
#280 = PRESENTATION_LAYER_ASSIGNMENT (  '', '', ( #316 ) ) ;
#281 = CARTESIAN_POINT ( 'NONE',  ( -0.06249999999999996531, 0.0000000000000000000, 0.3118053451213360083 ) ) ;
#282 = FACE_OUTER_BOUND ( 'NONE', #149, .T. ) ;
#283 = SPHERICAL_SURFACE ( 'NONE', #269, 0.01598400000000000168 ) ;
#284 = COLOUR_RGB ( '',0.7921568627450980005, 0.8196078431372548767, 0.9333333333333333481 ) ;
#285 = CARTESIAN_POINT ( 'NONE',  ( 0.0000000000000000000, 0.0000000000000000000, 0.0000000000000000000 ) ) ;
#286 = DIRECTION ( 'NONE',  ( -1.000000000000000000, 0.0000000000000000000, 1.335245398554932983E-16 ) ) ;
#287 = VERTEX_POINT ( 'NONE', #14 ) ;
#288 = CARTESIAN_POINT ( 'NONE',  ( 5.878304635907297015E-18, 0.0000000000000000000, 0.04800000000000000100 ) ) ;
#289 = ORIENTED_EDGE ( 'NONE', *, *, #67, .T. ) ;
#290 = CARTESIAN_POINT ( 'NONE',  ( -0.06250000000000000000, 0.0000000000000000000, 1.485000000000000764 ) ) ;
#291 = DIRECTION ( 'NONE',  ( 1.000000000000000000, 0.0000000000000000000, 0.0000000000000000000 ) ) ;
#292 = EDGE_CURVE ( 'NONE', #309, #48, #16, .T. ) ;
#293 = DIRECTION ( 'NONE',  ( -1.224646799147353454E-16, -0.0000000000000000000, -1.000000000000000000 ) ) ;
#294 = PRODUCT_CONTEXT ( 'NONE', #265, 'mechanical' ) ;
#295 = MECHANICAL_DESIGN_GEOMETRIC_PRESENTATION_REPRESENTATION (  '', ( #134 ), #44 ) ;
#296 = ORIENTED_EDGE ( 'NONE', *, *, #110, .T. ) ;
#297 = EDGE_LOOP ( 'NONE', ( #305, #191, #27, #58 ) ) ;
#298 = ADVANCED_FACE ( 'NONE', ( #115 ), #243, .T. ) ;
#299 = PRESENTATION_STYLE_ASSIGNMENT (( #273 ) ) ;
#300 = ORIENTED_EDGE ( 'NONE', *, *, #227, .F. ) ;
#301 = VECTOR ( 'NONE', #128, 39.37007874015748143 ) ;
#302 = AXIS2_PLACEMENT_3D ( 'NONE', #324, #88, #121 ) ;
#303 = DIRECTION ( 'NONE',  ( -1.224646799147353454E-16, -0.0000000000000000000, -1.000000000000000000 ) ) ;
#304 = ADVANCED_FACE ( 'NONE', ( #262 ), #140, .T. ) ;
#305 = ORIENTED_EDGE ( 'NONE', *, *, #164, .F. ) ;
#306 = CYLINDRICAL_SURFACE ( 'NONE', #68, 0.06250000000000000000 ) ;
#307 = LINE ( 'NONE', #59, #257 ) ;
#308 = LINE ( 'NONE', #184, #26 ) ;
#309 = VERTEX_POINT ( 'NONE', #268 ) ;
#310 = ORIENTED_EDGE ( 'NONE', *, *, #61, .T. ) ;
#311 = CARTESIAN_POINT ( 'NONE',  ( -0.04750000000000064587, 0.0000000000000000000, 1.500000000000000222 ) ) ;
#312 = VERTEX_POINT ( 'NONE', #290 ) ;
#313 = MANIFOLD_SOLID_BREP ( 'Fillet1', #232 ) ;
#314 = SURFACE_STYLE_FILL_AREA ( #87 ) ;
#315 = AXIS2_PLACEMENT_3D ( 'NONE', #177, #317, #226 ) ;
#316 = STYLED_ITEM ( 'NONE', ( #240 ), #313 ) ;
#317 = DIRECTION ( 'NONE',  ( 1.224646799147353454E-16, 0.0000000000000000000, 1.000000000000000000 ) ) ;
#318 = ADVANCED_FACE ( 'NONE', ( #271 ), #112, .T. ) ;
#319 = UNCERTAINTY_MEASURE_WITH_UNIT (LENGTH_MEASURE( 1.000000000000000082E-05 ), #24, 'distance_accuracy_value', 'NONE');
#320 = APPLICATION_PROTOCOL_DEFINITION ( 'draft international standard', 'automotive_design', 1998, #265 ) ;
#321 = EDGE_CURVE ( 'NONE', #270, #158, #147, .T. ) ;
#322 =( LENGTH_UNIT ( ) NAMED_UNIT ( * ) SI_UNIT ( $, .METRE. ) );
#323 = ORIENTED_EDGE ( 'NONE', *, *, #202, .F. ) ;
#324 = CARTESIAN_POINT ( 'NONE',  ( 0.0000000000000000000, 0.0000000000000000000, 0.0000000000000000000 ) ) ;
#325 = CARTESIAN_POINT ( 'NONE',  ( 0.01598400000000000862, 0.0000000000000000000, 0.04800000000000000100 ) ) ;
ENDSEC;
END-ISO-10303-21;
