ISO-10303-21;
HEADER;
FILE_DESCRIPTION (( 'STEP AP214' ),
    '1' );
FILE_NAME ('Micro_EMS-250-2.STEP',
    '2021-09-01T17:48:48',
    ( '' ),
    ( '' ),
    'SwSTEP 2.0',
    'SolidWorks 2020',
    '' );
FILE_SCHEMA (( 'AUTOMOTIVE_DESIGN' ));
ENDSEC;

DATA;
#1 = CONICAL_SURFACE ( 'NONE', #238, 0.1100000000000001948, 0.7853981633974517207 ) ;
#2 = FILL_AREA_STYLE ('',( #56 ) ) ;
#3 = AXIS2_PLACEMENT_3D ( 'NONE', #78, #52, #149 ) ;
#4 = FACE_OUTER_BOUND ( 'NONE', #130, .T. ) ;
#5 = LENGTH_MEASURE_WITH_UNIT ( LENGTH_MEASURE( 0.02539999999999999897 ), #196 );
#6 = CARTESIAN_POINT ( 'NONE',  ( 1.872825028598994811E-33, 0.0000000000000000000, 1.529277690435257475E-17 ) ) ;
#7 = CARTESIAN_POINT ( 'NONE',  ( 0.0000000000000000000, 0.0000000000000000000, 2.500000000000000000 ) ) ;
#8 = AXIS2_PLACEMENT_3D ( 'NONE', #33, #171, #79 ) ;
#9 = ORIENTED_EDGE ( 'NONE', *, *, #176, .F. ) ;
#10 =( LENGTH_UNIT ( ) NAMED_UNIT ( * ) SI_UNIT ( $, .METRE. ) );
#11 = DIRECTION ( 'NONE',  ( -1.224646799147353207E-16, -0.0000000000000000000, -1.000000000000000000 ) ) ;
#12 = SURFACE_SIDE_STYLE ('',( #294 ) ) ;
#13 = CARTESIAN_POINT ( 'NONE',  ( 9.193532640014472135E-17, 0.0000000000000000000, 0.7507089102274522308 ) ) ;
#14 = CARTESIAN_POINT ( 'NONE',  ( 0.1248750000000000970, 0.0000000000000000000, 0.7500000000000001110 ) ) ;
#15 = VECTOR ( 'NONE', #209, 39.37007874015748143 ) ;
#16 = DIRECTION ( 'NONE',  ( -1.224646799147353207E-16, -0.0000000000000000000, -1.000000000000000000 ) ) ;
#17 = PRODUCT_DEFINITION ( 'UNKNOWN', '', #260, #20 ) ;
#18 = ORIENTED_EDGE ( 'NONE', *, *, #281, .F. ) ;
#19 = ORIENTED_EDGE ( 'NONE', *, *, #28, .T. ) ;
#20 = PRODUCT_DEFINITION_CONTEXT ( 'detailed design', #76, 'design' ) ;
#21 = ORIENTED_EDGE ( 'NONE', *, *, #269, .T. ) ;
#22 = AXIS2_PLACEMENT_3D ( 'NONE', #210, #235, #174 ) ;
#23 = CARTESIAN_POINT ( 'NONE',  ( 0.0000000000000000000, 0.0000000000000000000, 0.0000000000000000000 ) ) ;
#24 = ADVANCED_FACE ( 'NONE', ( #114 ), #150, .T. ) ;
#25 =( CONVERSION_BASED_UNIT ( 'INCH', #94 ) LENGTH_UNIT ( ) NAMED_UNIT ( #264 ) );
#26 = LINE ( 'NONE', #125, #15 ) ;
#27 = AXIS2_PLACEMENT_3D ( 'NONE', #219, #221, #67 ) ;
#28 = EDGE_CURVE ( 'NONE', #68, #207, #248, .T. ) ;
#29 = CIRCLE ( 'NONE', #53, 0.1250000000000000000 ) ;
#30 = CYLINDRICAL_SURFACE ( 'NONE', #22, 0.1250000000000000000 ) ;
#31 = CYLINDRICAL_SURFACE ( 'NONE', #249, 0.1250000000000000000 ) ;
#32 = EDGE_LOOP ( 'NONE', ( #251, #145, #272, #9 ) ) ;
#33 = CARTESIAN_POINT ( 'NONE',  ( 1.872825028598994811E-33, 0.0000000000000000000, 1.529277690435257475E-17 ) ) ;
#34 = VERTEX_POINT ( 'NONE', #241 ) ;
#35 = FILL_AREA_STYLE ('',( #133 ) ) ;
#36 = LINE ( 'NONE', #274, #183 ) ;
#37 = FACE_OUTER_BOUND ( 'NONE', #131, .T. ) ;
#38 = FACE_OUTER_BOUND ( 'NONE', #166, .T. ) ;
#39 = CIRCLE ( 'NONE', #233, 0.1100000000000001948 ) ;
#40 = EDGE_CURVE ( 'NONE', #34, #207, #29, .T. ) ;
#41 = CARTESIAN_POINT ( 'NONE',  ( -0.1100000000000001948, 0.0000000000000000000, 2.500000000000000000 ) ) ;
#42 = CARTESIAN_POINT ( 'NONE',  ( 0.0000000000000000000, 0.0000000000000000000, 0.0000000000000000000 ) ) ;
#43 = DIRECTION ( 'NONE',  ( -1.000000000000000000, 0.0000000000000000000, 1.224646799147353454E-16 ) ) ;
#44 = EDGE_CURVE ( 'NONE', #162, #299, #280, .T. ) ;
#45 = PRESENTATION_STYLE_ASSIGNMENT (( #182 ) ) ;
#46 = CARTESIAN_POINT ( 'NONE',  ( 0.0000000000000000000, 0.0000000000000000000, 2.500000000000000000 ) ) ;
#47 = CIRCLE ( 'NONE', #122, 0.1100000000000001948 ) ;
#48 = ORIENTED_EDGE ( 'NONE', *, *, #169, .F. ) ;
#49 = ORIENTED_EDGE ( 'NONE', *, *, #40, .F. ) ;
#50 = EDGE_CURVE ( 'NONE', #74, #217, #39, .T. ) ;
#51 = PRODUCT ( 'Micro_EMS-250-2', 'Micro_EMS-250-2', '', ( #229 ) ) ;
#52 = DIRECTION ( 'NONE',  ( -1.224646799147353207E-16, -0.0000000000000000000, -1.000000000000000000 ) ) ;
#53 = AXIS2_PLACEMENT_3D ( 'NONE', #13, #16, #200 ) ;
#54 = DIRECTION ( 'NONE',  ( -1.224646799147353207E-16, -0.0000000000000000000, -1.000000000000000000 ) ) ;
#55 = VECTOR ( 'NONE', #159, 39.37007874015748143 ) ;
#56 = FILL_AREA_STYLE_COLOUR ( '', #164 ) ;
#57 = SURFACE_SIDE_STYLE ('',( #257 ) ) ;
#58 = EDGE_LOOP ( 'NONE', ( #21, #278, #64, #48 ) ) ;
#59 = CARTESIAN_POINT ( 'NONE',  ( 0.1250000000000000000, 1.530808498934191509E-17, 2.485000000000000320 ) ) ;
#60 =( GEOMETRIC_REPRESENTATION_CONTEXT ( 3 ) GLOBAL_UNCERTAINTY_ASSIGNED_CONTEXT ( ( #188 ) ) GLOBAL_UNIT_ASSIGNED_CONTEXT ( ( #237, #173, #104 ) ) REPRESENTATION_CONTEXT ( 'NONE', 'WORKASPACE' ) );
#61 = CARTESIAN_POINT ( 'NONE',  ( -0.1248749999999999166, 1.530043094684724646E-17, 0.7500000000000001110 ) ) ;
#62 = DIRECTION ( 'NONE',  ( -1.000000000000000000, 0.0000000000000000000, 0.0000000000000000000 ) ) ;
#63 = APPLICATION_PROTOCOL_DEFINITION ( 'draft international standard', 'automotive_design', 1998, #242 ) ;
#64 = ORIENTED_EDGE ( 'NONE', *, *, #236, .F. ) ;
#65 =( GEOMETRIC_REPRESENTATION_CONTEXT ( 3 ) GLOBAL_UNCERTAINTY_ASSIGNED_CONTEXT ( ( #273 ) ) GLOBAL_UNIT_ASSIGNED_CONTEXT ( ( #261, #291, #86 ) ) REPRESENTATION_CONTEXT ( 'NONE', 'WORKASPACE' ) );
#66 = LINE ( 'NONE', #41, #124 ) ;
#67 = DIRECTION ( 'NONE',  ( 1.000000000000000000, 0.0000000000000000000, 0.0000000000000000000 ) ) ;
#68 = VERTEX_POINT ( 'NONE', #14 ) ;
#69 = EDGE_CURVE ( 'NONE', #299, #162, #243, .T. ) ;
#70 = ORIENTED_EDGE ( 'NONE', *, *, #141, .T. ) ;
#71 = DIRECTION ( 'NONE',  ( -1.000000000000000000, 0.0000000000000000000, 0.0000000000000000000 ) ) ;
#72 = AXIS2_PLACEMENT_3D ( 'NONE', #137, #90, #263 ) ;
#73 = CIRCLE ( 'NONE', #102, 0.1250000000000000000 ) ;
#74 = VERTEX_POINT ( 'NONE', #205 ) ;
#75 = ORIENTED_EDGE ( 'NONE', *, *, #254, .F. ) ;
#76 = APPLICATION_CONTEXT ( 'automotive_design' ) ;
#77 = EDGE_CURVE ( 'NONE', #68, #87, #295, .T. ) ;
#78 = CARTESIAN_POINT ( 'NONE',  ( 9.184850993605150903E-17, 0.0000000000000000000, 0.7500000000000001110 ) ) ;
#79 = DIRECTION ( 'NONE',  ( -1.000000000000000000, 0.0000000000000000000, 1.224646799147353454E-16 ) ) ;
#80 = PRESENTATION_LAYER_ASSIGNMENT (  '', '', ( #212 ) ) ;
#81 = DIRECTION ( 'NONE',  ( -0.0000000000000000000, -0.0000000000000000000, -1.000000000000000000 ) ) ;
#82 = AXIS2_PLACEMENT_3D ( 'NONE', #136, #199, #106 ) ;
#83 = EDGE_CURVE ( 'NONE', #74, #162, #36, .T. ) ;
#84 = DIRECTION ( 'NONE',  ( 1.000000000000000000, 0.0000000000000000000, -0.0000000000000000000 ) ) ;
#85 = CARTESIAN_POINT ( 'NONE',  ( 0.1248749999999999999, 1.529277690435257475E-17, 0.0000000000000000000 ) ) ;
#86 =( NAMED_UNIT ( * ) SI_UNIT ( $, .STERADIAN. ) SOLID_ANGLE_UNIT ( ) );
#87 = VERTEX_POINT ( 'NONE', #85 ) ;
#88 = ORIENTED_EDGE ( 'NONE', *, *, #281, .T. ) ;
#89 = LENGTH_MEASURE_WITH_UNIT ( LENGTH_MEASURE( 0.02539999999999999897 ), #10 );
#90 = DIRECTION ( 'NONE',  ( 0.0000000000000000000, 0.0000000000000000000, -1.000000000000000000 ) ) ;
#91 = ORIENTED_EDGE ( 'NONE', *, *, #69, .F. ) ;
#92 = DIRECTION ( 'NONE',  ( -1.224646799147353207E-16, -0.0000000000000000000, -1.000000000000000000 ) ) ;
#93 = CARTESIAN_POINT ( 'NONE',  ( 0.1248749999999999999, 1.529277690435257475E-17, -1.529277690435257475E-17 ) ) ;
#94 = LENGTH_MEASURE_WITH_UNIT ( LENGTH_MEASURE( 0.02539999999999999897 ), #223 );
#95 = DIRECTION ( 'NONE',  ( -1.000000000000000000, 0.0000000000000000000, 1.224646799147353454E-16 ) ) ;
#96 = ORIENTED_EDGE ( 'NONE', *, *, #292, .T. ) ;
#97 = CIRCLE ( 'NONE', #3, 0.1248749999999999999 ) ;
#98 = ORIENTED_EDGE ( 'NONE', *, *, #83, .F. ) ;
#99 = SHAPE_DEFINITION_REPRESENTATION ( #112, #175 ) ;
#100 = AXIS2_PLACEMENT_3D ( 'NONE', #23, #279, #191 ) ;
#101 = PRESENTATION_STYLE_ASSIGNMENT (( #283 ) ) ;
#102 = AXIS2_PLACEMENT_3D ( 'NONE', #268, #115, #152 ) ;
#103 = ADVANCED_FACE ( 'NONE', ( #184 ), #157, .T. ) ;
#104 =( NAMED_UNIT ( * ) SI_UNIT ( $, .STERADIAN. ) SOLID_ANGLE_UNIT ( ) );
#105 = ADVANCED_FACE ( 'NONE', ( #186 ), #1, .T. ) ;
#106 = DIRECTION ( 'NONE',  ( -1.000000000000000000, 0.0000000000000000000, 0.0000000000000000000 ) ) ;
#107 = AXIS2_PLACEMENT_3D ( 'NONE', #138, #218, #290 ) ;
#108 = COLOUR_RGB ( '',0.7921568627450980005, 0.8196078431372548767, 0.9333333333333333481 ) ;
#109 = ORIENTED_EDGE ( 'NONE', *, *, #254, .T. ) ;
#110 = CARTESIAN_POINT ( 'NONE',  ( 0.0000000000000000000, 0.0000000000000000000, 0.0000000000000000000 ) ) ;
#111 = DIRECTION ( 'NONE',  ( 1.000000000000000000, 0.0000000000000000000, 0.0000000000000000000 ) ) ;
#112 = PRODUCT_DEFINITION_SHAPE ( 'NONE', 'NONE',  #17 ) ;
#113 = DIRECTION ( 'NONE',  ( 0.0000000000000000000, 0.0000000000000000000, 1.000000000000000000 ) ) ;
#114 = FACE_OUTER_BOUND ( 'NONE', #275, .T. ) ;
#115 = DIRECTION ( 'NONE',  ( -1.224646799147353207E-16, -0.0000000000000000000, -1.000000000000000000 ) ) ;
#116 = ORIENTED_EDGE ( 'NONE', *, *, #208, .T. ) ;
#117 = AXIS2_PLACEMENT_3D ( 'NONE', #245, #132, #111 ) ;
#118 = FACE_OUTER_BOUND ( 'NONE', #32, .T. ) ;
#119 = DIRECTION ( 'NONE',  ( 0.0000000000000000000, 0.0000000000000000000, 1.000000000000000000 ) ) ;
#120 = EDGE_LOOP ( 'NONE', ( #227, #116, #49, #75 ) ) ;
#121 = ORIENTED_EDGE ( 'NONE', *, *, #176, .T. ) ;
#122 = AXIS2_PLACEMENT_3D ( 'NONE', #231, #259, #285 ) ;
#123 = VERTEX_POINT ( 'NONE', #154 ) ;
#124 = VECTOR ( 'NONE', #178, 39.37007874015748143 ) ;
#125 = CARTESIAN_POINT ( 'NONE',  ( 0.1250000000000000000, 1.530808498934191509E-17, 2.500000000000000000 ) ) ;
#126 = ADVANCED_FACE ( 'NONE', ( #38 ), #293, .T. ) ;
#127 = CONICAL_SURFACE ( 'NONE', #27, 0.1248749999999999999, 0.1745329251994339192 ) ;
#128 = EDGE_LOOP ( 'NONE', ( #98, #204, #88, #228 ) ) ;
#129 = CARTESIAN_POINT ( 'NONE',  ( 0.0000000000000000000, 0.0000000000000000000, 2.500000000000000000 ) ) ;
#130 = EDGE_LOOP ( 'NONE', ( #181, #187, #109, #298 ) ) ;
#131 = EDGE_LOOP ( 'NONE', ( #70, #198 ) ) ;
#132 = DIRECTION ( 'NONE',  ( 1.224646799147353207E-16, 0.0000000000000000000, 1.000000000000000000 ) ) ;
#133 = FILL_AREA_STYLE_COLOUR ( '', #108 ) ;
#134 = DIRECTION ( 'NONE',  ( 0.0000000000000000000, 0.0000000000000000000, 1.000000000000000000 ) ) ;
#135 = ADVANCED_FACE ( 'NONE', ( #201 ), #266, .F. ) ;
#136 = CARTESIAN_POINT ( 'NONE',  ( 9.184850993605150903E-17, 0.0000000000000000000, 0.7500000000000001110 ) ) ;
#137 = CARTESIAN_POINT ( 'NONE',  ( 0.0000000000000000000, 0.0000000000000000000, 2.485000000000000320 ) ) ;
#138 = CARTESIAN_POINT ( 'NONE',  ( 0.0000000000000000000, 0.0000000000000000000, 2.485000000000000320 ) ) ;
#139 = AXIS2_PLACEMENT_3D ( 'NONE', #271, #215, #95 ) ;
#140 = CLOSED_SHELL ( 'NONE', ( #103, #276, #24, #193, #185, #213, #105, #126, #216, #135 ) ) ;
#141 = EDGE_CURVE ( 'NONE', #217, #74, #47, .T. ) ;
#142 = EDGE_LOOP ( 'NONE', ( #282, #96, #226, #190 ) ) ;
#143 =( NAMED_UNIT ( * ) SI_UNIT ( $, .STERADIAN. ) SOLID_ANGLE_UNIT ( ) );
#144 = UNCERTAINTY_MEASURE_WITH_UNIT (LENGTH_MEASURE( 1.000000000000000082E-05 ), #25, 'distance_accuracy_value', 'NONE');
#145 = ORIENTED_EDGE ( 'NONE', *, *, #163, .T. ) ;
#146 = ORIENTED_EDGE ( 'NONE', *, *, #83, .T. ) ;
#147 = CARTESIAN_POINT ( 'NONE',  ( 0.1250000000000000833, 1.530808498934192433E-17, 0.7507089102274522308 ) ) ;
#148 = VECTOR ( 'NONE', #11, 39.37007874015748143 ) ;
#149 = DIRECTION ( 'NONE',  ( -1.000000000000000000, 0.0000000000000000000, 0.0000000000000000000 ) ) ;
#150 = CONICAL_SURFACE ( 'NONE', #165, 0.1100000000000001948, 0.7853981633974517207 ) ;
#151 = ORIENTED_EDGE ( 'NONE', *, *, #50, .F. ) ;
#152 = DIRECTION ( 'NONE',  ( 1.000000000000000000, 0.0000000000000000000, 0.0000000000000000000 ) ) ;
#153 = LINE ( 'NONE', #161, #288 ) ;
#154 = CARTESIAN_POINT ( 'NONE',  ( -0.1248749999999999999, 0.0000000000000000000, 3.058555380870514950E-17 ) ) ;
#155 = LINE ( 'NONE', #202, #195 ) ;
#156 = MECHANICAL_DESIGN_GEOMETRIC_PRESENTATION_REPRESENTATION (  '', ( #212 ), #267 ) ;
#157 = CYLINDRICAL_SURFACE ( 'NONE', #139, 0.1248749999999999999 ) ;
#158 = DIRECTION ( 'NONE',  ( -0.1736481776669312194, 2.126576849575783625E-17, 0.9848077530122080203 ) ) ;
#159 = DIRECTION ( 'NONE',  ( 0.1736481776669314137, 0.0000000000000000000, 0.9848077530122077983 ) ) ;
#160 = DIMENSIONAL_EXPONENTS ( 1.000000000000000000, 0.0000000000000000000, 0.0000000000000000000, 0.0000000000000000000, 0.0000000000000000000, 0.0000000000000000000, 0.0000000000000000000 ) ;
#161 = CARTESIAN_POINT ( 'NONE',  ( -0.1248749999999999166, 1.529277690435257475E-17, 0.7500000000000001110 ) ) ;
#162 = VERTEX_POINT ( 'NONE', #59 ) ;
#163 = EDGE_CURVE ( 'NONE', #68, #250, #97, .T. ) ;
#164 = COLOUR_RGB ( '',0.7921568627450980005, 0.8196078431372548767, 0.9333333333333333481 ) ;
#165 = AXIS2_PLACEMENT_3D ( 'NONE', #225, #203, #71 ) ;
#166 = EDGE_LOOP ( 'NONE', ( #247, #180, #19, #206 ) ) ;
#167 = EDGE_LOOP ( 'NONE', ( #265, #121 ) ) ;
#168 =( NAMED_UNIT ( * ) PLANE_ANGLE_UNIT ( ) SI_UNIT ( $, .RADIAN. ) );
#169 = EDGE_CURVE ( 'NONE', #250, #123, #194, .T. ) ;
#170 = PRODUCT_RELATED_PRODUCT_CATEGORY ( 'part', '', ( #51 ) ) ;
#171 = DIRECTION ( 'NONE',  ( -1.224646799147353207E-16, -0.0000000000000000000, -1.000000000000000000 ) ) ;
#172 = CIRCLE ( 'NONE', #82, 0.1248749999999999999 ) ;
#173 =( NAMED_UNIT ( * ) PLANE_ANGLE_UNIT ( ) SI_UNIT ( $, .RADIAN. ) );
#174 = DIRECTION ( 'NONE',  ( -1.000000000000000000, 0.0000000000000000000, 0.0000000000000000000 ) ) ;
#175 = ADVANCED_BREP_SHAPE_REPRESENTATION ( 'Micro_EMS-250-2', ( #211, #100 ), #65 ) ;
#176 = EDGE_CURVE ( 'NONE', #87, #123, #284, .T. ) ;
#177 = CIRCLE ( 'NONE', #277, 0.1248749999999999999 ) ;
#178 = DIRECTION ( 'NONE',  ( -0.7071067811865499042, 0.0000000000000000000, -0.7071067811865451302 ) ) ;
#179 = DIRECTION ( 'NONE',  ( 0.0000000000000000000, 0.0000000000000000000, -1.000000000000000000 ) ) ;
#180 = ORIENTED_EDGE ( 'NONE', *, *, #163, .F. ) ;
#181 = ORIENTED_EDGE ( 'NONE', *, *, #208, .F. ) ;
#182 = SURFACE_STYLE_USAGE ( .BOTH. , #12 ) ;
#183 = VECTOR ( 'NONE', #297, 39.37007874015748143 ) ;
#184 = FACE_OUTER_BOUND ( 'NONE', #58, .T. ) ;
#185 = ADVANCED_FACE ( 'NONE', ( #4 ), #30, .T. ) ;
#186 = FACE_OUTER_BOUND ( 'NONE', #128, .T. ) ;
#187 = ORIENTED_EDGE ( 'NONE', *, *, #44, .T. ) ;
#188 = UNCERTAINTY_MEASURE_WITH_UNIT (LENGTH_MEASURE( 1.000000000000000082E-05 ), #237, 'distance_accuracy_value', 'NONE');
#189 = STYLED_ITEM ( 'NONE', ( #101 ), #211 ) ;
#190 = ORIENTED_EDGE ( 'NONE', *, *, #28, .F. ) ;
#191 = DIRECTION ( 'NONE',  ( 1.000000000000000000, 0.0000000000000000000, 0.0000000000000000000 ) ) ;
#192 = MECHANICAL_DESIGN_GEOMETRIC_PRESENTATION_REPRESENTATION (  '', ( #189 ), #60 ) ;
#193 = ADVANCED_FACE ( 'NONE', ( #232 ), #31, .T. ) ;
#194 = LINE ( 'NONE', #239, #253 ) ;
#195 = VECTOR ( 'NONE', #81, 39.37007874015748143 ) ;
#196 =( LENGTH_UNIT ( ) NAMED_UNIT ( * ) SI_UNIT ( $, .METRE. ) );
#197 = DIRECTION ( 'NONE',  ( -0.0000000000000000000, -0.0000000000000000000, -1.000000000000000000 ) ) ;
#198 = ORIENTED_EDGE ( 'NONE', *, *, #50, .T. ) ;
#199 = DIRECTION ( 'NONE',  ( -1.224646799147353207E-16, -0.0000000000000000000, -1.000000000000000000 ) ) ;
#200 = DIRECTION ( 'NONE',  ( 1.000000000000000000, 0.0000000000000000000, 0.0000000000000000000 ) ) ;
#201 = FACE_OUTER_BOUND ( 'NONE', #167, .T. ) ;
#202 = CARTESIAN_POINT ( 'NONE',  ( -0.1250000000000000000, 0.0000000000000000000, 2.500000000000000000 ) ) ;
#203 = DIRECTION ( 'NONE',  ( 0.0000000000000000000, 0.0000000000000000000, -1.000000000000000000 ) ) ;
#204 = ORIENTED_EDGE ( 'NONE', *, *, #141, .F. ) ;
#205 = CARTESIAN_POINT ( 'NONE',  ( 0.1100000000000001948, 1.438959988998141146E-17, 2.500000000000000000 ) ) ;
#206 = ORIENTED_EDGE ( 'NONE', *, *, #286, .T. ) ;
#207 = VERTEX_POINT ( 'NONE', #147 ) ;
#208 = EDGE_CURVE ( 'NONE', #162, #207, #26, .T. ) ;
#209 = DIRECTION ( 'NONE',  ( -0.0000000000000000000, -0.0000000000000000000, -1.000000000000000000 ) ) ;
#210 = CARTESIAN_POINT ( 'NONE',  ( 0.0000000000000000000, 0.0000000000000000000, 2.500000000000000000 ) ) ;
#211 = MANIFOLD_SOLID_BREP ( 'Cut-Revolve1', #140 ) ;
#212 = STYLED_ITEM ( 'NONE', ( #45 ), #175 ) ;
#213 = ADVANCED_FACE ( 'NONE', ( #37 ), #256, .T. ) ;
#214 = DIRECTION ( 'NONE',  ( -1.224646799147353207E-16, -0.0000000000000000000, -1.000000000000000000 ) ) ;
#215 = DIRECTION ( 'NONE',  ( -1.224646799147353207E-16, -0.0000000000000000000, -1.000000000000000000 ) ) ;
#216 = ADVANCED_FACE ( 'NONE', ( #118 ), #287, .T. ) ;
#217 = VERTEX_POINT ( 'NONE', #246 ) ;
#218 = DIRECTION ( 'NONE',  ( 0.0000000000000000000, 0.0000000000000000000, -1.000000000000000000 ) ) ;
#219 = CARTESIAN_POINT ( 'NONE',  ( 9.184850993605150903E-17, 0.0000000000000000000, 0.7500000000000001110 ) ) ;
#220 = DIRECTION ( 'NONE',  ( 1.000000000000000000, 0.0000000000000000000, -0.0000000000000000000 ) ) ;
#221 = DIRECTION ( 'NONE',  ( 1.224646799147353207E-16, 0.0000000000000000000, 1.000000000000000000 ) ) ;
#222 = DIRECTION ( 'NONE',  ( 1.000000000000000000, 0.0000000000000000000, 0.0000000000000000000 ) ) ;
#223 =( LENGTH_UNIT ( ) NAMED_UNIT ( * ) SI_UNIT ( $, .METRE. ) );
#224 = PRESENTATION_LAYER_ASSIGNMENT (  '', '', ( #189 ) ) ;
#225 = CARTESIAN_POINT ( 'NONE',  ( 0.0000000000000000000, 0.0000000000000000000, 2.500000000000000000 ) ) ;
#226 = ORIENTED_EDGE ( 'NONE', *, *, #40, .T. ) ;
#227 = ORIENTED_EDGE ( 'NONE', *, *, #69, .T. ) ;
#228 = ORIENTED_EDGE ( 'NONE', *, *, #44, .F. ) ;
#229 = PRODUCT_CONTEXT ( 'NONE', #242, 'mechanical' ) ;
#230 = AXIS2_PLACEMENT_3D ( 'NONE', #129, #113, #84 ) ;
#231 = CARTESIAN_POINT ( 'NONE',  ( 0.0000000000000000000, 0.0000000000000000000, 2.500000000000000000 ) ) ;
#232 = FACE_OUTER_BOUND ( 'NONE', #120, .T. ) ;
#233 = AXIS2_PLACEMENT_3D ( 'NONE', #46, #119, #222 ) ;
#234 = AXIS2_PLACEMENT_3D ( 'NONE', #110, #214, #43 ) ;
#235 = DIRECTION ( 'NONE',  ( -0.0000000000000000000, -0.0000000000000000000, -1.000000000000000000 ) ) ;
#236 = EDGE_CURVE ( 'NONE', #123, #87, #177, .T. ) ;
#237 =( CONVERSION_BASED_UNIT ( 'INCH', #5 ) LENGTH_UNIT ( ) NAMED_UNIT ( #160 ) );
#238 = AXIS2_PLACEMENT_3D ( 'NONE', #7, #179, #62 ) ;
#239 = CARTESIAN_POINT ( 'NONE',  ( -0.1248749999999999999, 0.0000000000000000000, 1.529277690435257475E-17 ) ) ;
#240 = CARTESIAN_POINT ( 'NONE',  ( 0.1248750000000000970, 0.0000000000000000000, 0.7500000000000001110 ) ) ;
#241 = CARTESIAN_POINT ( 'NONE',  ( -0.1249999999999999167, 0.0000000000000000000, 0.7507089102274522308 ) ) ;
#242 = APPLICATION_CONTEXT ( 'automotive_design' ) ;
#243 = CIRCLE ( 'NONE', #107, 0.1250000000000000000 ) ;
#244 = AXIS2_PLACEMENT_3D ( 'NONE', #42, #134, #220 ) ;
#245 = CARTESIAN_POINT ( 'NONE',  ( 9.184850993605150903E-17, 0.0000000000000000000, 0.7500000000000001110 ) ) ;
#246 = CARTESIAN_POINT ( 'NONE',  ( -0.1100000000000001948, 0.0000000000000000000, 2.500000000000000000 ) ) ;
#247 = ORIENTED_EDGE ( 'NONE', *, *, #292, .F. ) ;
#248 = LINE ( 'NONE', #240, #55 ) ;
#249 = AXIS2_PLACEMENT_3D ( 'NONE', #255, #197, #258 ) ;
#250 = VERTEX_POINT ( 'NONE', #61 ) ;
#251 = ORIENTED_EDGE ( 'NONE', *, *, #77, .F. ) ;
#252 = APPLICATION_PROTOCOL_DEFINITION ( 'draft international standard', 'automotive_design', 1998, #76 ) ;
#253 = VECTOR ( 'NONE', #54, 39.37007874015748143 ) ;
#254 = EDGE_CURVE ( 'NONE', #299, #34, #155, .T. ) ;
#255 = CARTESIAN_POINT ( 'NONE',  ( 0.0000000000000000000, 0.0000000000000000000, 2.500000000000000000 ) ) ;
#256 = PLANE ( 'NONE',  #230 ) ;
#257 = SURFACE_STYLE_FILL_AREA ( #2 ) ;
#258 = DIRECTION ( 'NONE',  ( -1.000000000000000000, 0.0000000000000000000, 0.0000000000000000000 ) ) ;
#259 = DIRECTION ( 'NONE',  ( 0.0000000000000000000, 0.0000000000000000000, 1.000000000000000000 ) ) ;
#260 = PRODUCT_DEFINITION_FORMATION_WITH_SPECIFIED_SOURCE ( 'ANY', '', #51, .NOT_KNOWN. ) ;
#261 =( CONVERSION_BASED_UNIT ( 'INCH', #89 ) LENGTH_UNIT ( ) NAMED_UNIT ( #296 ) );
#262 = DIRECTION ( 'NONE',  ( -1.000000000000000000, 0.0000000000000000000, 1.224646799147353454E-16 ) ) ;
#263 = DIRECTION ( 'NONE',  ( 1.000000000000000000, 0.0000000000000000000, 0.0000000000000000000 ) ) ;
#264 = DIMENSIONAL_EXPONENTS ( 1.000000000000000000, 0.0000000000000000000, 0.0000000000000000000, 0.0000000000000000000, 0.0000000000000000000, 0.0000000000000000000, 0.0000000000000000000 ) ;
#265 = ORIENTED_EDGE ( 'NONE', *, *, #236, .T. ) ;
#266 = PLANE ( 'NONE',  #244 ) ;
#267 =( GEOMETRIC_REPRESENTATION_CONTEXT ( 3 ) GLOBAL_UNCERTAINTY_ASSIGNED_CONTEXT ( ( #144 ) ) GLOBAL_UNIT_ASSIGNED_CONTEXT ( ( #25, #168, #143 ) ) REPRESENTATION_CONTEXT ( 'NONE', 'WORKASPACE' ) );
#268 = CARTESIAN_POINT ( 'NONE',  ( 9.193532640014472135E-17, 0.0000000000000000000, 0.7507089102274522308 ) ) ;
#269 = EDGE_CURVE ( 'NONE', #250, #68, #172, .T. ) ;
#270 = FACE_OUTER_BOUND ( 'NONE', #142, .T. ) ;
#271 = CARTESIAN_POINT ( 'NONE',  ( 0.0000000000000000000, 0.0000000000000000000, 0.0000000000000000000 ) ) ;
#272 = ORIENTED_EDGE ( 'NONE', *, *, #169, .T. ) ;
#273 = UNCERTAINTY_MEASURE_WITH_UNIT (LENGTH_MEASURE( 1.000000000000000082E-05 ), #261, 'distance_accuracy_value', 'NONE');
#274 = CARTESIAN_POINT ( 'NONE',  ( 0.1100000000000001948, 1.347111479062090784E-17, 2.500000000000000000 ) ) ;
#275 = EDGE_LOOP ( 'NONE', ( #151, #146, #91, #18 ) ) ;
#276 = ADVANCED_FACE ( 'NONE', ( #270 ), #127, .T. ) ;
#277 = AXIS2_PLACEMENT_3D ( 'NONE', #6, #92, #262 ) ;
#278 = ORIENTED_EDGE ( 'NONE', *, *, #77, .T. ) ;
#279 = DIRECTION ( 'NONE',  ( 0.0000000000000000000, 0.0000000000000000000, 1.000000000000000000 ) ) ;
#280 = CIRCLE ( 'NONE', #72, 0.1250000000000000000 ) ;
#281 = EDGE_CURVE ( 'NONE', #217, #299, #66, .T. ) ;
#282 = ORIENTED_EDGE ( 'NONE', *, *, #269, .F. ) ;
#283 = SURFACE_STYLE_USAGE ( .BOTH. , #57 ) ;
#284 = CIRCLE ( 'NONE', #8, 0.1248749999999999999 ) ;
#285 = DIRECTION ( 'NONE',  ( 1.000000000000000000, 0.0000000000000000000, 0.0000000000000000000 ) ) ;
#286 = EDGE_CURVE ( 'NONE', #207, #34, #73, .T. ) ;
#287 = CYLINDRICAL_SURFACE ( 'NONE', #234, 0.1248749999999999999 ) ;
#288 = VECTOR ( 'NONE', #158, 39.37007874015747433 ) ;
#289 = CARTESIAN_POINT ( 'NONE',  ( -0.1250000000000000000, 0.0000000000000000000, 2.485000000000000320 ) ) ;
#290 = DIRECTION ( 'NONE',  ( 1.000000000000000000, 0.0000000000000000000, 0.0000000000000000000 ) ) ;
#291 =( NAMED_UNIT ( * ) PLANE_ANGLE_UNIT ( ) SI_UNIT ( $, .RADIAN. ) );
#292 = EDGE_CURVE ( 'NONE', #250, #34, #153, .T. ) ;
#293 = CONICAL_SURFACE ( 'NONE', #117, 0.1248749999999999999, 0.1745329251994339192 ) ;
#294 = SURFACE_STYLE_FILL_AREA ( #35 ) ;
#295 = LINE ( 'NONE', #93, #148 ) ;
#296 = DIMENSIONAL_EXPONENTS ( 1.000000000000000000, 0.0000000000000000000, 0.0000000000000000000, 0.0000000000000000000, 0.0000000000000000000, 0.0000000000000000000, 0.0000000000000000000 ) ;
#297 = DIRECTION ( 'NONE',  ( 0.7071067811865499042, 8.659560562354961208E-17, -0.7071067811865451302 ) ) ;
#298 = ORIENTED_EDGE ( 'NONE', *, *, #286, .F. ) ;
#299 = VERTEX_POINT ( 'NONE', #289 ) ;
ENDSEC;
END-ISO-10303-21;
