ISO-10303-21;
HEADER;
FILE_DESCRIPTION (( 'STEP AP214' ),
    '1' );
FILE_NAME ('83802.STEP',
    '2023-07-05T16:08:08',
    ( '' ),
    ( '' ),
    'SwSTEP 2.0',
    'SolidWorks 2023',
    '' );
FILE_SCHEMA (( 'AUTOMOTIVE_DESIGN' ));
ENDSEC;

DATA;
#1 = LINE ( 'NONE', #28, #230 ) ;
#2 = PRESENTATION_LAYER_ASSIGNMENT (  '', '', ( #117 ) ) ;
#3 = AXIS2_PLACEMENT_3D ( 'NONE', #32, #252, #228 ) ;
#4 = ORIENTED_EDGE ( 'NONE', *, *, #82, .F. ) ;
#5 = PRODUCT_DEFINITION_CONTEXT ( 'detailed design', #140, 'design' ) ;
#6 = EDGE_LOOP ( 'NONE', ( #76, #232, #99, #203 ) ) ;
#7 = EDGE_LOOP ( 'NONE', ( #181, #97 ) ) ;
#8 =( NAMED_UNIT ( * ) PLANE_ANGLE_UNIT ( ) SI_UNIT ( $, .RADIAN. ) );
#9 = CIRCLE ( 'NONE', #91, 0.09374999999999981959 ) ;
#10 = ADVANCED_BREP_SHAPE_REPRESENTATION ( '83802', ( #262, #264, #3 ), #27 ) ;
#11 = FILL_AREA_STYLE_COLOUR ( '', #169 ) ;
#12 = DIRECTION ( 'NONE',  ( -1.000000000000000000, 0.000000000000000000, 0.000000000000000000 ) ) ;
#13 = ADVANCED_FACE ( 'NONE', ( #54 ), #190, .F. ) ;
#14 = DIRECTION ( 'NONE',  ( -1.216906699338408135E-16, 1.000000000000000000, 0.000000000000000000 ) ) ;
#15 = APPLICATION_PROTOCOL_DEFINITION ( 'draft international standard', 'automotive_design', 1998, #140 ) ;
#16 = DIRECTION ( 'NONE',  ( 1.000000000000000000, 1.216906699338408135E-16, 0.000000000000000000 ) ) ;
#17 = DIRECTION ( 'NONE',  ( -1.000000000000000000, -1.821231995776178930E-16, 0.000000000000000000 ) ) ;
#18 = CARTESIAN_POINT ( 'NONE',  ( -6.123233995736763571E-17, 2.000000000000000000, 0.000000000000000000 ) ) ;
#19 = CARTESIAN_POINT ( 'NONE',  ( 7.870206804039943619E-19, 0.09374999999999966693, 0.000000000000000000 ) ) ;
#20 = DIRECTION ( 'NONE',  ( 0.7071067811865486830, 0.7071067811865462405, 8.659560562354947649E-17 ) ) ;
#21 = CARTESIAN_POINT ( 'NONE',  ( 0.09374999999999998612, 0.09374999999999980571, 1.148106374200643555E-17 ) ) ;
#22 = CIRCLE ( 'NONE', #244, 0.09375000000000005551 ) ;
#23 =( NAMED_UNIT ( * ) PLANE_ANGLE_UNIT ( ) SI_UNIT ( $, .RADIAN. ) );
#24 = ORIENTED_EDGE ( 'NONE', *, *, #136, .T. ) ;
#25 = PRODUCT_DEFINITION_SHAPE ( 'NONE', 'NONE',  #155 ) ;
#26 =( NAMED_UNIT ( * ) SI_UNIT ( $, .STERADIAN. ) SOLID_ANGLE_UNIT ( ) );
#27 =( GEOMETRIC_REPRESENTATION_CONTEXT ( 3 ) GLOBAL_UNCERTAINTY_ASSIGNED_CONTEXT ( ( #42 ) ) GLOBAL_UNIT_ASSIGNED_CONTEXT ( ( #67, #8, #231 ) ) REPRESENTATION_CONTEXT ( 'NONE', 'WORKASPACE' ) );
#28 = CARTESIAN_POINT ( 'NONE',  ( 0.09374999999999987510, 2.000000000000000000, 1.148106374200642938E-17 ) ) ;
#29 = ORIENTED_EDGE ( 'NONE', *, *, #217, .T. ) ;
#30 = DIRECTION ( 'NONE',  ( -1.216906699338408135E-16, 1.000000000000000000, -0.000000000000000000 ) ) ;
#31 = COLOUR_RGB ( '',1.000000000000000000, 0.000000000000000000, 0.000000000000000000 ) ;
#32 = CARTESIAN_POINT ( 'NONE',  ( 0.000000000000000000, 0.000000000000000000, 0.000000000000000000 ) ) ;
#33 = CARTESIAN_POINT ( 'NONE',  ( 1.707404996040164512E-16, 0.09374999999999966693, 0.000000000000000000 ) ) ;
#34 = ADVANCED_FACE ( 'NONE', ( #87 ), #77, .T. ) ;
#35 = DIRECTION ( 'NONE',  ( 1.000000000000000000, 0.000000000000000000, 0.000000000000000000 ) ) ;
#36 =( GEOMETRIC_REPRESENTATION_CONTEXT ( 3 ) GLOBAL_UNCERTAINTY_ASSIGNED_CONTEXT ( ( #66 ) ) GLOBAL_UNIT_ASSIGNED_CONTEXT ( ( #257, #261, #41 ) ) REPRESENTATION_CONTEXT ( 'NONE', 'WORKASPACE' ) );
#37 = DIRECTION ( 'NONE',  ( -0.7071067811865486830, 0.7071067811865462405, 0.000000000000000000 ) ) ;
#38 =( CONVERSION_BASED_UNIT ( 'INCH', #216 ) LENGTH_UNIT ( ) NAMED_UNIT ( #207 ) );
#39 = CIRCLE ( 'NONE', #170, 0.09374999999999998612 ) ;
#40 = SURFACE_STYLE_USAGE ( .BOTH. , #219 ) ;
#41 =( NAMED_UNIT ( * ) SI_UNIT ( $, .STERADIAN. ) SOLID_ANGLE_UNIT ( ) );
#42 = UNCERTAINTY_MEASURE_WITH_UNIT (LENGTH_MEASURE( 1.000000000000000082E-05 ), #67, 'distance_accuracy_value', 'NONE');
#43 = PRESENTATION_STYLE_ASSIGNMENT (( #137 ) ) ;
#44 = ORIENTED_EDGE ( 'NONE', *, *, #176, .T. ) ;
#45 =( CONVERSION_BASED_UNIT ( 'INCH', #159 ) LENGTH_UNIT ( ) NAMED_UNIT ( #215 ) );
#46 = AXIS2_PLACEMENT_3D ( 'NONE', #186, #229, #211 ) ;
#47 = EDGE_CURVE ( 'NONE', #129, #101, #39, .T. ) ;
#48 =( LENGTH_UNIT ( ) NAMED_UNIT ( * ) SI_UNIT ( $, .METRE. ) );
#49 = ORIENTED_EDGE ( 'NONE', *, *, #167, .T. ) ;
#50 = DIRECTION ( 'NONE',  ( -8.394887257642635801E-18, -1.000000000000000000, -0.000000000000000000 ) ) ;
#51 = CONICAL_SURFACE ( 'NONE', #59, 39.37007874015762354, 0.7853981633974500554 ) ;
#52 =( CONVERSION_BASED_UNIT ( 'INCH', #235 ) LENGTH_UNIT ( ) NAMED_UNIT ( #72 ) );
#53 = CARTESIAN_POINT ( 'NONE',  ( 0.09374999999999998612, 0.09374999999999966693, 1.148106374200643555E-17 ) ) ;
#54 = FACE_OUTER_BOUND ( 'NONE', #248, .T. ) ;
#55 = DIRECTION ( 'NONE',  ( -1.000000000000000000, 0.000000000000000000, 0.000000000000000000 ) ) ;
#56 = AXIS2_PLACEMENT_3D ( 'NONE', #19, #93, #175 ) ;
#57 =( LENGTH_UNIT ( ) NAMED_UNIT ( * ) SI_UNIT ( $, .METRE. ) );
#58 = FILL_AREA_STYLE_COLOUR ( '', #197 ) ;
#59 = AXIS2_PLACEMENT_3D ( 'NONE', #94, #118, #154 ) ;
#60 = PRESENTATION_STYLE_ASSIGNMENT (( #40 ) ) ;
#61 = EDGE_CURVE ( 'NONE', #105, #194, #174, .T. ) ;
#62 =( CONVERSION_BASED_UNIT ( 'INCH', #242 ) LENGTH_UNIT ( ) NAMED_UNIT ( #142 ) );
#63 = MECHANICAL_DESIGN_GEOMETRIC_PRESENTATION_REPRESENTATION (  '', ( #236 ), #92 ) ;
#64 = SURFACE_SIDE_STYLE ('',( #124 ) ) ;
#65 = EDGE_LOOP ( 'NONE', ( #103, #84, #29, #138 ) ) ;
#66 = UNCERTAINTY_MEASURE_WITH_UNIT (LENGTH_MEASURE( 1.000000000000000082E-05 ), #257, 'distance_accuracy_value', 'NONE');
#67 =( CONVERSION_BASED_UNIT ( 'INCH', #245 ) LENGTH_UNIT ( ) NAMED_UNIT ( #130 ) );
#68 = MECHANICAL_DESIGN_GEOMETRIC_PRESENTATION_REPRESENTATION (  '', ( #164 ), #221 ) ;
#69 = VERTEX_POINT ( 'NONE', #172 ) ;
#70 = CYLINDRICAL_SURFACE ( 'NONE', #46, 0.09374999999999994449 ) ;
#71 =( NAMED_UNIT ( * ) PLANE_ANGLE_UNIT ( ) SI_UNIT ( $, .RADIAN. ) );
#72 = DIMENSIONAL_EXPONENTS ( 1.000000000000000000, 0.000000000000000000, 0.000000000000000000, 0.000000000000000000, 0.000000000000000000, 0.000000000000000000, 0.000000000000000000 ) ;
#73 = APPLICATION_PROTOCOL_DEFINITION ( 'draft international standard', 'automotive_design', 1998, #189 ) ;
#74 = AXIS2_PLACEMENT_3D ( 'NONE', #143, #168, #17 ) ;
#75 = CARTESIAN_POINT ( 'NONE',  ( 7.870206804039943619E-19, 0.09374999999999966693, 0.000000000000000000 ) ) ;
#76 = ORIENTED_EDGE ( 'NONE', *, *, #106, .T. ) ;
#77 = CONICAL_SURFACE ( 'NONE', #152, 39.37007874015762354, 0.7853981633974500554 ) ;
#78 = SURFACE_STYLE_USAGE ( .BOTH. , #263 ) ;
#79 = STYLED_ITEM ( 'NONE', ( #238 ), #153 ) ;
#80 = CARTESIAN_POINT ( 'NONE',  ( -0.09375000000000001388, 2.000000000000000000, 0.000000000000000000 ) ) ;
#81 =( LENGTH_UNIT ( ) NAMED_UNIT ( * ) SI_UNIT ( $, .METRE. ) );
#82 = EDGE_CURVE ( 'NONE', #69, #101, #88, .T. ) ;
#83 = FILL_AREA_STYLE ('',( #247 ) ) ;
#84 = ORIENTED_EDGE ( 'NONE', *, *, #148, .T. ) ;
#85 =( GEOMETRIC_REPRESENTATION_CONTEXT ( 3 ) GLOBAL_UNCERTAINTY_ASSIGNED_CONTEXT ( ( #165 ) ) GLOBAL_UNIT_ASSIGNED_CONTEXT ( ( #52, #71, #86 ) ) REPRESENTATION_CONTEXT ( 'NONE', 'WORKASPACE' ) );
#86 =( NAMED_UNIT ( * ) SI_UNIT ( $, .STERADIAN. ) SOLID_ANGLE_UNIT ( ) );
#87 = FACE_OUTER_BOUND ( 'NONE', #206, .T. ) ;
#88 = LINE ( 'NONE', #110, #226 ) ;
#89 = PRODUCT_DEFINITION_FORMATION_WITH_SPECIFIED_SOURCE ( 'ANY', '', #162, .NOT_KNOWN. ) ;
#90 = DIRECTION ( 'NONE',  ( -1.216906699338408135E-16, 1.000000000000000000, -0.000000000000000000 ) ) ;
#91 = AXIS2_PLACEMENT_3D ( 'NONE', #199, #90, #195 ) ;
#92 =( GEOMETRIC_REPRESENTATION_CONTEXT ( 3 ) GLOBAL_UNCERTAINTY_ASSIGNED_CONTEXT ( ( #196 ) ) GLOBAL_UNIT_ASSIGNED_CONTEXT ( ( #45, #135, #26 ) ) REPRESENTATION_CONTEXT ( 'NONE', 'WORKASPACE' ) );
#93 = DIRECTION ( 'NONE',  ( 8.394887257642635801E-18, 1.000000000000000000, 0.000000000000000000 ) ) ;
#94 = CARTESIAN_POINT ( 'NONE',  ( 3.305073723481352533E-16, 39.37007874015748143, 0.000000000000000000 ) ) ;
#95 = SURFACE_STYLE_FILL_AREA ( #114 ) ;
#96 = DIRECTION ( 'NONE',  ( -1.216906699338408135E-16, 1.000000000000000000, -0.000000000000000000 ) ) ;
#97 = ORIENTED_EDGE ( 'NONE', *, *, #47, .F. ) ;
#98 = FILL_AREA_STYLE ('',( #220 ) ) ;
#99 = ORIENTED_EDGE ( 'NONE', *, *, #167, .F. ) ;
#100 = SURFACE_SIDE_STYLE ('',( #182 ) ) ;
#101 = VERTEX_POINT ( 'NONE', #108 ) ;
#102 = CARTESIAN_POINT ( 'NONE',  ( -0.09374999999999965306, 0.09374999999999976408, 0.000000000000000000 ) ) ;
#103 = ORIENTED_EDGE ( 'NONE', *, *, #214, .F. ) ;
#104 = UNCERTAINTY_MEASURE_WITH_UNIT (LENGTH_MEASURE( 1.000000000000000082E-05 ), #62, 'distance_accuracy_value', 'NONE');
#105 = VERTEX_POINT ( 'NONE', #166 ) ;
#106 = EDGE_CURVE ( 'NONE', #243, #180, #239, .T. ) ;
#107 = PRESENTATION_LAYER_ASSIGNMENT (  '', '', ( #236 ) ) ;
#108 = CARTESIAN_POINT ( 'NONE',  ( -0.09374999999999998612, 0.09374999999999966693, 0.000000000000000000 ) ) ;
#109 = SHAPE_DEFINITION_REPRESENTATION ( #25, #10 ) ;
#110 = CARTESIAN_POINT ( 'NONE',  ( 0.000000000000000000, 0.000000000000000000, 0.000000000000000000 ) ) ;
#111 = PLANE ( 'NONE',  #134 ) ;
#112 = CARTESIAN_POINT ( 'NONE',  ( 0.09374999999999998612, 2.000000000000000000, 0.000000000000000000 ) ) ;
#113 = FACE_OUTER_BOUND ( 'NONE', #6, .T. ) ;
#114 = FILL_AREA_STYLE ('',( #173 ) ) ;
#115 = ADVANCED_FACE ( 'NONE', ( #113 ), #70, .T. ) ;
#116 = FILL_AREA_STYLE ('',( #58 ) ) ;
#117 = STYLED_ITEM ( 'NONE', ( #265 ), #264 ) ;
#118 = DIRECTION ( 'NONE',  ( 8.394887257642635801E-18, 1.000000000000000000, 0.000000000000000000 ) ) ;
#119 = LINE ( 'NONE', #133, #128 ) ;
#120 = PLANE ( 'NONE',  #56 ) ;
#121 = AXIS2_PLACEMENT_3D ( 'NONE', #213, #30, #55 ) ;
#122 = ORIENTED_EDGE ( 'NONE', *, *, #148, .F. ) ;
#123 = EDGE_LOOP ( 'NONE', ( #4, #44, #202 ) ) ;
#124 = SURFACE_STYLE_FILL_AREA ( #98 ) ;
#125 = ORIENTED_EDGE ( 'NONE', *, *, #82, .T. ) ;
#126 = FACE_OUTER_BOUND ( 'NONE', #65, .T. ) ;
#127 = DIRECTION ( 'NONE',  ( 1.000000000000000000, 0.000000000000000000, 0.000000000000000000 ) ) ;
#128 = VECTOR ( 'NONE', #20, 39.37007874015748854 ) ;
#129 = VERTEX_POINT ( 'NONE', #53 ) ;
#130 = DIMENSIONAL_EXPONENTS ( 1.000000000000000000, 0.000000000000000000, 0.000000000000000000, 0.000000000000000000, 0.000000000000000000, 0.000000000000000000, 0.000000000000000000 ) ;
#131 = DIRECTION ( 'NONE',  ( -1.000000000000000000, -1.216906699338408135E-16, 0.000000000000000000 ) ) ;
#132 = SURFACE_STYLE_FILL_AREA ( #116 ) ;
#133 = CARTESIAN_POINT ( 'NONE',  ( 0.000000000000000000, 0.000000000000000000, 0.000000000000000000 ) ) ;
#134 = AXIS2_PLACEMENT_3D ( 'NONE', #112, #193, #16 ) ;
#135 =( NAMED_UNIT ( * ) PLANE_ANGLE_UNIT ( ) SI_UNIT ( $, .RADIAN. ) );
#136 = EDGE_CURVE ( 'NONE', #101, #129, #218, .T. ) ;
#137 = SURFACE_STYLE_USAGE ( .BOTH. , #64 ) ;
#138 = ORIENTED_EDGE ( 'NONE', *, *, #61, .F. ) ;
#139 = DIRECTION ( 'NONE',  ( -1.000000000000000000, 0.000000000000000000, 0.000000000000000000 ) ) ;
#140 = APPLICATION_CONTEXT ( 'automotive_design' ) ;
#141 = MECHANICAL_DESIGN_GEOMETRIC_PRESENTATION_REPRESENTATION (  '', ( #79 ), #36 ) ;
#142 = DIMENSIONAL_EXPONENTS ( 1.000000000000000000, 0.000000000000000000, 0.000000000000000000, 0.000000000000000000, 0.000000000000000000, 0.000000000000000000, 0.000000000000000000 ) ;
#143 = CARTESIAN_POINT ( 'NONE',  ( 1.707404996040164512E-16, 0.09374999999999979183, 0.000000000000000000 ) ) ;
#144 = MECHANICAL_DESIGN_GEOMETRIC_PRESENTATION_REPRESENTATION (  '', ( #117 ), #158 ) ;
#145 = SURFACE_STYLE_USAGE ( .BOTH. , #208 ) ;
#146 = ADVANCED_FACE ( 'NONE', ( #212 ), #111, .F. ) ;
#147 = FILL_AREA_STYLE ('',( #11 ) ) ;
#148 = EDGE_CURVE ( 'NONE', #180, #243, #9, .T. ) ;
#149 = PRESENTATION_LAYER_ASSIGNMENT (  '', '', ( #164 ) ) ;
#150 = FACE_OUTER_BOUND ( 'NONE', #123, .T. ) ;
#151 = DIRECTION ( 'NONE',  ( -1.216906699338408135E-16, 1.000000000000000000, -0.000000000000000000 ) ) ;
#152 = AXIS2_PLACEMENT_3D ( 'NONE', #251, #171, #12 ) ;
#153 = ADVANCED_FACE ( 'NONE', ( #150 ), #51, .T. ) ;
#154 = DIRECTION ( 'NONE',  ( -1.000000000000000000, 0.000000000000000000, 0.000000000000000000 ) ) ;
#155 = PRODUCT_DEFINITION ( 'UNKNOWN', '', #89, #5 ) ;
#156 = DIRECTION ( 'NONE',  ( -1.216906699338408135E-16, 1.000000000000000000, -0.000000000000000000 ) ) ;
#157 = STYLED_ITEM ( 'NONE', ( #188 ), #34 ) ;
#158 =( GEOMETRIC_REPRESENTATION_CONTEXT ( 3 ) GLOBAL_UNCERTAINTY_ASSIGNED_CONTEXT ( ( #104 ) ) GLOBAL_UNIT_ASSIGNED_CONTEXT ( ( #62, #23, #225 ) ) REPRESENTATION_CONTEXT ( 'NONE', 'WORKASPACE' ) );
#159 = LENGTH_MEASURE_WITH_UNIT ( LENGTH_MEASURE( 0.02539999999999999897 ), #161 );
#160 = ORIENTED_EDGE ( 'NONE', *, *, #61, .T. ) ;
#161 =( LENGTH_UNIT ( ) NAMED_UNIT ( * ) SI_UNIT ( $, .METRE. ) );
#162 = PRODUCT ( '83802', '83802', '', ( #234 ) ) ;
#163 = CLOSED_SHELL ( 'NONE', ( #115, #13, #209, #146 ) ) ;
#164 = STYLED_ITEM ( 'NONE', ( #60 ), #187 ) ;
#165 = UNCERTAINTY_MEASURE_WITH_UNIT (LENGTH_MEASURE( 1.000000000000000082E-05 ), #52, 'distance_accuracy_value', 'NONE');
#166 = CARTESIAN_POINT ( 'NONE',  ( 0.09374999999999998612, 2.000000000000000000, 1.148106374200643555E-17 ) ) ;
#167 = EDGE_CURVE ( 'NONE', #194, #105, #22, .T. ) ;
#168 = DIRECTION ( 'NONE',  ( -1.216906699338408135E-16, 1.000000000000000000, -0.000000000000000000 ) ) ;
#169 = COLOUR_RGB ( '',1.000000000000000000, 0.000000000000000000, 0.000000000000000000 ) ;
#170 = AXIS2_PLACEMENT_3D ( 'NONE', #256, #50, #127 ) ;
#171 = DIRECTION ( 'NONE',  ( 8.394887257642635801E-18, 1.000000000000000000, 0.000000000000000000 ) ) ;
#172 = CARTESIAN_POINT ( 'NONE',  ( 0.000000000000000000, 0.000000000000000000, 0.000000000000000000 ) ) ;
#173 = FILL_AREA_STYLE_COLOUR ( '', #31 ) ;
#174 = CIRCLE ( 'NONE', #121, 0.09375000000000005551 ) ;
#175 = DIRECTION ( 'NONE',  ( -1.000000000000000000, 8.394887257642635801E-18, 0.000000000000000000 ) ) ;
#176 = EDGE_CURVE ( 'NONE', #69, #129, #119, .T. ) ;
#177 =( LENGTH_UNIT ( ) NAMED_UNIT ( * ) SI_UNIT ( $, .METRE. ) );
#178 = PRESENTATION_LAYER_ASSIGNMENT (  '', '', ( #157 ) ) ;
#179 = CYLINDRICAL_SURFACE ( 'NONE', #185, 0.09374999999999994449 ) ;
#180 = VERTEX_POINT ( 'NONE', #21 ) ;
#181 = ORIENTED_EDGE ( 'NONE', *, *, #136, .F. ) ;
#182 = SURFACE_STYLE_FILL_AREA ( #83 ) ;
#183 = LINE ( 'NONE', #80, #204 ) ;
#184 = ORIENTED_EDGE ( 'NONE', *, *, #106, .F. ) ;
#185 = AXIS2_PLACEMENT_3D ( 'NONE', #205, #227, #139 ) ;
#186 = CARTESIAN_POINT ( 'NONE',  ( -6.123233995736763571E-17, 2.000000000000000000, 0.000000000000000000 ) ) ;
#187 = ADVANCED_FACE ( 'NONE', ( #240 ), #120, .T. ) ;
#188 = PRESENTATION_STYLE_ASSIGNMENT (( #145 ) ) ;
#189 = APPLICATION_CONTEXT ( 'automotive_design' ) ;
#190 = PLANE ( 'NONE',  #254 ) ;
#191 = DIMENSIONAL_EXPONENTS ( 1.000000000000000000, 0.000000000000000000, 0.000000000000000000, 0.000000000000000000, 0.000000000000000000, 0.000000000000000000, 0.000000000000000000 ) ;
#192 = AXIS2_PLACEMENT_3D ( 'NONE', #75, #255, #35 ) ;
#193 = DIRECTION ( 'NONE',  ( 1.216906699338408135E-16, -1.000000000000000000, 0.000000000000000000 ) ) ;
#194 = VERTEX_POINT ( 'NONE', #260 ) ;
#195 = DIRECTION ( 'NONE',  ( -1.000000000000000000, -1.821231995776178930E-16, 0.000000000000000000 ) ) ;
#196 = UNCERTAINTY_MEASURE_WITH_UNIT (LENGTH_MEASURE( 1.000000000000000082E-05 ), #45, 'distance_accuracy_value', 'NONE');
#197 = COLOUR_RGB ( '',1.000000000000000000, 0.000000000000000000, 0.000000000000000000 ) ;
#198 = DIRECTION ( 'NONE',  ( -1.000000000000000000, 0.000000000000000000, 0.000000000000000000 ) ) ;
#199 = CARTESIAN_POINT ( 'NONE',  ( 1.707404996040164512E-16, 0.09374999999999979183, 0.000000000000000000 ) ) ;
#200 = CLOSED_SHELL ( 'NONE', ( #153, #187, #34 ) ) ;
#201 = COLOUR_RGB ( '',0.7921568627450980005, 0.8196078431372548767, 0.9333333333333333481 ) ;
#202 = ORIENTED_EDGE ( 'NONE', *, *, #47, .T. ) ;
#203 = ORIENTED_EDGE ( 'NONE', *, *, #217, .F. ) ;
#204 = VECTOR ( 'NONE', #156, 39.37007874015748143 ) ;
#205 = CARTESIAN_POINT ( 'NONE',  ( -6.123233995736763571E-17, 2.000000000000000000, 0.000000000000000000 ) ) ;
#206 = EDGE_LOOP ( 'NONE', ( #249, #125, #24 ) ) ;
#207 = DIMENSIONAL_EXPONENTS ( 1.000000000000000000, 0.000000000000000000, 0.000000000000000000, 0.000000000000000000, 0.000000000000000000, 0.000000000000000000, 0.000000000000000000 ) ;
#208 = SURFACE_SIDE_STYLE ('',( #233 ) ) ;
#209 = ADVANCED_FACE ( 'NONE', ( #126 ), #179, .T. ) ;
#210 = COLOUR_RGB ( '',0.7921568627450980005, 0.8196078431372548767, 0.9333333333333333481 ) ;
#211 = DIRECTION ( 'NONE',  ( -1.000000000000000000, 0.000000000000000000, 0.000000000000000000 ) ) ;
#212 = FACE_OUTER_BOUND ( 'NONE', #223, .T. ) ;
#213 = CARTESIAN_POINT ( 'NONE',  ( -6.123233995736763571E-17, 2.000000000000000000, 0.000000000000000000 ) ) ;
#214 = EDGE_CURVE ( 'NONE', #180, #105, #1, .T. ) ;
#215 = DIMENSIONAL_EXPONENTS ( 1.000000000000000000, 0.000000000000000000, 0.000000000000000000, 0.000000000000000000, 0.000000000000000000, 0.000000000000000000, 0.000000000000000000 ) ;
#216 = LENGTH_MEASURE_WITH_UNIT ( LENGTH_MEASURE( 0.02539999999999999897 ), #57 );
#217 = EDGE_CURVE ( 'NONE', #243, #194, #183, .T. ) ;
#218 = CIRCLE ( 'NONE', #192, 0.09374999999999998612 ) ;
#219 = SURFACE_SIDE_STYLE ('',( #132 ) ) ;
#220 = FILL_AREA_STYLE_COLOUR ( '', #201 ) ;
#221 =( GEOMETRIC_REPRESENTATION_CONTEXT ( 3 ) GLOBAL_UNCERTAINTY_ASSIGNED_CONTEXT ( ( #224 ) ) GLOBAL_UNIT_ASSIGNED_CONTEXT ( ( #38, #259, #237 ) ) REPRESENTATION_CONTEXT ( 'NONE', 'WORKASPACE' ) );
#222 = SURFACE_STYLE_USAGE ( .BOTH. , #100 ) ;
#223 = EDGE_LOOP ( 'NONE', ( #49, #160 ) ) ;
#224 = UNCERTAINTY_MEASURE_WITH_UNIT (LENGTH_MEASURE( 1.000000000000000082E-05 ), #38, 'distance_accuracy_value', 'NONE');
#225 =( NAMED_UNIT ( * ) SI_UNIT ( $, .STERADIAN. ) SOLID_ANGLE_UNIT ( ) );
#226 = VECTOR ( 'NONE', #37, 39.37007874015748854 ) ;
#227 = DIRECTION ( 'NONE',  ( -1.216906699338408135E-16, 1.000000000000000000, -0.000000000000000000 ) ) ;
#228 = DIRECTION ( 'NONE',  ( 1.000000000000000000, 0.000000000000000000, 0.000000000000000000 ) ) ;
#229 = DIRECTION ( 'NONE',  ( -1.216906699338408135E-16, 1.000000000000000000, -0.000000000000000000 ) ) ;
#230 = VECTOR ( 'NONE', #96, 39.37007874015748143 ) ;
#231 =( NAMED_UNIT ( * ) SI_UNIT ( $, .STERADIAN. ) SOLID_ANGLE_UNIT ( ) );
#232 = ORIENTED_EDGE ( 'NONE', *, *, #214, .T. ) ;
#233 = SURFACE_STYLE_FILL_AREA ( #147 ) ;
#234 = PRODUCT_CONTEXT ( 'NONE', #189, 'mechanical' ) ;
#235 = LENGTH_MEASURE_WITH_UNIT ( LENGTH_MEASURE( 0.02539999999999999897 ), #253 );
#236 = STYLED_ITEM ( 'NONE', ( #43 ), #262 ) ;
#237 =( NAMED_UNIT ( * ) SI_UNIT ( $, .STERADIAN. ) SOLID_ANGLE_UNIT ( ) );
#238 = PRESENTATION_STYLE_ASSIGNMENT (( #78 ) ) ;
#239 = CIRCLE ( 'NONE', #74, 0.09374999999999981959 ) ;
#240 = FACE_OUTER_BOUND ( 'NONE', #7, .T. ) ;
#241 = LENGTH_MEASURE_WITH_UNIT ( LENGTH_MEASURE( 0.02539999999999999897 ), #177 );
#242 = LENGTH_MEASURE_WITH_UNIT ( LENGTH_MEASURE( 0.02539999999999999897 ), #48 );
#243 = VERTEX_POINT ( 'NONE', #102 ) ;
#244 = AXIS2_PLACEMENT_3D ( 'NONE', #18, #151, #198 ) ;
#245 = LENGTH_MEASURE_WITH_UNIT ( LENGTH_MEASURE( 0.02539999999999999897 ), #81 );
#246 = PRODUCT_RELATED_PRODUCT_CATEGORY ( 'part', '', ( #162 ) ) ;
#247 = FILL_AREA_STYLE_COLOUR ( '', #210 ) ;
#248 = EDGE_LOOP ( 'NONE', ( #184, #122 ) ) ;
#249 = ORIENTED_EDGE ( 'NONE', *, *, #176, .F. ) ;
#250 = PRESENTATION_LAYER_ASSIGNMENT (  '', '', ( #79 ) ) ;
#251 = CARTESIAN_POINT ( 'NONE',  ( 3.305073723481352533E-16, 39.37007874015748143, 0.000000000000000000 ) ) ;
#252 = DIRECTION ( 'NONE',  ( 0.000000000000000000, 0.000000000000000000, 1.000000000000000000 ) ) ;
#253 =( LENGTH_UNIT ( ) NAMED_UNIT ( * ) SI_UNIT ( $, .METRE. ) );
#254 = AXIS2_PLACEMENT_3D ( 'NONE', #33, #14, #131 ) ;
#255 = DIRECTION ( 'NONE',  ( -8.394887257642635801E-18, -1.000000000000000000, -0.000000000000000000 ) ) ;
#256 = CARTESIAN_POINT ( 'NONE',  ( 7.870206804039943619E-19, 0.09374999999999966693, 0.000000000000000000 ) ) ;
#257 =( CONVERSION_BASED_UNIT ( 'INCH', #241 ) LENGTH_UNIT ( ) NAMED_UNIT ( #191 ) );
#258 = MECHANICAL_DESIGN_GEOMETRIC_PRESENTATION_REPRESENTATION (  '', ( #157 ), #85 ) ;
#259 =( NAMED_UNIT ( * ) PLANE_ANGLE_UNIT ( ) SI_UNIT ( $, .RADIAN. ) );
#260 = CARTESIAN_POINT ( 'NONE',  ( -0.09375000000000012490, 2.000000000000000000, 0.000000000000000000 ) ) ;
#261 =( NAMED_UNIT ( * ) PLANE_ANGLE_UNIT ( ) SI_UNIT ( $, .RADIAN. ) );
#262 = MANIFOLD_SOLID_BREP ( 'Revolve - Cutting Edge', #200 ) ;
#263 = SURFACE_SIDE_STYLE ('',( #95 ) ) ;
#264 = MANIFOLD_SOLID_BREP ( 'Revolve - Tool Body (Pointed)', #163 ) ;
#265 = PRESENTATION_STYLE_ASSIGNMENT (( #222 ) ) ;
ENDSEC;
END-ISO-10303-21;
