ISO-10303-21;
HEADER;
FILE_DESCRIPTION (( 'STEP AP214' ),
    '1' );
FILE_NAME ('59542.STEP',
    '2023-07-24T15:10:00',
    ( '' ),
    ( '' ),
    'SwSTEP 2.0',
    'SolidWorks 2023',
    '' );
FILE_SCHEMA (( 'AUTOMOTIVE_DESIGN' ));
ENDSEC;

DATA;
#1 = CARTESIAN_POINT ( 'NONE',  ( 5.204170427930421283E-15, 20.00000000000000355, 0.000000000000000000 ) ) ;
#2 = FACE_OUTER_BOUND ( 'NONE', #161, .T. ) ;
#3 = APPLICATION_PROTOCOL_DEFINITION ( 'draft international standard', 'automotive_design', 1998, #109 ) ;
#4 = SURFACE_STYLE_USAGE ( .BOTH. , #167 ) ;
#5 = DIRECTION ( 'NONE',  ( 0.000000000000000000, 0.000000000000000000, 1.000000000000000000 ) ) ;
#6 = SURFACE_SIDE_STYLE ('',( #146 ) ) ;
#7 = PRESENTATION_LAYER_ASSIGNMENT (  '', '', ( #50 ) ) ;
#8 =( GEOMETRIC_REPRESENTATION_CONTEXT ( 3 ) GLOBAL_UNCERTAINTY_ASSIGNED_CONTEXT ( ( #17 ) ) GLOBAL_UNIT_ASSIGNED_CONTEXT ( ( #28, #280, #311 ) ) REPRESENTATION_CONTEXT ( 'NONE', 'WORKASPACE' ) );
#9 = FACE_OUTER_BOUND ( 'NONE', #23, .T. ) ;
#10 =( NAMED_UNIT ( * ) SI_UNIT ( $, .STERADIAN. ) SOLID_ANGLE_UNIT ( ) );
#11 = EDGE_CURVE ( 'NONE', #14, #40, #79, .T. ) ;
#12 = VERTEX_POINT ( 'NONE', #52 ) ;
#13 =( NAMED_UNIT ( * ) PLANE_ANGLE_UNIT ( ) SI_UNIT ( $, .RADIAN. ) );
#14 = VERTEX_POINT ( 'NONE', #114 ) ;
#15 = AXIS2_PLACEMENT_3D ( 'NONE', #129, #175, #123 ) ;
#16 = MECHANICAL_DESIGN_GEOMETRIC_PRESENTATION_REPRESENTATION (  '', ( #49 ), #8 ) ;
#17 = UNCERTAINTY_MEASURE_WITH_UNIT (LENGTH_MEASURE( 1.000000000000000082E-05 ), #28, 'distance_accuracy_value', 'NONE');
#18 = CIRCLE ( 'NONE', #327, 4.000000000000000000 ) ;
#19 = ORIENTED_EDGE ( 'NONE', *, *, #86, .T. ) ;
#20 = ORIENTED_EDGE ( 'NONE', *, *, #57, .T. ) ;
#21 = ORIENTED_EDGE ( 'NONE', *, *, #199, .F. ) ;
#22 = AXIS2_PLACEMENT_3D ( 'NONE', #347, #262, #348 ) ;
#23 = EDGE_LOOP ( 'NONE', ( #160, #55, #359, #237 ) ) ;
#24 = CARTESIAN_POINT ( 'NONE',  ( 0.000000000000000000, 1.000000000000000000, 0.000000000000000000 ) ) ;
#25 = CARTESIAN_POINT ( 'NONE',  ( 4.999999999999999112, 63.00000000000000000, 6.123233995736761352E-16 ) ) ;
#26 = FILL_AREA_STYLE ('',( #250 ) ) ;
#27 = AXIS2_PLACEMENT_3D ( 'NONE', #217, #334, #83 ) ;
#28 =( LENGTH_UNIT ( ) NAMED_UNIT ( * ) SI_UNIT ( .MILLI., .METRE. ) );
#29 = CARTESIAN_POINT ( 'NONE',  ( 5.000000000000000000, 63.00000000000000000, 6.123233995736762338E-16 ) ) ;
#30 =( GEOMETRIC_REPRESENTATION_CONTEXT ( 3 ) GLOBAL_UNCERTAINTY_ASSIGNED_CONTEXT ( ( #155 ) ) GLOBAL_UNIT_ASSIGNED_CONTEXT ( ( #336, #309, #164 ) ) REPRESENTATION_CONTEXT ( 'NONE', 'WORKASPACE' ) );
#31 = VECTOR ( 'NONE', #308, 1000.000000000000000 ) ;
#32 = AXIS2_PLACEMENT_3D ( 'NONE', #71, #293, #301 ) ;
#33 = FACE_OUTER_BOUND ( 'NONE', #157, .T. ) ;
#34 = DIRECTION ( 'NONE',  ( -0.000000000000000000, -1.000000000000000000, -0.000000000000000000 ) ) ;
#35 = DIRECTION ( 'NONE',  ( 0.000000000000000000, 0.000000000000000000, -1.000000000000000000 ) ) ;
#36 = CIRCLE ( 'NONE', #201, 5.000000000000000000 ) ;
#37 = PRODUCT_RELATED_PRODUCT_CATEGORY ( 'part', '', ( #148 ) ) ;
#38 = DIRECTION ( 'NONE',  ( -4.697880814296055710E-17, 1.000000000000000000, 0.000000000000000000 ) ) ;
#39 = CARTESIAN_POINT ( 'NONE',  ( 0.000000000000000000, 0.000000000000000000, -4.000000000000000000 ) ) ;
#40 = VERTEX_POINT ( 'NONE', #331 ) ;
#41 = UNCERTAINTY_MEASURE_WITH_UNIT (LENGTH_MEASURE( 1.000000000000000082E-05 ), #251, 'distance_accuracy_value', 'NONE');
#42 = SURFACE_SIDE_STYLE ('',( #184 ) ) ;
#43 = FILL_AREA_STYLE ('',( #345 ) ) ;
#44 = ORIENTED_EDGE ( 'NONE', *, *, #68, .T. ) ;
#45 = FILL_AREA_STYLE ('',( #323 ) ) ;
#46 = SURFACE_STYLE_USAGE ( .BOTH. , #244 ) ;
#47 = ORIENTED_EDGE ( 'NONE', *, *, #147, .T. ) ;
#48 = AXIS2_PLACEMENT_3D ( 'NONE', #96, #38, #205 ) ;
#49 = STYLED_ITEM ( 'NONE', ( #200 ), #180 ) ;
#50 = STYLED_ITEM ( 'NONE', ( #194 ), #369 ) ;
#51 = VERTEX_POINT ( 'NONE', #189 ) ;
#52 = CARTESIAN_POINT ( 'NONE',  ( 6.123233995736766282E-16, 1.000000000000000000, 5.000000000000000000 ) ) ;
#53 = ORIENTED_EDGE ( 'NONE', *, *, #11, .F. ) ;
#54 = DIRECTION ( 'NONE',  ( 0.000000000000000000, 1.000000000000000000, 0.000000000000000000 ) ) ;
#55 = ORIENTED_EDGE ( 'NONE', *, *, #360, .T. ) ;
#56 = SURFACE_STYLE_FILL_AREA ( #142 ) ;
#57 = EDGE_CURVE ( 'NONE', #51, #131, #137, .T. ) ;
#58 = TOROIDAL_SURFACE ( 'NONE', #139, 4.000000000000000000, 1.000000000000000000 ) ;
#59 = AXIS2_PLACEMENT_3D ( 'NONE', #259, #352, #5 ) ;
#60 = DIRECTION ( 'NONE',  ( 0.000000000000000000, 0.000000000000000000, -1.000000000000000000 ) ) ;
#61 = APPLICATION_CONTEXT ( 'automotive_design' ) ;
#62 =( NAMED_UNIT ( * ) PLANE_ANGLE_UNIT ( ) SI_UNIT ( $, .RADIAN. ) );
#63 = SURFACE_STYLE_FILL_AREA ( #198 ) ;
#64 = COLOUR_RGB ( '',0.7921568627450980005, 0.8196078431372548767, 0.9333333333333333481 ) ;
#65 = VECTOR ( 'NONE', #339, 1000.000000000000000 ) ;
#66 = DIRECTION ( 'NONE',  ( 0.000000000000000000, 0.000000000000000000, -1.000000000000000000 ) ) ;
#67 =( NAMED_UNIT ( * ) PLANE_ANGLE_UNIT ( ) SI_UNIT ( $, .RADIAN. ) );
#68 = EDGE_CURVE ( 'NONE', #356, #51, #36, .T. ) ;
#69 = DIRECTION ( 'NONE',  ( -0.000000000000000000, -1.000000000000000000, -0.000000000000000000 ) ) ;
#70 = CARTESIAN_POINT ( 'NONE',  ( 3.184081677783117402E-15, 63.00000000000000000, 0.000000000000000000 ) ) ;
#71 = CARTESIAN_POINT ( 'NONE',  ( 3.184081677783117402E-15, 63.00000000000000000, 0.000000000000000000 ) ) ;
#72 = CIRCLE ( 'NONE', #15, 1.000000000000000000 ) ;
#73 =( GEOMETRIC_REPRESENTATION_CONTEXT ( 3 ) GLOBAL_UNCERTAINTY_ASSIGNED_CONTEXT ( ( #210 ) ) GLOBAL_UNIT_ASSIGNED_CONTEXT ( ( #233, #13, #104 ) ) REPRESENTATION_CONTEXT ( 'NONE', 'WORKASPACE' ) );
#74 = ORIENTED_EDGE ( 'NONE', *, *, #224, .F. ) ;
#75 = FILL_AREA_STYLE_COLOUR ( '', #88 ) ;
#76 = SURFACE_STYLE_FILL_AREA ( #241 ) ;
#77 = UNCERTAINTY_MEASURE_WITH_UNIT (LENGTH_MEASURE( 1.000000000000000082E-05 ), #226, 'distance_accuracy_value', 'NONE');
#78 = ORIENTED_EDGE ( 'NONE', *, *, #304, .F. ) ;
#79 = CIRCLE ( 'NONE', #290, 4.999999999999994671 ) ;
#80 = CIRCLE ( 'NONE', #59, 1.000000000000000000 ) ;
#81 = DIRECTION ( 'NONE',  ( 0.000000000000000000, 0.000000000000000000, -1.000000000000000000 ) ) ;
#82 = EDGE_CURVE ( 'NONE', #12, #131, #101, .T. ) ;
#83 = DIRECTION ( 'NONE',  ( 1.000000000000000000, 4.697880814296055710E-17, 0.000000000000000000 ) ) ;
#84 = ORIENTED_EDGE ( 'NONE', *, *, #82, .T. ) ;
#85 =( GEOMETRIC_REPRESENTATION_CONTEXT ( 3 ) GLOBAL_UNCERTAINTY_ASSIGNED_CONTEXT ( ( #77 ) ) GLOBAL_UNIT_ASSIGNED_CONTEXT ( ( #226, #62, #91 ) ) REPRESENTATION_CONTEXT ( 'NONE', 'WORKASPACE' ) );
#86 = EDGE_CURVE ( 'NONE', #14, #297, #305, .T. ) ;
#87 = DIRECTION ( 'NONE',  ( 0.000000000000000000, 0.000000000000000000, -1.000000000000000000 ) ) ;
#88 = COLOUR_RGB ( '',0.7921568627450980005, 0.8196078431372548767, 0.9333333333333333481 ) ;
#89 = DIRECTION ( 'NONE',  ( -0.000000000000000000, -1.000000000000000000, -0.000000000000000000 ) ) ;
#90 = APPLICATION_PROTOCOL_DEFINITION ( 'draft international standard', 'automotive_design', 1998, #61 ) ;
#91 =( NAMED_UNIT ( * ) SI_UNIT ( $, .STERADIAN. ) SOLID_ANGLE_UNIT ( ) );
#92 = DIRECTION ( 'NONE',  ( -0.000000000000000000, -1.000000000000000000, -0.000000000000000000 ) ) ;
#93 = CIRCLE ( 'NONE', #278, 4.000000000000000000 ) ;
#94 = COLOUR_RGB ( '',1.000000000000000000, 0.000000000000000000, 0.000000000000000000 ) ;
#95 = FILL_AREA_STYLE ('',( #75 ) ) ;
#96 = CARTESIAN_POINT ( 'NONE',  ( 5.204170427930421283E-15, 20.00000000000000000, 0.000000000000000000 ) ) ;
#97 = CARTESIAN_POINT ( 'NONE',  ( 5.510910596163088569E-16, 0.000000000000000000, 4.000000000000000000 ) ) ;
#98 = ORIENTED_EDGE ( 'NONE', *, *, #195, .T. ) ;
#99 = SURFACE_STYLE_FILL_AREA ( #95 ) ;
#100 = LINE ( 'NONE', #296, #112 ) ;
#101 = CIRCLE ( 'NONE', #111, 5.000000000000000000 ) ;
#102 =( GEOMETRIC_REPRESENTATION_CONTEXT ( 3 ) GLOBAL_UNCERTAINTY_ASSIGNED_CONTEXT ( ( #326 ) ) GLOBAL_UNIT_ASSIGNED_CONTEXT ( ( #289, #67, #10 ) ) REPRESENTATION_CONTEXT ( 'NONE', 'WORKASPACE' ) );
#103 = ORIENTED_EDGE ( 'NONE', *, *, #187, .F. ) ;
#104 =( NAMED_UNIT ( * ) SI_UNIT ( $, .STERADIAN. ) SOLID_ANGLE_UNIT ( ) );
#105 = SURFACE_STYLE_USAGE ( .BOTH. , #6 ) ;
#106 = ORIENTED_EDGE ( 'NONE', *, *, #360, .F. ) ;
#107 = SURFACE_SIDE_STYLE ('',( #56 ) ) ;
#108 = ORIENTED_EDGE ( 'NONE', *, *, #304, .T. ) ;
#109 = APPLICATION_CONTEXT ( 'automotive_design' ) ;
#110 = DIRECTION ( 'NONE',  ( -0.000000000000000000, -1.000000000000000000, -0.000000000000000000 ) ) ;
#111 = AXIS2_PLACEMENT_3D ( 'NONE', #333, #110, #81 ) ;
#112 = VECTOR ( 'NONE', #287, 1000.000000000000000 ) ;
#113 = ADVANCED_FACE ( 'NONE', ( #248 ), #363, .F. ) ;
#114 = CARTESIAN_POINT ( 'NONE',  ( -4.999999999999989342, 20.00000000000000355, 0.000000000000000000 ) ) ;
#115 = ORIENTED_EDGE ( 'NONE', *, *, #82, .F. ) ;
#116 = MECHANICAL_DESIGN_GEOMETRIC_PRESENTATION_REPRESENTATION (  '', ( #125 ), #261 ) ;
#117 = FACE_OUTER_BOUND ( 'NONE', #249, .T. ) ;
#118 = CARTESIAN_POINT ( 'NONE',  ( 0.000000000000000000, 0.000000000000000000, 0.000000000000000000 ) ) ;
#119 = CIRCLE ( 'NONE', #202, 4.999999999999994671 ) ;
#120 = PLANE ( 'NONE',  #300 ) ;
#121 =( LENGTH_UNIT ( ) NAMED_UNIT ( * ) SI_UNIT ( .MILLI., .METRE. ) );
#122 = FILL_AREA_STYLE_COLOUR ( '', #312 ) ;
#123 = DIRECTION ( 'NONE',  ( -1.224646799147353454E-16, 0.000000000000000000, -1.000000000000000000 ) ) ;
#124 = DIRECTION ( 'NONE',  ( 0.000000000000000000, 0.000000000000000000, -1.000000000000000000 ) ) ;
#125 = STYLED_ITEM ( 'NONE', ( #145 ), #254 ) ;
#126 = CYLINDRICAL_SURFACE ( 'NONE', #220, 4.999999999999995559 ) ;
#127 = PRODUCT_DEFINITION_SHAPE ( 'NONE', 'NONE',  #299 ) ;
#128 = EDGE_LOOP ( 'NONE', ( #274, #136 ) ) ;
#129 = CARTESIAN_POINT ( 'NONE',  ( 4.898587196589412829E-16, 1.000000000000000000, 4.000000000000000000 ) ) ;
#130 = DIRECTION ( 'NONE',  ( 0.000000000000000000, 0.000000000000000000, -1.000000000000000000 ) ) ;
#131 = VERTEX_POINT ( 'NONE', #191 ) ;
#132 = SURFACE_STYLE_USAGE ( .BOTH. , #154 ) ;
#133 = AXIS2_PLACEMENT_3D ( 'NONE', #173, #315, #229 ) ;
#134 =( GEOMETRIC_REPRESENTATION_CONTEXT ( 3 ) GLOBAL_UNCERTAINTY_ASSIGNED_CONTEXT ( ( #238 ) ) GLOBAL_UNIT_ASSIGNED_CONTEXT ( ( #319, #285, #171 ) ) REPRESENTATION_CONTEXT ( 'NONE', 'WORKASPACE' ) );
#135 = SURFACE_STYLE_FILL_AREA ( #26 ) ;
#136 = ORIENTED_EDGE ( 'NONE', *, *, #68, .F. ) ;
#137 = LINE ( 'NONE', #364, #31 ) ;
#138 = ADVANCED_FACE ( 'NONE', ( #9 ), #204, .T. ) ;
#139 = AXIS2_PLACEMENT_3D ( 'NONE', #24, #92, #341 ) ;
#140 = DIRECTION ( 'NONE',  ( -4.697880814296055710E-17, 1.000000000000000000, -0.000000000000000000 ) ) ;
#141 = ORIENTED_EDGE ( 'NONE', *, *, #170, .F. ) ;
#142 = FILL_AREA_STYLE ('',( #330 ) ) ;
#143 = PRESENTATION_STYLE_ASSIGNMENT (( #46 ) ) ;
#144 = AXIS2_PLACEMENT_3D ( 'NONE', #186, #54, #365 ) ;
#145 = PRESENTATION_STYLE_ASSIGNMENT (( #4 ) ) ;
#146 = SURFACE_STYLE_FILL_AREA ( #43 ) ;
#147 = EDGE_CURVE ( 'NONE', #131, #12, #307, .T. ) ;
#148 = PRODUCT ( '59542', '59542', '', ( #282 ) ) ;
#149 = FACE_OUTER_BOUND ( 'NONE', #243, .T. ) ;
#150 = SURFACE_STYLE_USAGE ( .BOTH. , #182 ) ;
#151 = MECHANICAL_DESIGN_GEOMETRIC_PRESENTATION_REPRESENTATION (  '', ( #193 ), #102 ) ;
#152 = PRESENTATION_STYLE_ASSIGNMENT (( #320 ) ) ;
#153 = ORIENTED_EDGE ( 'NONE', *, *, #276, .T. ) ;
#154 = SURFACE_SIDE_STYLE ('',( #99 ) ) ;
#155 = UNCERTAINTY_MEASURE_WITH_UNIT (LENGTH_MEASURE( 1.000000000000000082E-05 ), #336, 'distance_accuracy_value', 'NONE');
#156 =( GEOMETRIC_REPRESENTATION_CONTEXT ( 3 ) GLOBAL_UNCERTAINTY_ASSIGNED_CONTEXT ( ( #41 ) ) GLOBAL_UNIT_ASSIGNED_CONTEXT ( ( #251, #163, #219 ) ) REPRESENTATION_CONTEXT ( 'NONE', 'WORKASPACE' ) );
#157 = EDGE_LOOP ( 'NONE', ( #270, #108, #335, #214 ) ) ;
#158 = ADVANCED_FACE ( 'NONE', ( #149 ), #126, .T. ) ;
#159 = CARTESIAN_POINT ( 'NONE',  ( 0.000000000000000000, 20.00000000000000000, 0.000000000000000000 ) ) ;
#160 = ORIENTED_EDGE ( 'NONE', *, *, #11, .T. ) ;
#161 = EDGE_LOOP ( 'NONE', ( #288, #190 ) ) ;
#162 = AXIS2_PLACEMENT_3D ( 'NONE', #342, #34, #87 ) ;
#163 =( NAMED_UNIT ( * ) PLANE_ANGLE_UNIT ( ) SI_UNIT ( $, .RADIAN. ) );
#164 =( NAMED_UNIT ( * ) SI_UNIT ( $, .STERADIAN. ) SOLID_ANGLE_UNIT ( ) );
#165 = CIRCLE ( 'NONE', #222, 4.999999999999996447 ) ;
#166 = ADVANCED_FACE ( 'NONE', ( #292 ), #295, .F. ) ;
#167 = SURFACE_SIDE_STYLE ('',( #63 ) ) ;
#168 = MECHANICAL_DESIGN_GEOMETRIC_PRESENTATION_REPRESENTATION (  '', ( #242 ), #85 ) ;
#169 = FILL_AREA_STYLE ('',( #351 ) ) ;
#170 = EDGE_CURVE ( 'NONE', #12, #322, #72, .T. ) ;
#171 =( NAMED_UNIT ( * ) SI_UNIT ( $, .STERADIAN. ) SOLID_ANGLE_UNIT ( ) );
#172 = MANIFOLD_SOLID_BREP ( 'Revolve - Tool Body (Straight Shanked)', #256 ) ;
#173 = CARTESIAN_POINT ( 'NONE',  ( 0.000000000000000000, 0.000000000000000000, 0.000000000000000000 ) ) ;
#174 = MANIFOLD_SOLID_BREP ( 'Revolve - Cutting Edge', #367 ) ;
#175 = DIRECTION ( 'NONE',  ( 1.000000000000000000, 0.000000000000000000, -1.224646799147353207E-16 ) ) ;
#176 = DIRECTION ( 'NONE',  ( 0.000000000000000000, 0.000000000000000000, -1.000000000000000000 ) ) ;
#177 = CARTESIAN_POINT ( 'NONE',  ( 0.000000000000000000, 1.000000000000000000, 0.000000000000000000 ) ) ;
#178 =( NAMED_UNIT ( * ) PLANE_ANGLE_UNIT ( ) SI_UNIT ( $, .RADIAN. ) );
#179 = AXIS2_PLACEMENT_3D ( 'NONE', #321, #236, #349 ) ;
#180 = ADVANCED_FACE ( 'NONE', ( #225 ), #181, .T. ) ;
#181 = CYLINDRICAL_SURFACE ( 'NONE', #162, 5.000000000000000000 ) ;
#182 = SURFACE_SIDE_STYLE ('',( #76 ) ) ;
#183 = ORIENTED_EDGE ( 'NONE', *, *, #224, .T. ) ;
#184 = SURFACE_STYLE_FILL_AREA ( #45 ) ;
#185 = ORIENTED_EDGE ( 'NONE', *, *, #357, .T. ) ;
#186 = CARTESIAN_POINT ( 'NONE',  ( 0.000000000000000000, 20.00000000000000000, 0.000000000000000000 ) ) ;
#187 = EDGE_CURVE ( 'NONE', #322, #266, #18, .T. ) ;
#188 = AXIS2_PLACEMENT_3D ( 'NONE', #328, #203, #124 ) ;
#189 = CARTESIAN_POINT ( 'NONE',  ( 0.000000000000000000, 20.00000000000000000, -5.000000000000000000 ) ) ;
#190 = ORIENTED_EDGE ( 'NONE', *, *, #187, .T. ) ;
#191 = CARTESIAN_POINT ( 'NONE',  ( 0.000000000000000000, 1.000000000000000000, -5.000000000000000000 ) ) ;
#192 = MECHANICAL_DESIGN_GEOMETRIC_PRESENTATION_REPRESENTATION (  '', ( #50 ), #30 ) ;
#193 = STYLED_ITEM ( 'NONE', ( #234 ), #310 ) ;
#194 = PRESENTATION_STYLE_ASSIGNMENT (( #223 ) ) ;
#195 = EDGE_CURVE ( 'NONE', #297, #218, #165, .T. ) ;
#196 = COLOUR_RGB ( '',1.000000000000000000, 0.000000000000000000, 0.000000000000000000 ) ;
#197 = DIRECTION ( 'NONE',  ( -4.697880814296055710E-17, 1.000000000000000000, -0.000000000000000000 ) ) ;
#198 = FILL_AREA_STYLE ('',( #230 ) ) ;
#199 = EDGE_CURVE ( 'NONE', #266, #322, #93, .T. ) ;
#200 = PRESENTATION_STYLE_ASSIGNMENT (( #283 ) ) ;
#201 = AXIS2_PLACEMENT_3D ( 'NONE', #159, #246, #361 ) ;
#202 = AXIS2_PLACEMENT_3D ( 'NONE', #1, #255, #286 ) ;
#203 = DIRECTION ( 'NONE',  ( -0.000000000000000000, -1.000000000000000000, -0.000000000000000000 ) ) ;
#204 = CYLINDRICAL_SURFACE ( 'NONE', #22, 4.999999999999995559 ) ;
#205 = DIRECTION ( 'NONE',  ( -1.000000000000000000, -4.697880814296055710E-17, 0.000000000000000000 ) ) ;
#206 = CARTESIAN_POINT ( 'NONE',  ( 6.123233995736766282E-16, 20.00000000000000000, 5.000000000000000000 ) ) ;
#207 = VECTOR ( 'NONE', #140, 1000.000000000000000 ) ;
#208 = FACE_OUTER_BOUND ( 'NONE', #245, .T. ) ;
#209 = PRESENTATION_LAYER_ASSIGNMENT (  '', '', ( #193 ) ) ;
#210 = UNCERTAINTY_MEASURE_WITH_UNIT (LENGTH_MEASURE( 1.000000000000000082E-05 ), #233, 'distance_accuracy_value', 'NONE');
#211 = PRESENTATION_STYLE_ASSIGNMENT (( #132 ) ) ;
#212 = DIRECTION ( 'NONE',  ( 0.000000000000000000, -1.000000000000000000, -0.000000000000000000 ) ) ;
#213 = EDGE_LOOP ( 'NONE', ( #78, #44, #20, #115 ) ) ;
#214 = ORIENTED_EDGE ( 'NONE', *, *, #57, .F. ) ;
#215 = MECHANICAL_DESIGN_GEOMETRIC_PRESENTATION_REPRESENTATION (  '', ( #273 ), #346 ) ;
#216 = ORIENTED_EDGE ( 'NONE', *, *, #170, .T. ) ;
#217 = CARTESIAN_POINT ( 'NONE',  ( 5.000000000000000000, 63.00000000000000000, 0.000000000000000000 ) ) ;
#218 = VERTEX_POINT ( 'NONE', #29 ) ;
#219 =( NAMED_UNIT ( * ) SI_UNIT ( $, .STERADIAN. ) SOLID_ANGLE_UNIT ( ) );
#220 = AXIS2_PLACEMENT_3D ( 'NONE', #70, #235, #264 ) ;
#221 = PRESENTATION_LAYER_ASSIGNMENT (  '', '', ( #49 ) ) ;
#222 = AXIS2_PLACEMENT_3D ( 'NONE', #257, #197, #344 ) ;
#223 = SURFACE_STYLE_USAGE ( .BOTH. , #107 ) ;
#224 = EDGE_CURVE ( 'NONE', #40, #14, #119, .T. ) ;
#225 = FACE_OUTER_BOUND ( 'NONE', #213, .T. ) ;
#226 =( LENGTH_UNIT ( ) NAMED_UNIT ( * ) SI_UNIT ( .MILLI., .METRE. ) );
#227 = AXIS2_PLACEMENT_3D ( 'NONE', #177, #240, #35 ) ;
#228 = CIRCLE ( 'NONE', #32, 4.999999999999996447 ) ;
#229 = DIRECTION ( 'NONE',  ( 1.000000000000000000, 0.000000000000000000, 0.000000000000000000 ) ) ;
#230 = FILL_AREA_STYLE_COLOUR ( '', #196 ) ;
#231 = SHAPE_DEFINITION_REPRESENTATION ( #127, #370 ) ;
#232 =( NAMED_UNIT ( * ) PLANE_ANGLE_UNIT ( ) SI_UNIT ( $, .RADIAN. ) );
#233 =( LENGTH_UNIT ( ) NAMED_UNIT ( * ) SI_UNIT ( .MILLI., .METRE. ) );
#234 = PRESENTATION_STYLE_ASSIGNMENT (( #150 ) ) ;
#235 = DIRECTION ( 'NONE',  ( -4.697880814296055710E-17, 1.000000000000000000, -0.000000000000000000 ) ) ;
#236 = DIRECTION ( 'NONE',  ( -0.000000000000000000, -1.000000000000000000, -0.000000000000000000 ) ) ;
#237 = ORIENTED_EDGE ( 'NONE', *, *, #86, .F. ) ;
#238 = UNCERTAINTY_MEASURE_WITH_UNIT (LENGTH_MEASURE( 1.000000000000000082E-05 ), #319, 'distance_accuracy_value', 'NONE');
#239 = CYLINDRICAL_SURFACE ( 'NONE', #188, 5.000000000000000000 ) ;
#240 = DIRECTION ( 'NONE',  ( -0.000000000000000000, -1.000000000000000000, -0.000000000000000000 ) ) ;
#241 = FILL_AREA_STYLE ('',( #122 ) ) ;
#242 = STYLED_ITEM ( 'NONE', ( #211 ), #174 ) ;
#243 = EDGE_LOOP ( 'NONE', ( #106, #183, #19, #350 ) ) ;
#244 = SURFACE_SIDE_STYLE ('',( #135 ) ) ;
#245 = EDGE_LOOP ( 'NONE', ( #47, #216, #21, #294 ) ) ;
#246 = DIRECTION ( 'NONE',  ( -0.000000000000000000, -1.000000000000000000, -0.000000000000000000 ) ) ;
#247 = AXIS2_PLACEMENT_3D ( 'NONE', #317, #69, #176 ) ;
#248 = FACE_OUTER_BOUND ( 'NONE', #324, .T. ) ;
#249 = EDGE_LOOP ( 'NONE', ( #141, #84, #153, #103 ) ) ;
#250 = FILL_AREA_STYLE_COLOUR ( '', #94 ) ;
#251 =( LENGTH_UNIT ( ) NAMED_UNIT ( * ) SI_UNIT ( .MILLI., .METRE. ) );
#252 = MECHANICAL_DESIGN_GEOMETRIC_PRESENTATION_REPRESENTATION (  '', ( #267 ), #73 ) ;
#253 = STYLED_ITEM ( 'NONE', ( #143 ), #366 ) ;
#254 = ADVANCED_FACE ( 'NONE', ( #2 ), #120, .T. ) ;
#255 = DIRECTION ( 'NONE',  ( -4.697880814296055710E-17, 1.000000000000000000, -0.000000000000000000 ) ) ;
#256 = CLOSED_SHELL ( 'NONE', ( #138, #166, #158, #113 ) ) ;
#257 = CARTESIAN_POINT ( 'NONE',  ( 3.184081677783117402E-15, 63.00000000000000000, 0.000000000000000000 ) ) ;
#258 = ADVANCED_FACE ( 'NONE', ( #33 ), #239, .T. ) ;
#259 = CARTESIAN_POINT ( 'NONE',  ( 0.000000000000000000, 1.000000000000000000, -4.000000000000000000 ) ) ;
#260 = CARTESIAN_POINT ( 'NONE',  ( -4.999999999999992895, 63.00000000000000000, 0.000000000000000000 ) ) ;
#261 =( GEOMETRIC_REPRESENTATION_CONTEXT ( 3 ) GLOBAL_UNCERTAINTY_ASSIGNED_CONTEXT ( ( #298 ) ) GLOBAL_UNIT_ASSIGNED_CONTEXT ( ( #121, #232, #316 ) ) REPRESENTATION_CONTEXT ( 'NONE', 'WORKASPACE' ) );
#262 = DIRECTION ( 'NONE',  ( -4.697880814296055710E-17, 1.000000000000000000, -0.000000000000000000 ) ) ;
#263 = UNCERTAINTY_MEASURE_WITH_UNIT (LENGTH_MEASURE( 1.000000000000000082E-05 ), #329, 'distance_accuracy_value', 'NONE');
#264 = DIRECTION ( 'NONE',  ( -1.000000000000000000, 0.000000000000000000, 0.000000000000000000 ) ) ;
#265 =( NAMED_UNIT ( * ) SI_UNIT ( $, .STERADIAN. ) SOLID_ANGLE_UNIT ( ) );
#266 = VERTEX_POINT ( 'NONE', #39 ) ;
#267 = STYLED_ITEM ( 'NONE', ( #152 ), #172 ) ;
#268 = PRESENTATION_LAYER_ASSIGNMENT (  '', '', ( #125 ) ) ;
#269 = MECHANICAL_DESIGN_GEOMETRIC_PRESENTATION_REPRESENTATION (  '', ( #253 ), #156 ) ;
#270 = ORIENTED_EDGE ( 'NONE', *, *, #318, .T. ) ;
#271 = DIRECTION ( 'NONE',  ( -1.000000000000000000, 0.000000000000000000, 0.000000000000000000 ) ) ;
#272 = CARTESIAN_POINT ( 'NONE',  ( 5.204170427930421283E-15, 20.00000000000000355, 0.000000000000000000 ) ) ;
#273 = STYLED_ITEM ( 'NONE', ( #284 ), #258 ) ;
#274 = ORIENTED_EDGE ( 'NONE', *, *, #318, .F. ) ;
#275 = LINE ( 'NONE', #25, #65 ) ;
#276 = EDGE_CURVE ( 'NONE', #131, #266, #80, .T. ) ;
#277 = FACE_OUTER_BOUND ( 'NONE', #128, .T. ) ;
#278 = AXIS2_PLACEMENT_3D ( 'NONE', #279, #281, #66 ) ;
#279 = CARTESIAN_POINT ( 'NONE',  ( 0.000000000000000000, 0.000000000000000000, 0.000000000000000000 ) ) ;
#280 =( NAMED_UNIT ( * ) PLANE_ANGLE_UNIT ( ) SI_UNIT ( $, .RADIAN. ) );
#281 = DIRECTION ( 'NONE',  ( -0.000000000000000000, -1.000000000000000000, -0.000000000000000000 ) ) ;
#282 = PRODUCT_CONTEXT ( 'NONE', #61, 'mechanical' ) ;
#283 = SURFACE_STYLE_USAGE ( .BOTH. , #314 ) ;
#284 = PRESENTATION_STYLE_ASSIGNMENT (( #105 ) ) ;
#285 =( NAMED_UNIT ( * ) PLANE_ANGLE_UNIT ( ) SI_UNIT ( $, .RADIAN. ) );
#286 = DIRECTION ( 'NONE',  ( -1.000000000000000000, 0.000000000000000000, 0.000000000000000000 ) ) ;
#287 = DIRECTION ( 'NONE',  ( -0.000000000000000000, -1.000000000000000000, -0.000000000000000000 ) ) ;
#288 = ORIENTED_EDGE ( 'NONE', *, *, #199, .T. ) ;
#289 =( LENGTH_UNIT ( ) NAMED_UNIT ( * ) SI_UNIT ( .MILLI., .METRE. ) );
#290 = AXIS2_PLACEMENT_3D ( 'NONE', #272, #303, #271 ) ;
#291 = COLOUR_RGB ( '',1.000000000000000000, 0.000000000000000000, 0.000000000000000000 ) ;
#292 = FACE_OUTER_BOUND ( 'NONE', #353, .T. ) ;
#293 = DIRECTION ( 'NONE',  ( -4.697880814296055710E-17, 1.000000000000000000, -0.000000000000000000 ) ) ;
#294 = ORIENTED_EDGE ( 'NONE', *, *, #276, .F. ) ;
#295 = PLANE ( 'NONE',  #48 ) ;
#296 = CARTESIAN_POINT ( 'NONE',  ( 6.123233995736766282E-16, 0.000000000000000000, 5.000000000000000000 ) ) ;
#297 = VERTEX_POINT ( 'NONE', #260 ) ;
#298 = UNCERTAINTY_MEASURE_WITH_UNIT (LENGTH_MEASURE( 1.000000000000000082E-05 ), #121, 'distance_accuracy_value', 'NONE');
#299 = PRODUCT_DEFINITION ( 'UNKNOWN', '', #337, #343 ) ;
#300 = AXIS2_PLACEMENT_3D ( 'NONE', #355, #212, #130 ) ;
#301 = DIRECTION ( 'NONE',  ( -1.000000000000000000, 0.000000000000000000, 0.000000000000000000 ) ) ;
#302 = PRESENTATION_LAYER_ASSIGNMENT (  '', '', ( #253 ) ) ;
#303 = DIRECTION ( 'NONE',  ( -4.697880814296055710E-17, 1.000000000000000000, -0.000000000000000000 ) ) ;
#304 = EDGE_CURVE ( 'NONE', #356, #12, #100, .T. ) ;
#305 = LINE ( 'NONE', #306, #207 ) ;
#306 = CARTESIAN_POINT ( 'NONE',  ( -4.999999999999992006, 63.00000000000000000, 0.000000000000000000 ) ) ;
#307 = CIRCLE ( 'NONE', #227, 5.000000000000000000 ) ;
#308 = DIRECTION ( 'NONE',  ( -0.000000000000000000, -1.000000000000000000, -0.000000000000000000 ) ) ;
#309 =( NAMED_UNIT ( * ) PLANE_ANGLE_UNIT ( ) SI_UNIT ( $, .RADIAN. ) );
#310 = ADVANCED_FACE ( 'NONE', ( #208 ), #362, .T. ) ;
#311 =( NAMED_UNIT ( * ) SI_UNIT ( $, .STERADIAN. ) SOLID_ANGLE_UNIT ( ) );
#312 = COLOUR_RGB ( '',1.000000000000000000, 0.000000000000000000, 0.000000000000000000 ) ;
#313 = SURFACE_STYLE_FILL_AREA ( #169 ) ;
#314 = SURFACE_SIDE_STYLE ('',( #313 ) ) ;
#315 = DIRECTION ( 'NONE',  ( 0.000000000000000000, 0.000000000000000000, 1.000000000000000000 ) ) ;
#316 =( NAMED_UNIT ( * ) SI_UNIT ( $, .STERADIAN. ) SOLID_ANGLE_UNIT ( ) );
#317 = CARTESIAN_POINT ( 'NONE',  ( 0.000000000000000000, 1.000000000000000000, 0.000000000000000000 ) ) ;
#318 = EDGE_CURVE ( 'NONE', #51, #356, #354, .T. ) ;
#319 =( LENGTH_UNIT ( ) NAMED_UNIT ( * ) SI_UNIT ( .MILLI., .METRE. ) );
#320 = SURFACE_STYLE_USAGE ( .BOTH. , #42 ) ;
#321 = CARTESIAN_POINT ( 'NONE',  ( 0.000000000000000000, 20.00000000000000000, 0.000000000000000000 ) ) ;
#322 = VERTEX_POINT ( 'NONE', #97 ) ;
#323 = FILL_AREA_STYLE_COLOUR ( '', #64 ) ;
#324 = EDGE_LOOP ( 'NONE', ( #98, #185 ) ) ;
#325 = PRESENTATION_LAYER_ASSIGNMENT (  '', '', ( #267 ) ) ;
#326 = UNCERTAINTY_MEASURE_WITH_UNIT (LENGTH_MEASURE( 1.000000000000000082E-05 ), #289, 'distance_accuracy_value', 'NONE');
#327 = AXIS2_PLACEMENT_3D ( 'NONE', #118, #89, #60 ) ;
#328 = CARTESIAN_POINT ( 'NONE',  ( 0.000000000000000000, 0.000000000000000000, 0.000000000000000000 ) ) ;
#329 =( LENGTH_UNIT ( ) NAMED_UNIT ( * ) SI_UNIT ( .MILLI., .METRE. ) );
#330 = FILL_AREA_STYLE_COLOUR ( '', #368 ) ;
#331 = CARTESIAN_POINT ( 'NONE',  ( 5.000000000000000000, 20.00000000000000355, 6.123233995736762338E-16 ) ) ;
#332 = PRESENTATION_LAYER_ASSIGNMENT (  '', '', ( #273 ) ) ;
#333 = CARTESIAN_POINT ( 'NONE',  ( 0.000000000000000000, 1.000000000000000000, 0.000000000000000000 ) ) ;
#334 = DIRECTION ( 'NONE',  ( 4.697880814296055710E-17, -1.000000000000000000, 0.000000000000000000 ) ) ;
#335 = ORIENTED_EDGE ( 'NONE', *, *, #147, .F. ) ;
#336 =( LENGTH_UNIT ( ) NAMED_UNIT ( * ) SI_UNIT ( .MILLI., .METRE. ) );
#337 = PRODUCT_DEFINITION_FORMATION_WITH_SPECIFIED_SOURCE ( 'ANY', '', #148, .NOT_KNOWN. ) ;
#338 = PRESENTATION_LAYER_ASSIGNMENT (  '', '', ( #242 ) ) ;
#339 = DIRECTION ( 'NONE',  ( -4.697880814296055710E-17, 1.000000000000000000, -0.000000000000000000 ) ) ;
#340 = COLOUR_RGB ( '',1.000000000000000000, 0.000000000000000000, 0.000000000000000000 ) ;
#341 = DIRECTION ( 'NONE',  ( 0.000000000000000000, 0.000000000000000000, -1.000000000000000000 ) ) ;
#342 = CARTESIAN_POINT ( 'NONE',  ( 0.000000000000000000, 0.000000000000000000, 0.000000000000000000 ) ) ;
#343 = PRODUCT_DEFINITION_CONTEXT ( 'detailed design', #109, 'design' ) ;
#344 = DIRECTION ( 'NONE',  ( -1.000000000000000000, 0.000000000000000000, 0.000000000000000000 ) ) ;
#345 = FILL_AREA_STYLE_COLOUR ( '', #340 ) ;
#346 =( GEOMETRIC_REPRESENTATION_CONTEXT ( 3 ) GLOBAL_UNCERTAINTY_ASSIGNED_CONTEXT ( ( #263 ) ) GLOBAL_UNIT_ASSIGNED_CONTEXT ( ( #329, #178, #265 ) ) REPRESENTATION_CONTEXT ( 'NONE', 'WORKASPACE' ) );
#347 = CARTESIAN_POINT ( 'NONE',  ( 3.184081677783117402E-15, 63.00000000000000000, 0.000000000000000000 ) ) ;
#348 = DIRECTION ( 'NONE',  ( -1.000000000000000000, 0.000000000000000000, 0.000000000000000000 ) ) ;
#349 = DIRECTION ( 'NONE',  ( 0.000000000000000000, 0.000000000000000000, -1.000000000000000000 ) ) ;
#350 = ORIENTED_EDGE ( 'NONE', *, *, #357, .F. ) ;
#351 = FILL_AREA_STYLE_COLOUR ( '', #291 ) ;
#352 = DIRECTION ( 'NONE',  ( -1.000000000000000000, 0.000000000000000000, 0.000000000000000000 ) ) ;
#353 = EDGE_LOOP ( 'NONE', ( #53, #74 ) ) ;
#354 = CIRCLE ( 'NONE', #179, 5.000000000000000000 ) ;
#355 = CARTESIAN_POINT ( 'NONE',  ( 0.000000000000000000, 0.000000000000000000, 0.000000000000000000 ) ) ;
#356 = VERTEX_POINT ( 'NONE', #206 ) ;
#357 = EDGE_CURVE ( 'NONE', #218, #297, #228, .T. ) ;
#358 = PLANE ( 'NONE',  #144 ) ;
#359 = ORIENTED_EDGE ( 'NONE', *, *, #195, .F. ) ;
#360 = EDGE_CURVE ( 'NONE', #40, #218, #275, .T. ) ;
#361 = DIRECTION ( 'NONE',  ( 0.000000000000000000, 0.000000000000000000, -1.000000000000000000 ) ) ;
#362 = TOROIDAL_SURFACE ( 'NONE', #247, 4.000000000000000000, 1.000000000000000000 ) ;
#363 = PLANE ( 'NONE',  #27 ) ;
#364 = CARTESIAN_POINT ( 'NONE',  ( 0.000000000000000000, 0.000000000000000000, -5.000000000000000000 ) ) ;
#365 = DIRECTION ( 'NONE',  ( 0.000000000000000000, -0.000000000000000000, 1.000000000000000000 ) ) ;
#366 = ADVANCED_FACE ( 'NONE', ( #277 ), #358, .T. ) ;
#367 = CLOSED_SHELL ( 'NONE', ( #258, #310, #254, #369, #180, #366 ) ) ;
#368 = COLOUR_RGB ( '',1.000000000000000000, 0.000000000000000000, 0.000000000000000000 ) ;
#369 = ADVANCED_FACE ( 'NONE', ( #117 ), #58, .T. ) ;
#370 = ADVANCED_BREP_SHAPE_REPRESENTATION ( '59542', ( #174, #172, #133 ), #134 ) ;
ENDSEC;
END-ISO-10303-21;
