ISO-10303-21;
HEADER;
FILE_DESCRIPTION (( 'STEP AP214' ),
    '1' );
FILE_NAME ('Micro_GEMM-200-3X.STEP',
    '2021-09-01T22:18:38',
    ( '' ),
    ( '' ),
    'SwSTEP 2.0',
    'SolidWorks 2020',
    '' );
FILE_SCHEMA (( 'AUTOMOTIVE_DESIGN' ));
ENDSEC;

DATA;
#1 = CARTESIAN_POINT ( 'NONE',  ( 0.0000000000000000000, 0.0000000000000000000, 0.0000000000000000000 ) ) ;
#2 = UNCERTAINTY_MEASURE_WITH_UNIT (LENGTH_MEASURE( 1.000000000000000082E-05 ), #246, 'distance_accuracy_value', 'NONE');
#3 = CARTESIAN_POINT ( 'NONE',  ( 0.0000000000000000000, 0.0000000000000000000, 4.079488000000000447 ) ) ;
#4 = CONICAL_SURFACE ( 'NONE', #91, 0.3933072989999999436, 0.1745329251994339192 ) ;
#5 = AXIS2_PLACEMENT_3D ( 'NONE', #218, #58, #268 ) ;
#6 = CARTESIAN_POINT ( 'NONE',  ( 0.0000000000000000000, 0.0000000000000000000, 4.094488000000000127 ) ) ;
#7 = LINE ( 'NONE', #99, #143 ) ;
#8 = DIRECTION ( 'NONE',  ( -1.000000000000000000, 0.0000000000000000000, 0.0000000000000000000 ) ) ;
#9 = DIRECTION ( 'NONE',  ( -0.0000000000000000000, -0.0000000000000000000, -1.000000000000000000 ) ) ;
#10 = FACE_OUTER_BOUND ( 'NONE', #37, .T. ) ;
#11 = PRODUCT_RELATED_PRODUCT_CATEGORY ( 'part', '', ( #165 ) ) ;
#12 = DIRECTION ( 'NONE',  ( -0.1736481776669312194, 2.126576849575783625E-17, 0.9848077530122080203 ) ) ;
#13 = VERTEX_POINT ( 'NONE', #215 ) ;
#14 = VECTOR ( 'NONE', #112, 39.37007874015748143 ) ;
#15 = DIRECTION ( 'NONE',  ( -1.224646799147353207E-16, -0.0000000000000000000, -1.000000000000000000 ) ) ;
#16 =( NAMED_UNIT ( * ) PLANE_ANGLE_UNIT ( ) SI_UNIT ( $, .RADIAN. ) );
#17 = CARTESIAN_POINT ( 'NONE',  ( 0.3787010000000002319, 4.637749674839021182E-17, 4.094488000000000127 ) ) ;
#18 = EDGE_LOOP ( 'NONE', ( #145, #50, #159, #239 ) ) ;
#19 = EDGE_LOOP ( 'NONE', ( #291, #34, #245, #210 ) ) ;
#20 = EDGE_CURVE ( 'NONE', #200, #195, #67, .T. ) ;
#21 = DIRECTION ( 'NONE',  ( -1.224646799147353207E-16, -0.0000000000000000000, -1.000000000000000000 ) ) ;
#22 = DIMENSIONAL_EXPONENTS ( 1.000000000000000000, 0.0000000000000000000, 0.0000000000000000000, 0.0000000000000000000, 0.0000000000000000000, 0.0000000000000000000, 0.0000000000000000000 ) ;
#23 = PRESENTATION_STYLE_ASSIGNMENT (( #46 ) ) ;
#24 = COLOUR_RGB ( '',0.7921568627450980005, 0.8196078431372548767, 0.9333333333333333481 ) ;
#25 = FACE_OUTER_BOUND ( 'NONE', #170, .T. ) ;
#26 = FACE_OUTER_BOUND ( 'NONE', #290, .T. ) ;
#27 = MECHANICAL_DESIGN_GEOMETRIC_PRESENTATION_REPRESENTATION (  '', ( #131 ), #44 ) ;
#28 = EDGE_CURVE ( 'NONE', #235, #172, #176, .T. ) ;
#29 = CARTESIAN_POINT ( 'NONE',  ( 0.0000000000000000000, 0.0000000000000000000, 0.0000000000000000000 ) ) ;
#30 = AXIS2_PLACEMENT_3D ( 'NONE', #71, #9, #161 ) ;
#31 = EDGE_LOOP ( 'NONE', ( #217, #186, #269, #86 ) ) ;
#32 = LINE ( 'NONE', #285, #107 ) ;
#33 = DIRECTION ( 'NONE',  ( 1.000000000000000000, 0.0000000000000000000, -0.0000000000000000000 ) ) ;
#34 = ORIENTED_EDGE ( 'NONE', *, *, #82, .T. ) ;
#35 = APPLICATION_PROTOCOL_DEFINITION ( 'draft international standard', 'automotive_design', 1998, #229 ) ;
#36 = ORIENTED_EDGE ( 'NONE', *, *, #60, .T. ) ;
#37 = EDGE_LOOP ( 'NONE', ( #150, #247, #132, #168 ) ) ;
#38 = ORIENTED_EDGE ( 'NONE', *, *, #40, .T. ) ;
#39 = AXIS2_PLACEMENT_3D ( 'NONE', #109, #104, #197 ) ;
#40 = EDGE_CURVE ( 'NONE', #147, #266, #190, .T. ) ;
#41 = DIRECTION ( 'NONE',  ( -1.224646799147353207E-16, -0.0000000000000000000, -1.000000000000000000 ) ) ;
#42 = CARTESIAN_POINT ( 'NONE',  ( 0.0000000000000000000, 0.0000000000000000000, 4.094488000000000127 ) ) ;
#43 =( NAMED_UNIT ( * ) PLANE_ANGLE_UNIT ( ) SI_UNIT ( $, .RADIAN. ) );
#44 =( GEOMETRIC_REPRESENTATION_CONTEXT ( 3 ) GLOBAL_UNCERTAINTY_ASSIGNED_CONTEXT ( ( #2 ) ) GLOBAL_UNIT_ASSIGNED_CONTEXT ( ( #246, #16, #216 ) ) REPRESENTATION_CONTEXT ( 'NONE', 'WORKASPACE' ) );
#45 = PLANE ( 'NONE',  #121 ) ;
#46 = SURFACE_STYLE_USAGE ( .BOTH. , #256 ) ;
#47 = LINE ( 'NONE', #63, #14 ) ;
#48 = ADVANCED_FACE ( 'NONE', ( #222 ), #4, .T. ) ;
#49 =( CONVERSION_BASED_UNIT ( 'INCH', #280 ) LENGTH_UNIT ( ) NAMED_UNIT ( #85 ) );
#50 = ORIENTED_EDGE ( 'NONE', *, *, #101, .T. ) ;
#51 = EDGE_CURVE ( 'NONE', #118, #235, #62, .T. ) ;
#52 = DIRECTION ( 'NONE',  ( 0.0000000000000000000, 0.0000000000000000000, 1.000000000000000000 ) ) ;
#53 = AXIS2_PLACEMENT_3D ( 'NONE', #259, #160, #188 ) ;
#54 = ORIENTED_EDGE ( 'NONE', *, *, #184, .F. ) ;
#55 = PRODUCT_DEFINITION ( 'UNKNOWN', '', #205, #137 ) ;
#56 = DIRECTION ( 'NONE',  ( -1.000000000000000000, 0.0000000000000000000, 1.224646799147353207E-16 ) ) ;
#57 = AXIS2_PLACEMENT_3D ( 'NONE', #263, #288, #119 ) ;
#58 = DIRECTION ( 'NONE',  ( 0.0000000000000000000, 0.0000000000000000000, 1.000000000000000000 ) ) ;
#59 = EDGE_LOOP ( 'NONE', ( #194, #108, #241, #87 ) ) ;
#60 = EDGE_CURVE ( 'NONE', #266, #147, #253, .T. ) ;
#61 = EDGE_LOOP ( 'NONE', ( #124, #127 ) ) ;
#62 = LINE ( 'NONE', #17, #162 ) ;
#63 = CARTESIAN_POINT ( 'NONE',  ( -0.3787010000000002319, 0.0000000000000000000, 4.094488000000000127 ) ) ;
#64 = DIRECTION ( 'NONE',  ( 1.000000000000000000, 0.0000000000000000000, -0.0000000000000000000 ) ) ;
#65 = ADVANCED_BREP_SHAPE_REPRESENTATION ( 'Micro_GEMM-200-3X', ( #166, #5 ), #114 ) ;
#66 = FACE_OUTER_BOUND ( 'NONE', #19, .T. ) ;
#67 = CIRCLE ( 'NONE', #129, 0.3933072989999999436 ) ;
#68 = DIRECTION ( 'NONE',  ( -1.000000000000000000, 0.0000000000000000000, 1.224646799147353454E-16 ) ) ;
#69 = SURFACE_STYLE_FILL_AREA ( #156 ) ;
#70 = EDGE_CURVE ( 'NONE', #118, #13, #208, .T. ) ;
#71 = CARTESIAN_POINT ( 'NONE',  ( 0.0000000000000000000, 0.0000000000000000000, 4.094488000000000127 ) ) ;
#72 = DIRECTION ( 'NONE',  ( 1.000000000000000000, 0.0000000000000000000, 0.0000000000000000000 ) ) ;
#73 = UNCERTAINTY_MEASURE_WITH_UNIT (LENGTH_MEASURE( 1.000000000000000082E-05 ), #226, 'distance_accuracy_value', 'NONE');
#74 = LINE ( 'NONE', #117, #260 ) ;
#75 = CARTESIAN_POINT ( 'NONE',  ( 1.545597075676596082E-16, 0.0000000000000000000, 1.262075789323665376 ) ) ;
#76 = AXIS2_PLACEMENT_3D ( 'NONE', #110, #274, #203 ) ;
#77 = CYLINDRICAL_SURFACE ( 'NONE', #278, 0.3933072989999999436 ) ;
#78 = PRESENTATION_STYLE_ASSIGNMENT (( #294 ) ) ;
#79 = CARTESIAN_POINT ( 'NONE',  ( 0.3937009999999999676, 4.821446694711121291E-17, 4.094488000000000127 ) ) ;
#80 = CARTESIAN_POINT ( 'NONE',  ( 1.542862697378198788E-16, 0.0000000000000000000, 1.259842999999999824 ) ) ;
#81 = AXIS2_PLACEMENT_3D ( 'NONE', #75, #237, #238 ) ;
#82 = EDGE_CURVE ( 'NONE', #195, #200, #292, .T. ) ;
#83 = ORIENTED_EDGE ( 'NONE', *, *, #96, .F. ) ;
#84 = EDGE_CURVE ( 'NONE', #172, #149, #242, .T. ) ;
#85 = DIMENSIONAL_EXPONENTS ( 1.000000000000000000, 0.0000000000000000000, 0.0000000000000000000, 0.0000000000000000000, 0.0000000000000000000, 0.0000000000000000000, 0.0000000000000000000 ) ;
#86 = ORIENTED_EDGE ( 'NONE', *, *, #84, .F. ) ;
#87 = ORIENTED_EDGE ( 'NONE', *, *, #84, .T. ) ;
#88 = LINE ( 'NONE', #251, #272 ) ;
#89 = CARTESIAN_POINT ( 'NONE',  ( 0.0000000000000000000, 0.0000000000000000000, 0.0000000000000000000 ) ) ;
#90 = DIRECTION ( 'NONE',  ( -1.224646799147353207E-16, -0.0000000000000000000, -1.000000000000000000 ) ) ;
#91 = AXIS2_PLACEMENT_3D ( 'NONE', #223, #199, #271 ) ;
#92 = AXIS2_PLACEMENT_3D ( 'NONE', #164, #52, #72 ) ;
#93 = FACE_OUTER_BOUND ( 'NONE', #61, .T. ) ;
#94 = DIRECTION ( 'NONE',  ( 0.0000000000000000000, 0.0000000000000000000, 1.000000000000000000 ) ) ;
#95 =( NAMED_UNIT ( * ) SI_UNIT ( $, .STERADIAN. ) SOLID_ANGLE_UNIT ( ) );
#96 = EDGE_CURVE ( 'NONE', #235, #248, #154, .T. ) ;
#97 = AXIS2_PLACEMENT_3D ( 'NONE', #1, #98, #33 ) ;
#98 = DIRECTION ( 'NONE',  ( 0.0000000000000000000, 0.0000000000000000000, 1.000000000000000000 ) ) ;
#99 = CARTESIAN_POINT ( 'NONE',  ( -0.3933072989999998326, 4.816625248016409724E-17, 1.259842999999999824 ) ) ;
#100 =( LENGTH_UNIT ( ) NAMED_UNIT ( * ) SI_UNIT ( $, .METRE. ) );
#101 = EDGE_CURVE ( 'NONE', #195, #147, #88, .T. ) ;
#102 = ORIENTED_EDGE ( 'NONE', *, *, #116, .F. ) ;
#103 = DIRECTION ( 'NONE',  ( -1.000000000000000000, 0.0000000000000000000, 0.0000000000000000000 ) ) ;
#104 = DIRECTION ( 'NONE',  ( 0.0000000000000000000, 0.0000000000000000000, 1.000000000000000000 ) ) ;
#105 = APPLICATION_CONTEXT ( 'automotive_design' ) ;
#106 = ORIENTED_EDGE ( 'NONE', *, *, #225, .F. ) ;
#107 = VECTOR ( 'NONE', #142, 39.37007874015748143 ) ;
#108 = ORIENTED_EDGE ( 'NONE', *, *, #82, .F. ) ;
#109 = CARTESIAN_POINT ( 'NONE',  ( 0.0000000000000000000, 0.0000000000000000000, 4.094488000000000127 ) ) ;
#110 = CARTESIAN_POINT ( 'NONE',  ( 1.545597075676596082E-16, 0.0000000000000000000, 1.262075789323665376 ) ) ;
#111 = PLANE ( 'NONE',  #97 ) ;
#112 = DIRECTION ( 'NONE',  ( -0.7071067811865491270, 0.0000000000000000000, -0.7071067811865459074 ) ) ;
#113 = UNCERTAINTY_MEASURE_WITH_UNIT (LENGTH_MEASURE( 1.000000000000000082E-05 ), #49, 'distance_accuracy_value', 'NONE');
#114 =( GEOMETRIC_REPRESENTATION_CONTEXT ( 3 ) GLOBAL_UNCERTAINTY_ASSIGNED_CONTEXT ( ( #113 ) ) GLOBAL_UNIT_ASSIGNED_CONTEXT ( ( #49, #233, #95 ) ) REPRESENTATION_CONTEXT ( 'NONE', 'WORKASPACE' ) );
#115 = DIRECTION ( 'NONE',  ( -1.224646799147353207E-16, -0.0000000000000000000, -1.000000000000000000 ) ) ;
#116 = EDGE_CURVE ( 'NONE', #13, #248, #47, .T. ) ;
#117 = CARTESIAN_POINT ( 'NONE',  ( 0.3933072990000000546, 0.0000000000000000000, 1.259842999999999824 ) ) ;
#118 = VERTEX_POINT ( 'NONE', #279 ) ;
#119 = DIRECTION ( 'NONE',  ( 1.000000000000000000, 0.0000000000000000000, 0.0000000000000000000 ) ) ;
#120 = EDGE_LOOP ( 'NONE', ( #297, #273, #270, #54 ) ) ;
#121 = AXIS2_PLACEMENT_3D ( 'NONE', #6, #94, #64 ) ;
#122 = EDGE_CURVE ( 'NONE', #200, #266, #254, .T. ) ;
#123 = CARTESIAN_POINT ( 'NONE',  ( 0.3933072990000000546, 0.0000000000000000000, 1.259842999999999824 ) ) ;
#124 = ORIENTED_EDGE ( 'NONE', *, *, #287, .T. ) ;
#125 = ORIENTED_EDGE ( 'NONE', *, *, #287, .F. ) ;
#126 = ORIENTED_EDGE ( 'NONE', *, *, #116, .T. ) ;
#127 = ORIENTED_EDGE ( 'NONE', *, *, #70, .T. ) ;
#128 = FILL_AREA_STYLE ('',( #289 ) ) ;
#129 = AXIS2_PLACEMENT_3D ( 'NONE', #175, #15, #103 ) ;
#130 = DIRECTION ( 'NONE',  ( -1.000000000000000000, 0.0000000000000000000, 1.224646799147353207E-16 ) ) ;
#131 = STYLED_ITEM ( 'NONE', ( #78 ), #65 ) ;
#132 = ORIENTED_EDGE ( 'NONE', *, *, #187, .F. ) ;
#133 = CARTESIAN_POINT ( 'NONE',  ( -0.3937009999999998566, 0.0000000000000000000, 1.262075789323665376 ) ) ;
#134 = DIRECTION ( 'NONE',  ( 1.000000000000000000, 0.0000000000000000000, 0.0000000000000000000 ) ) ;
#135 = DIRECTION ( 'NONE',  ( 1.000000000000000000, 0.0000000000000000000, 0.0000000000000000000 ) ) ;
#136 = ADVANCED_FACE ( 'NONE', ( #26 ), #283, .T. ) ;
#137 = PRODUCT_DEFINITION_CONTEXT ( 'detailed design', #229, 'design' ) ;
#138 = LENGTH_MEASURE_WITH_UNIT ( LENGTH_MEASURE( 0.02539999999999999897 ), #224 );
#139 = AXIS2_PLACEMENT_3D ( 'NONE', #89, #277, #68 ) ;
#140 = ADVANCED_FACE ( 'NONE', ( #66 ), #275, .T. ) ;
#141 = EDGE_LOOP ( 'NONE', ( #219, #198, #106, #102 ) ) ;
#142 = DIRECTION ( 'NONE',  ( -0.0000000000000000000, -0.0000000000000000000, -1.000000000000000000 ) ) ;
#143 = VECTOR ( 'NONE', #12, 39.37007874015747433 ) ;
#144 = FACE_OUTER_BOUND ( 'NONE', #31, .T. ) ;
#145 = ORIENTED_EDGE ( 'NONE', *, *, #20, .T. ) ;
#146 = AXIS2_PLACEMENT_3D ( 'NONE', #42, #178, #231 ) ;
#147 = VERTEX_POINT ( 'NONE', #202 ) ;
#148 = SURFACE_SIDE_STYLE ('',( #173 ) ) ;
#149 = VERTEX_POINT ( 'NONE', #133 ) ;
#150 = ORIENTED_EDGE ( 'NONE', *, *, #225, .T. ) ;
#151 = CARTESIAN_POINT ( 'NONE',  ( 5.898664692675622805E-33, 0.0000000000000000000, 4.816625248016410340E-17 ) ) ;
#152 = DIRECTION ( 'NONE',  ( -1.224646799147353207E-16, -0.0000000000000000000, -1.000000000000000000 ) ) ;
#153 = CARTESIAN_POINT ( 'NONE',  ( 0.3937010000000001897, 4.821446694711123140E-17, 1.262075789323665376 ) ) ;
#154 = CIRCLE ( 'NONE', #232, 0.3937009999999999676 ) ;
#155 = CONICAL_SURFACE ( 'NONE', #214, 0.3933072989999999436, 0.1745329251994339192 ) ;
#156 = FILL_AREA_STYLE ('',( #258 ) ) ;
#157 = CYLINDRICAL_SURFACE ( 'NONE', #53, 0.3937009999999999676 ) ;
#158 = DIRECTION ( 'NONE',  ( -1.224646799147353207E-16, -0.0000000000000000000, -1.000000000000000000 ) ) ;
#159 = ORIENTED_EDGE ( 'NONE', *, *, #60, .F. ) ;
#160 = DIRECTION ( 'NONE',  ( -0.0000000000000000000, -0.0000000000000000000, -1.000000000000000000 ) ) ;
#161 = DIRECTION ( 'NONE',  ( -1.000000000000000000, 0.0000000000000000000, 0.0000000000000000000 ) ) ;
#162 = VECTOR ( 'NONE', #249, 39.37007874015748143 ) ;
#163 = AXIS2_PLACEMENT_3D ( 'NONE', #211, #185, #8 ) ;
#164 = CARTESIAN_POINT ( 'NONE',  ( 0.0000000000000000000, 0.0000000000000000000, 4.094488000000000127 ) ) ;
#165 = PRODUCT ( 'Micro_GEMM-200-3X', 'Micro_GEMM-200-3X', '', ( #244 ) ) ;
#166 = MANIFOLD_SOLID_BREP ( 'Cut-Revolve1', #276 ) ;
#167 = ADVANCED_FACE ( 'NONE', ( #93 ), #45, .T. ) ;
#168 = ORIENTED_EDGE ( 'NONE', *, *, #257, .F. ) ;
#169 = PRODUCT_DEFINITION_SHAPE ( 'NONE', 'NONE',  #55 ) ;
#170 = EDGE_LOOP ( 'NONE', ( #36, #38 ) ) ;
#171 = LENGTH_MEASURE_WITH_UNIT ( LENGTH_MEASURE( 0.02539999999999999897 ), #192 );
#172 = VERTEX_POINT ( 'NONE', #153 ) ;
#173 = SURFACE_STYLE_FILL_AREA ( #128 ) ;
#174 = ADVANCED_FACE ( 'NONE', ( #201 ), #155, .T. ) ;
#175 = CARTESIAN_POINT ( 'NONE',  ( 1.542862697378198788E-16, 0.0000000000000000000, 1.259842999999999824 ) ) ;
#176 = LINE ( 'NONE', #79, #181 ) ;
#177 = STYLED_ITEM ( 'NONE', ( #23 ), #166 ) ;
#178 = DIRECTION ( 'NONE',  ( 0.0000000000000000000, 0.0000000000000000000, -1.000000000000000000 ) ) ;
#179 = ADVANCED_FACE ( 'NONE', ( #25 ), #111, .F. ) ;
#180 = CARTESIAN_POINT ( 'NONE',  ( -0.3933072989999999436, 0.0000000000000000000, 4.816625248016409724E-17 ) ) ;
#181 = VECTOR ( 'NONE', #267, 39.37007874015748143 ) ;
#182 = CIRCLE ( 'NONE', #57, 0.3937009999999999676 ) ;
#183 = CARTESIAN_POINT ( 'NONE',  ( 1.542862697378198788E-16, 0.0000000000000000000, 1.259842999999999824 ) ) ;
#184 = EDGE_CURVE ( 'NONE', #195, #172, #74, .T. ) ;
#185 = DIRECTION ( 'NONE',  ( 0.0000000000000000000, 0.0000000000000000000, -1.000000000000000000 ) ) ;
#186 = ORIENTED_EDGE ( 'NONE', *, *, #96, .T. ) ;
#187 = EDGE_CURVE ( 'NONE', #149, #172, #236, .T. ) ;
#188 = DIRECTION ( 'NONE',  ( -1.000000000000000000, 0.0000000000000000000, 0.0000000000000000000 ) ) ;
#189 = CYLINDRICAL_SURFACE ( 'NONE', #30, 0.3937009999999999676 ) ;
#190 = CIRCLE ( 'NONE', #220, 0.3933072989999999991 ) ;
#191 = PRESENTATION_LAYER_ASSIGNMENT (  '', '', ( #177 ) ) ;
#192 =( LENGTH_UNIT ( ) NAMED_UNIT ( * ) SI_UNIT ( $, .METRE. ) );
#193 = ADVANCED_FACE ( 'NONE', ( #144 ), #189, .T. ) ;
#194 = ORIENTED_EDGE ( 'NONE', *, *, #265, .F. ) ;
#195 = VERTEX_POINT ( 'NONE', #123 ) ;
#196 = SHAPE_DEFINITION_REPRESENTATION ( #169, #65 ) ;
#197 = DIRECTION ( 'NONE',  ( 1.000000000000000000, 0.0000000000000000000, 0.0000000000000000000 ) ) ;
#198 = ORIENTED_EDGE ( 'NONE', *, *, #51, .T. ) ;
#199 = DIRECTION ( 'NONE',  ( 1.224646799147353207E-16, 0.0000000000000000000, 1.000000000000000000 ) ) ;
#200 = VERTEX_POINT ( 'NONE', #261 ) ;
#201 = FACE_OUTER_BOUND ( 'NONE', #59, .T. ) ;
#202 = CARTESIAN_POINT ( 'NONE',  ( 0.3933072989999999991, 4.816625248016410340E-17, -7.582401355855259480E-33 ) ) ;
#203 = DIRECTION ( 'NONE',  ( 1.000000000000000000, 0.0000000000000000000, 0.0000000000000000000 ) ) ;
#204 = AXIS2_PLACEMENT_3D ( 'NONE', #80, #115, #206 ) ;
#205 = PRODUCT_DEFINITION_FORMATION_WITH_SPECIFIED_SOURCE ( 'ANY', '', #165, .NOT_KNOWN. ) ;
#206 = DIRECTION ( 'NONE',  ( -1.000000000000000000, 0.0000000000000000000, 0.0000000000000000000 ) ) ;
#207 = APPLICATION_PROTOCOL_DEFINITION ( 'draft international standard', 'automotive_design', 1998, #105 ) ;
#208 = CIRCLE ( 'NONE', #39, 0.3787010000000002319 ) ;
#209 = CARTESIAN_POINT ( 'NONE',  ( 0.3937009999999999676, 4.821446694711121291E-17, 4.079488000000000447 ) ) ;
#210 = ORIENTED_EDGE ( 'NONE', *, *, #40, .F. ) ;
#211 = CARTESIAN_POINT ( 'NONE',  ( 0.0000000000000000000, 0.0000000000000000000, 4.094488000000000127 ) ) ;
#212 = CARTESIAN_POINT ( 'NONE',  ( -0.3937009999999999676, 0.0000000000000000000, 4.079488000000000447 ) ) ;
#213 = VECTOR ( 'NONE', #152, 39.37007874015748143 ) ;
#214 = AXIS2_PLACEMENT_3D ( 'NONE', #183, #252, #134 ) ;
#215 = CARTESIAN_POINT ( 'NONE',  ( -0.3787010000000002319, 0.0000000000000000000, 4.094488000000000127 ) ) ;
#216 =( NAMED_UNIT ( * ) SI_UNIT ( $, .STERADIAN. ) SOLID_ANGLE_UNIT ( ) );
#217 = ORIENTED_EDGE ( 'NONE', *, *, #28, .F. ) ;
#218 = CARTESIAN_POINT ( 'NONE',  ( 0.0000000000000000000, 0.0000000000000000000, 0.0000000000000000000 ) ) ;
#219 = ORIENTED_EDGE ( 'NONE', *, *, #70, .F. ) ;
#220 = AXIS2_PLACEMENT_3D ( 'NONE', #296, #41, #130 ) ;
#221 = CIRCLE ( 'NONE', #92, 0.3787010000000002319 ) ;
#222 = FACE_OUTER_BOUND ( 'NONE', #120, .T. ) ;
#223 = CARTESIAN_POINT ( 'NONE',  ( 1.542862697378198788E-16, 0.0000000000000000000, 1.259842999999999824 ) ) ;
#224 =( LENGTH_UNIT ( ) NAMED_UNIT ( * ) SI_UNIT ( $, .METRE. ) );
#225 = EDGE_CURVE ( 'NONE', #248, #235, #182, .T. ) ;
#226 =( CONVERSION_BASED_UNIT ( 'INCH', #138 ) LENGTH_UNIT ( ) NAMED_UNIT ( #250 ) );
#227 = MECHANICAL_DESIGN_GEOMETRIC_PRESENTATION_REPRESENTATION (  '', ( #177 ), #255 ) ;
#228 = DIRECTION ( 'NONE',  ( 0.0000000000000000000, 0.0000000000000000000, -1.000000000000000000 ) ) ;
#229 = APPLICATION_CONTEXT ( 'automotive_design' ) ;
#230 = ADVANCED_FACE ( 'NONE', ( #286 ), #293, .T. ) ;
#231 = DIRECTION ( 'NONE',  ( -1.000000000000000000, 0.0000000000000000000, 0.0000000000000000000 ) ) ;
#232 = AXIS2_PLACEMENT_3D ( 'NONE', #3, #228, #135 ) ;
#233 =( NAMED_UNIT ( * ) PLANE_ANGLE_UNIT ( ) SI_UNIT ( $, .RADIAN. ) );
#234 = DIRECTION ( 'NONE',  ( -1.000000000000000000, 0.0000000000000000000, 1.224646799147353454E-16 ) ) ;
#235 = VERTEX_POINT ( 'NONE', #209 ) ;
#236 = CIRCLE ( 'NONE', #81, 0.3937009999999999676 ) ;
#237 = DIRECTION ( 'NONE',  ( -1.224646799147353207E-16, -0.0000000000000000000, -1.000000000000000000 ) ) ;
#238 = DIRECTION ( 'NONE',  ( 1.000000000000000000, 0.0000000000000000000, 0.0000000000000000000 ) ) ;
#239 = ORIENTED_EDGE ( 'NONE', *, *, #122, .F. ) ;
#240 = ADVANCED_FACE ( 'NONE', ( #264 ), #77, .T. ) ;
#241 = ORIENTED_EDGE ( 'NONE', *, *, #184, .T. ) ;
#242 = CIRCLE ( 'NONE', #76, 0.3937009999999999676 ) ;
#243 = PRESENTATION_LAYER_ASSIGNMENT (  '', '', ( #131 ) ) ;
#244 = PRODUCT_CONTEXT ( 'NONE', #105, 'mechanical' ) ;
#245 = ORIENTED_EDGE ( 'NONE', *, *, #122, .T. ) ;
#246 =( CONVERSION_BASED_UNIT ( 'INCH', #171 ) LENGTH_UNIT ( ) NAMED_UNIT ( #22 ) );
#247 = ORIENTED_EDGE ( 'NONE', *, *, #28, .T. ) ;
#248 = VERTEX_POINT ( 'NONE', #212 ) ;
#249 = DIRECTION ( 'NONE',  ( 0.7071067811865491270, 8.659560562354952580E-17, -0.7071067811865459074 ) ) ;
#250 = DIMENSIONAL_EXPONENTS ( 1.000000000000000000, 0.0000000000000000000, 0.0000000000000000000, 0.0000000000000000000, 0.0000000000000000000, 0.0000000000000000000, 0.0000000000000000000 ) ;
#251 = CARTESIAN_POINT ( 'NONE',  ( 0.3933072989999999436, 4.816625248016409724E-17, -4.816625248016409724E-17 ) ) ;
#252 = DIRECTION ( 'NONE',  ( 1.224646799147353207E-16, 0.0000000000000000000, 1.000000000000000000 ) ) ;
#253 = CIRCLE ( 'NONE', #298, 0.3933072989999999991 ) ;
#254 = LINE ( 'NONE', #180, #213 ) ;
#255 =( GEOMETRIC_REPRESENTATION_CONTEXT ( 3 ) GLOBAL_UNCERTAINTY_ASSIGNED_CONTEXT ( ( #73 ) ) GLOBAL_UNIT_ASSIGNED_CONTEXT ( ( #226, #43, #299 ) ) REPRESENTATION_CONTEXT ( 'NONE', 'WORKASPACE' ) );
#256 = SURFACE_SIDE_STYLE ('',( #69 ) ) ;
#257 = EDGE_CURVE ( 'NONE', #248, #149, #32, .T. ) ;
#258 = FILL_AREA_STYLE_COLOUR ( '', #24 ) ;
#259 = CARTESIAN_POINT ( 'NONE',  ( 0.0000000000000000000, 0.0000000000000000000, 4.094488000000000127 ) ) ;
#260 = VECTOR ( 'NONE', #282, 39.37007874015748143 ) ;
#261 = CARTESIAN_POINT ( 'NONE',  ( -0.3933072989999998326, 4.819035971363765199E-17, 1.259842999999999824 ) ) ;
#262 = CARTESIAN_POINT ( 'NONE',  ( -0.3933072989999999991, 0.0000000000000000000, 9.633250496032820680E-17 ) ) ;
#263 = CARTESIAN_POINT ( 'NONE',  ( 0.0000000000000000000, 0.0000000000000000000, 4.079488000000000447 ) ) ;
#264 = FACE_OUTER_BOUND ( 'NONE', #18, .T. ) ;
#265 = EDGE_CURVE ( 'NONE', #200, #149, #7, .T. ) ;
#266 = VERTEX_POINT ( 'NONE', #262 ) ;
#267 = DIRECTION ( 'NONE',  ( -0.0000000000000000000, -0.0000000000000000000, -1.000000000000000000 ) ) ;
#268 = DIRECTION ( 'NONE',  ( 1.000000000000000000, 0.0000000000000000000, 0.0000000000000000000 ) ) ;
#269 = ORIENTED_EDGE ( 'NONE', *, *, #257, .T. ) ;
#270 = ORIENTED_EDGE ( 'NONE', *, *, #187, .T. ) ;
#271 = DIRECTION ( 'NONE',  ( 1.000000000000000000, 0.0000000000000000000, 0.0000000000000000000 ) ) ;
#272 = VECTOR ( 'NONE', #90, 39.37007874015748143 ) ;
#273 = ORIENTED_EDGE ( 'NONE', *, *, #265, .T. ) ;
#274 = DIRECTION ( 'NONE',  ( -1.224646799147353207E-16, -0.0000000000000000000, -1.000000000000000000 ) ) ;
#275 = CYLINDRICAL_SURFACE ( 'NONE', #139, 0.3933072989999999436 ) ;
#276 = CLOSED_SHELL ( 'NONE', ( #240, #48, #230, #281, #193, #167, #136, #174, #140, #179 ) ) ;
#277 = DIRECTION ( 'NONE',  ( -1.224646799147353207E-16, -0.0000000000000000000, -1.000000000000000000 ) ) ;
#278 = AXIS2_PLACEMENT_3D ( 'NONE', #29, #158, #234 ) ;
#279 = CARTESIAN_POINT ( 'NONE',  ( 0.3787010000000002319, 4.729598184775070620E-17, 4.094488000000000127 ) ) ;
#280 = LENGTH_MEASURE_WITH_UNIT ( LENGTH_MEASURE( 0.02539999999999999897 ), #100 );
#281 = ADVANCED_FACE ( 'NONE', ( #10 ), #157, .T. ) ;
#282 = DIRECTION ( 'NONE',  ( 0.1736481776669314137, 0.0000000000000000000, 0.9848077530122077983 ) ) ;
#283 = CONICAL_SURFACE ( 'NONE', #146, 0.3787010000000002319, 0.7853981633974506105 ) ;
#284 = COLOUR_RGB ( '',0.7921568627450980005, 0.8196078431372548767, 0.9333333333333333481 ) ;
#285 = CARTESIAN_POINT ( 'NONE',  ( -0.3937009999999999676, 0.0000000000000000000, 4.094488000000000127 ) ) ;
#286 = FACE_OUTER_BOUND ( 'NONE', #141, .T. ) ;
#287 = EDGE_CURVE ( 'NONE', #13, #118, #221, .T. ) ;
#288 = DIRECTION ( 'NONE',  ( 0.0000000000000000000, 0.0000000000000000000, -1.000000000000000000 ) ) ;
#289 = FILL_AREA_STYLE_COLOUR ( '', #284 ) ;
#290 = EDGE_LOOP ( 'NONE', ( #295, #125, #126, #83 ) ) ;
#291 = ORIENTED_EDGE ( 'NONE', *, *, #101, .F. ) ;
#292 = CIRCLE ( 'NONE', #204, 0.3933072989999999436 ) ;
#293 = CONICAL_SURFACE ( 'NONE', #163, 0.3787010000000002319, 0.7853981633974506105 ) ;
#294 = SURFACE_STYLE_USAGE ( .BOTH. , #148 ) ;
#295 = ORIENTED_EDGE ( 'NONE', *, *, #51, .F. ) ;
#296 = CARTESIAN_POINT ( 'NONE',  ( 5.898664692675622805E-33, 0.0000000000000000000, 4.816625248016410340E-17 ) ) ;
#297 = ORIENTED_EDGE ( 'NONE', *, *, #20, .F. ) ;
#298 = AXIS2_PLACEMENT_3D ( 'NONE', #151, #21, #56 ) ;
#299 =( NAMED_UNIT ( * ) SI_UNIT ( $, .STERADIAN. ) SOLID_ANGLE_UNIT ( ) );
ENDSEC;
END-ISO-10303-21;
