ISO-10303-21;
HEADER;
FILE_DESCRIPTION (( 'STEP AP214' ),
    '1' );
FILE_NAME ('01390.STEP',
    '2023-06-22T14:29:32',
    ( '' ),
    ( '' ),
    'SwSTEP 2.0',
    'SolidWorks 2023',
    '' );
FILE_SCHEMA (( 'AUTOMOTIVE_DESIGN' ));
ENDSEC;

DATA;
#1 =( NAMED_UNIT ( * ) PLANE_ANGLE_UNIT ( ) SI_UNIT ( $, .RADIAN. ) );
#2 = VERTEX_POINT ( 'NONE', #83 ) ;
#3 = ADVANCED_FACE ( 'NONE', ( #80 ), #297, .F. ) ;
#4 = FILL_AREA_STYLE_COLOUR ( '', #281 ) ;
#5 =( NAMED_UNIT ( * ) PLANE_ANGLE_UNIT ( ) SI_UNIT ( $, .RADIAN. ) );
#6 = VERTEX_POINT ( 'NONE', #272 ) ;
#7 = ORIENTED_EDGE ( 'NONE', *, *, #64, .T. ) ;
#8 = EDGE_LOOP ( 'NONE', ( #110, #58, #138, #232 ) ) ;
#9 = CARTESIAN_POINT ( 'NONE',  ( 2.296212748401287726E-17, 0.000000000000000000, 0.1875000000000000278 ) ) ;
#10 = PRESENTATION_LAYER_ASSIGNMENT (  '', '', ( #187 ) ) ;
#11 = DIRECTION ( 'NONE',  ( -3.061616997868383018E-17, 1.000000000000000000, 0.000000000000000000 ) ) ;
#12 = ADVANCED_BREP_SHAPE_REPRESENTATION ( '01390', ( #194, #97, #191 ), #218 ) ;
#13 = EDGE_CURVE ( 'NONE', #75, #6, #46, .T. ) ;
#14 = DIRECTION ( 'NONE',  ( 0.000000000000000000, 0.000000000000000000, -1.000000000000000000 ) ) ;
#15 = LENGTH_MEASURE_WITH_UNIT ( LENGTH_MEASURE( 0.02539999999999999897 ), #92 );
#16 = AXIS2_PLACEMENT_3D ( 'NONE', #178, #275, #14 ) ;
#17 = DIMENSIONAL_EXPONENTS ( 1.000000000000000000, 0.000000000000000000, 0.000000000000000000, 0.000000000000000000, 0.000000000000000000, 0.000000000000000000, 0.000000000000000000 ) ;
#18 = EDGE_CURVE ( 'NONE', #207, #2, #69, .T. ) ;
#19 = DIRECTION ( 'NONE',  ( 0.000000000000000000, -0.000000000000000000, 1.000000000000000000 ) ) ;
#20 = SURFACE_STYLE_USAGE ( .BOTH. , #287 ) ;
#21 = MECHANICAL_DESIGN_GEOMETRIC_PRESENTATION_REPRESENTATION (  '', ( #41 ), #250 ) ;
#22 = UNCERTAINTY_MEASURE_WITH_UNIT (LENGTH_MEASURE( 1.000000000000000082E-05 ), #189, 'distance_accuracy_value', 'NONE');
#23 = PLANE ( 'NONE',  #60 ) ;
#24 =( LENGTH_UNIT ( ) NAMED_UNIT ( * ) SI_UNIT ( $, .METRE. ) );
#25 = VECTOR ( 'NONE', #107, 39.37007874015748143 ) ;
#26 = PRESENTATION_STYLE_ASSIGNMENT (( #248 ) ) ;
#27 = CIRCLE ( 'NONE', #237, 0.1875000000000000833 ) ;
#28 = FACE_OUTER_BOUND ( 'NONE', #228, .T. ) ;
#29 = DIRECTION ( 'NONE',  ( 0.000000000000000000, 0.000000000000000000, -1.000000000000000000 ) ) ;
#30 = EDGE_LOOP ( 'NONE', ( #34, #199 ) ) ;
#31 = ADVANCED_FACE ( 'NONE', ( #28 ), #126, .T. ) ;
#32 =( LENGTH_UNIT ( ) NAMED_UNIT ( * ) SI_UNIT ( $, .METRE. ) );
#33 = DIRECTION ( 'NONE',  ( -0.000000000000000000, -1.000000000000000000, -0.000000000000000000 ) ) ;
#34 = ORIENTED_EDGE ( 'NONE', *, *, #292, .F. ) ;
#35 = COLOUR_RGB ( '',0.7921568627450980005, 0.8196078431372548767, 0.9333333333333333481 ) ;
#36 = FILL_AREA_STYLE ('',( #4 ) ) ;
#37 = EDGE_LOOP ( 'NONE', ( #78, #286 ) ) ;
#38 = CARTESIAN_POINT ( 'NONE',  ( 0.000000000000000000, 0.000000000000000000, 0.000000000000000000 ) ) ;
#39 =( CONVERSION_BASED_UNIT ( 'INCH', #44 ) LENGTH_UNIT ( ) NAMED_UNIT ( #153 ) );
#40 = PLANE ( 'NONE',  #196 ) ;
#41 = STYLED_ITEM ( 'NONE', ( #74 ), #194 ) ;
#42 = EDGE_CURVE ( 'NONE', #207, #6, #252, .T. ) ;
#43 = APPLICATION_PROTOCOL_DEFINITION ( 'draft international standard', 'automotive_design', 1998, #76 ) ;
#44 = LENGTH_MEASURE_WITH_UNIT ( LENGTH_MEASURE( 0.02539999999999999897 ), #303 );
#45 = EDGE_CURVE ( 'NONE', #103, #296, #306, .T. ) ;
#46 = CIRCLE ( 'NONE', #81, 0.1875000000000000833 ) ;
#47 = AXIS2_PLACEMENT_3D ( 'NONE', #290, #77, #253 ) ;
#48 = FILL_AREA_STYLE_COLOUR ( '', #146 ) ;
#49 = FACE_OUTER_BOUND ( 'NONE', #37, .T. ) ;
#50 = FILL_AREA_STYLE_COLOUR ( '', #90 ) ;
#51 = CARTESIAN_POINT ( 'NONE',  ( 0.000000000000000000, 2.000000000000000000, 0.000000000000000000 ) ) ;
#52 = SURFACE_STYLE_FILL_AREA ( #36 ) ;
#53 = DIRECTION ( 'NONE',  ( -3.061616997868383018E-17, 1.000000000000000000, -0.000000000000000000 ) ) ;
#54 = UNCERTAINTY_MEASURE_WITH_UNIT (LENGTH_MEASURE( 1.000000000000000082E-05 ), #151, 'distance_accuracy_value', 'NONE');
#55 = DIRECTION ( 'NONE',  ( -1.000000000000000000, 0.000000000000000000, 0.000000000000000000 ) ) ;
#56 = ORIENTED_EDGE ( 'NONE', *, *, #13, .T. ) ;
#57 = CARTESIAN_POINT ( 'NONE',  ( 0.000000000000000000, 0.000000000000000000, 0.000000000000000000 ) ) ;
#58 = ORIENTED_EDGE ( 'NONE', *, *, #18, .T. ) ;
#59 = ORIENTED_EDGE ( 'NONE', *, *, #292, .T. ) ;
#60 = AXIS2_PLACEMENT_3D ( 'NONE', #51, #150, #19 ) ;
#61 = CIRCLE ( 'NONE', #125, 0.1875000000000000278 ) ;
#62 = DIRECTION ( 'NONE',  ( -0.000000000000000000, -1.000000000000000000, -0.000000000000000000 ) ) ;
#63 = DIRECTION ( 'NONE',  ( -0.000000000000000000, -1.000000000000000000, -0.000000000000000000 ) ) ;
#64 = EDGE_CURVE ( 'NONE', #291, #294, #209, .T. ) ;
#65 = CARTESIAN_POINT ( 'NONE',  ( 0.000000000000000000, 0.000000000000000000, -0.1875000000000000278 ) ) ;
#66 = PRESENTATION_LAYER_ASSIGNMENT (  '', '', ( #260 ) ) ;
#67 = SURFACE_STYLE_USAGE ( .BOTH. , #89 ) ;
#68 = SURFACE_STYLE_USAGE ( .BOTH. , #217 ) ;
#69 = CIRCLE ( 'NONE', #208, 0.1875000000000000278 ) ;
#70 =( GEOMETRIC_REPRESENTATION_CONTEXT ( 3 ) GLOBAL_UNCERTAINTY_ASSIGNED_CONTEXT ( ( #22 ) ) GLOBAL_UNIT_ASSIGNED_CONTEXT ( ( #189, #300, #86 ) ) REPRESENTATION_CONTEXT ( 'NONE', 'WORKASPACE' ) );
#71 = LENGTH_MEASURE_WITH_UNIT ( LENGTH_MEASURE( 0.02539999999999999897 ), #24 );
#72 = EDGE_CURVE ( 'NONE', #291, #296, #115, .T. ) ;
#73 = MECHANICAL_DESIGN_GEOMETRIC_PRESENTATION_REPRESENTATION (  '', ( #82 ), #257 ) ;
#74 = PRESENTATION_STYLE_ASSIGNMENT (( #20 ) ) ;
#75 = VERTEX_POINT ( 'NONE', #238 ) ;
#76 = APPLICATION_CONTEXT ( 'automotive_design' ) ;
#77 = DIRECTION ( 'NONE',  ( -3.061616997868383018E-17, 1.000000000000000000, -0.000000000000000000 ) ) ;
#78 = ORIENTED_EDGE ( 'NONE', *, *, #130, .T. ) ;
#79 = DIRECTION ( 'NONE',  ( 0.000000000000000000, 0.000000000000000000, -1.000000000000000000 ) ) ;
#80 = FACE_OUTER_BOUND ( 'NONE', #173, .T. ) ;
#81 = AXIS2_PLACEMENT_3D ( 'NONE', #180, #53, #254 ) ;
#82 = STYLED_ITEM ( 'NONE', ( #265 ), #120 ) ;
#83 = CARTESIAN_POINT ( 'NONE',  ( -0.1875000000000000278, 2.000000000000000000, 0.000000000000000000 ) ) ;
#84 = DIRECTION ( 'NONE',  ( 1.000000000000000000, 0.000000000000000000, 0.000000000000000000 ) ) ;
#85 = EDGE_CURVE ( 'NONE', #294, #103, #304, .T. ) ;
#86 =( NAMED_UNIT ( * ) SI_UNIT ( $, .STERADIAN. ) SOLID_ANGLE_UNIT ( ) );
#87 = PRESENTATION_STYLE_ASSIGNMENT (( #68 ) ) ;
#88 = PRODUCT_DEFINITION ( 'UNKNOWN', '', #202, #127 ) ;
#89 = SURFACE_SIDE_STYLE ('',( #240 ) ) ;
#90 = COLOUR_RGB ( '',1.000000000000000000, 0.000000000000000000, 0.000000000000000000 ) ;
#91 =( CONVERSION_BASED_UNIT ( 'INCH', #184 ) LENGTH_UNIT ( ) NAMED_UNIT ( #220 ) );
#92 =( LENGTH_UNIT ( ) NAMED_UNIT ( * ) SI_UNIT ( $, .METRE. ) );
#93 = DIMENSIONAL_EXPONENTS ( 1.000000000000000000, 0.000000000000000000, 0.000000000000000000, 0.000000000000000000, 0.000000000000000000, 0.000000000000000000, 0.000000000000000000 ) ;
#94 =( NAMED_UNIT ( * ) SI_UNIT ( $, .STERADIAN. ) SOLID_ANGLE_UNIT ( ) );
#95 = CARTESIAN_POINT ( 'NONE',  ( 0.1875000000000000278, 2.000000000000000000, 2.296212748401288342E-17 ) ) ;
#96 = MECHANICAL_DESIGN_GEOMETRIC_PRESENTATION_REPRESENTATION (  '', ( #187 ), #70 ) ;
#97 = MANIFOLD_SOLID_BREP ( 'Revolve - Tool Body (Straight Shanked)', #145 ) ;
#98 = PLANE ( 'NONE',  #245 ) ;
#99 = DIMENSIONAL_EXPONENTS ( 1.000000000000000000, 0.000000000000000000, 0.000000000000000000, 0.000000000000000000, 0.000000000000000000, 0.000000000000000000, 0.000000000000000000 ) ;
#100 = ADVANCED_FACE ( 'NONE', ( #118 ), #262, .T. ) ;
#101 = AXIS2_PLACEMENT_3D ( 'NONE', #246, #154, #247 ) ;
#102 = CYLINDRICAL_SURFACE ( 'NONE', #225, 0.1875000000000000278 ) ;
#103 = VERTEX_POINT ( 'NONE', #9 ) ;
#104 = DIRECTION ( 'NONE',  ( -3.061616997868383018E-17, 1.000000000000000000, -0.000000000000000000 ) ) ;
#105 = ORIENTED_EDGE ( 'NONE', *, *, #269, .F. ) ;
#106 = CARTESIAN_POINT ( 'NONE',  ( 0.000000000000000000, 0.000000000000000000, -0.1875000000000000278 ) ) ;
#107 = DIRECTION ( 'NONE',  ( -3.061616997868383018E-17, 1.000000000000000000, -0.000000000000000000 ) ) ;
#108 =( NAMED_UNIT ( * ) SI_UNIT ( $, .STERADIAN. ) SOLID_ANGLE_UNIT ( ) );
#109 = EDGE_LOOP ( 'NONE', ( #201, #129, #277, #136 ) ) ;
#110 = ORIENTED_EDGE ( 'NONE', *, *, #42, .F. ) ;
#111 = ADVANCED_FACE ( 'NONE', ( #113 ), #40, .F. ) ;
#112 = PRESENTATION_LAYER_ASSIGNMENT (  '', '', ( #169 ) ) ;
#113 = FACE_OUTER_BOUND ( 'NONE', #30, .T. ) ;
#114 = DIRECTION ( 'NONE',  ( -1.000000000000000000, -3.061616997868383018E-17, 0.000000000000000000 ) ) ;
#115 = LINE ( 'NONE', #65, #134 ) ;
#116 = PRODUCT_CONTEXT ( 'NONE', #76, 'mechanical' ) ;
#117 = MECHANICAL_DESIGN_GEOMETRIC_PRESENTATION_REPRESENTATION (  '', ( #288 ), #216 ) ;
#118 = FACE_OUTER_BOUND ( 'NONE', #155, .T. ) ;
#119 = LINE ( 'NONE', #222, #278 ) ;
#120 = ADVANCED_FACE ( 'NONE', ( #213 ), #23, .T. ) ;
#121 = FILL_AREA_STYLE ('',( #243 ) ) ;
#122 = FILL_AREA_STYLE ('',( #50 ) ) ;
#123 = SURFACE_SIDE_STYLE ('',( #307 ) ) ;
#124 = AXIS2_PLACEMENT_3D ( 'NONE', #162, #104, #200 ) ;
#125 = AXIS2_PLACEMENT_3D ( 'NONE', #176, #156, #29 ) ;
#126 = CYLINDRICAL_SURFACE ( 'NONE', #139, 0.1875000000000000555 ) ;
#127 = PRODUCT_DEFINITION_CONTEXT ( 'detailed design', #142, 'design' ) ;
#128 = CYLINDRICAL_SURFACE ( 'NONE', #124, 0.1875000000000000555 ) ;
#129 = ORIENTED_EDGE ( 'NONE', *, *, #269, .T. ) ;
#130 = EDGE_CURVE ( 'NONE', #296, #103, #241, .T. ) ;
#131 = CARTESIAN_POINT ( 'NONE',  ( 2.296212748401287726E-17, 2.000000000000000000, 0.1875000000000000278 ) ) ;
#132 = ORIENTED_EDGE ( 'NONE', *, *, #186, .F. ) ;
#133 =( CONVERSION_BASED_UNIT ( 'INCH', #258 ) LENGTH_UNIT ( ) NAMED_UNIT ( #283 ) );
#134 = VECTOR ( 'NONE', #143, 39.37007874015748143 ) ;
#135 =( GEOMETRIC_REPRESENTATION_CONTEXT ( 3 ) GLOBAL_UNCERTAINTY_ASSIGNED_CONTEXT ( ( #308 ) ) GLOBAL_UNIT_ASSIGNED_CONTEXT ( ( #198, #1, #229 ) ) REPRESENTATION_CONTEXT ( 'NONE', 'WORKASPACE' ) );
#136 = ORIENTED_EDGE ( 'NONE', *, *, #45, .F. ) ;
#137 = SURFACE_SIDE_STYLE ('',( #52 ) ) ;
#138 = ORIENTED_EDGE ( 'NONE', *, *, #186, .T. ) ;
#139 = AXIS2_PLACEMENT_3D ( 'NONE', #157, #259, #55 ) ;
#140 = CARTESIAN_POINT ( 'NONE',  ( 8.787654976534324059E-35, 2.000000000000000000, 0.000000000000000000 ) ) ;
#141 = SHAPE_DEFINITION_REPRESENTATION ( #183, #12 ) ;
#142 = APPLICATION_CONTEXT ( 'automotive_design' ) ;
#143 = DIRECTION ( 'NONE',  ( -0.000000000000000000, -1.000000000000000000, -0.000000000000000000 ) ) ;
#144 = CARTESIAN_POINT ( 'NONE',  ( 2.296212748401287726E-17, 0.000000000000000000, 0.1875000000000000278 ) ) ;
#145 = CLOSED_SHELL ( 'NONE', ( #31, #111, #226, #3 ) ) ;
#146 = COLOUR_RGB ( '',0.7921568627450980005, 0.8196078431372548767, 0.9333333333333333481 ) ;
#147 = AXIS2_PLACEMENT_3D ( 'NONE', #282, #62, #212 ) ;
#148 = EDGE_LOOP ( 'NONE', ( #160, #105 ) ) ;
#149 = EDGE_CURVE ( 'NONE', #6, #75, #27, .T. ) ;
#150 = DIRECTION ( 'NONE',  ( 0.000000000000000000, 1.000000000000000000, 0.000000000000000000 ) ) ;
#151 =( CONVERSION_BASED_UNIT ( 'INCH', #71 ) LENGTH_UNIT ( ) NAMED_UNIT ( #99 ) );
#152 = SURFACE_STYLE_FILL_AREA ( #121 ) ;
#153 = DIMENSIONAL_EXPONENTS ( 1.000000000000000000, 0.000000000000000000, 0.000000000000000000, 0.000000000000000000, 0.000000000000000000, 0.000000000000000000, 0.000000000000000000 ) ;
#154 = DIRECTION ( 'NONE',  ( -0.000000000000000000, -1.000000000000000000, -0.000000000000000000 ) ) ;
#155 = EDGE_LOOP ( 'NONE', ( #7, #235, #206, #234 ) ) ;
#156 = DIRECTION ( 'NONE',  ( -0.000000000000000000, -1.000000000000000000, -0.000000000000000000 ) ) ;
#157 = CARTESIAN_POINT ( 'NONE',  ( -6.123233995736766036E-17, 4.000000000000000000, 0.000000000000000000 ) ) ;
#158 = CARTESIAN_POINT ( 'NONE',  ( 0.000000000000000000, 2.000000000000000000, -0.1875000000000000278 ) ) ;
#159 = ORIENTED_EDGE ( 'NONE', *, *, #42, .T. ) ;
#160 = ORIENTED_EDGE ( 'NONE', *, *, #64, .F. ) ;
#161 = AXIS2_PLACEMENT_3D ( 'NONE', #256, #177, #182 ) ;
#162 = CARTESIAN_POINT ( 'NONE',  ( -6.123233995736766036E-17, 4.000000000000000000, 0.000000000000000000 ) ) ;
#163 = VECTOR ( 'NONE', #63, 39.37007874015748143 ) ;
#164 = ORIENTED_EDGE ( 'NONE', *, *, #13, .F. ) ;
#165 = FILL_AREA_STYLE ('',( #263 ) ) ;
#166 = PRESENTATION_LAYER_ASSIGNMENT (  '', '', ( #288 ) ) ;
#167 = FILL_AREA_STYLE ('',( #214 ) ) ;
#168 = DIMENSIONAL_EXPONENTS ( 1.000000000000000000, 0.000000000000000000, 0.000000000000000000, 0.000000000000000000, 0.000000000000000000, 0.000000000000000000, 0.000000000000000000 ) ;
#169 = STYLED_ITEM ( 'NONE', ( #26 ), #236 ) ;
#170 = LENGTH_MEASURE_WITH_UNIT ( LENGTH_MEASURE( 0.02539999999999999897 ), #221 );
#171 =( NAMED_UNIT ( * ) SI_UNIT ( $, .STERADIAN. ) SOLID_ANGLE_UNIT ( ) );
#172 = AXIS2_PLACEMENT_3D ( 'NONE', #230, #33, #79 ) ;
#173 = EDGE_LOOP ( 'NONE', ( #56, #274 ) ) ;
#174 = CARTESIAN_POINT ( 'NONE',  ( 0.000000000000000000, 2.000000000000000000, 0.000000000000000000 ) ) ;
#175 = COLOUR_RGB ( '',1.000000000000000000, 0.000000000000000000, 0.000000000000000000 ) ;
#176 = CARTESIAN_POINT ( 'NONE',  ( 0.000000000000000000, 2.000000000000000000, 0.000000000000000000 ) ) ;
#177 = DIRECTION ( 'NONE',  ( 3.061616997868383018E-17, -1.000000000000000000, 0.000000000000000000 ) ) ;
#178 = CARTESIAN_POINT ( 'NONE',  ( 0.000000000000000000, 2.000000000000000000, 0.000000000000000000 ) ) ;
#179 = CARTESIAN_POINT ( 'NONE',  ( 0.000000000000000000, 0.000000000000000000, 0.000000000000000000 ) ) ;
#180 = CARTESIAN_POINT ( 'NONE',  ( -6.123233995736766036E-17, 4.000000000000000000, 0.000000000000000000 ) ) ;
#181 = CLOSED_SHELL ( 'NONE', ( #100, #120, #236, #219 ) ) ;
#182 = DIRECTION ( 'NONE',  ( 1.000000000000000000, 3.061616997868383018E-17, 0.000000000000000000 ) ) ;
#183 = PRODUCT_DEFINITION_SHAPE ( 'NONE', 'NONE',  #88 ) ;
#184 = LENGTH_MEASURE_WITH_UNIT ( LENGTH_MEASURE( 0.02539999999999999897 ), #280 );
#185 =( NAMED_UNIT ( * ) PLANE_ANGLE_UNIT ( ) SI_UNIT ( $, .RADIAN. ) );
#186 = EDGE_CURVE ( 'NONE', #2, #75, #119, .T. ) ;
#187 = STYLED_ITEM ( 'NONE', ( #279 ), #97 ) ;
#188 = PRODUCT_RELATED_PRODUCT_CATEGORY ( 'part', '', ( #239 ) ) ;
#189 =( CONVERSION_BASED_UNIT ( 'INCH', #15 ) LENGTH_UNIT ( ) NAMED_UNIT ( #93 ) );
#190 = PRESENTATION_LAYER_ASSIGNMENT (  '', '', ( #82 ) ) ;
#191 = AXIS2_PLACEMENT_3D ( 'NONE', #38, #211, #84 ) ;
#192 =( NAMED_UNIT ( * ) SI_UNIT ( $, .STERADIAN. ) SOLID_ANGLE_UNIT ( ) );
#193 = FILL_AREA_STYLE ('',( #48 ) ) ;
#194 = MANIFOLD_SOLID_BREP ( 'Revolve - Cutting Edge', #181 ) ;
#195 = SURFACE_STYLE_FILL_AREA ( #193 ) ;
#196 = AXIS2_PLACEMENT_3D ( 'NONE', #140, #11, #114 ) ;
#197 = PRESENTATION_STYLE_ASSIGNMENT (( #233 ) ) ;
#198 =( CONVERSION_BASED_UNIT ( 'INCH', #255 ) LENGTH_UNIT ( ) NAMED_UNIT ( #168 ) );
#199 = ORIENTED_EDGE ( 'NONE', *, *, #18, .F. ) ;
#200 = DIRECTION ( 'NONE',  ( -1.000000000000000000, 0.000000000000000000, 0.000000000000000000 ) ) ;
#201 = ORIENTED_EDGE ( 'NONE', *, *, #85, .F. ) ;
#202 = PRODUCT_DEFINITION_FORMATION_WITH_SPECIFIED_SOURCE ( 'ANY', '', #239, .NOT_KNOWN. ) ;
#203 = DIRECTION ( 'NONE',  ( -0.000000000000000000, -1.000000000000000000, -0.000000000000000000 ) ) ;
#204 = CARTESIAN_POINT ( 'NONE',  ( 0.1874999999999999722, 4.000000000000000000, 2.296212748401288034E-17 ) ) ;
#205 = UNCERTAINTY_MEASURE_WITH_UNIT (LENGTH_MEASURE( 1.000000000000000082E-05 ), #133, 'distance_accuracy_value', 'NONE');
#206 = ORIENTED_EDGE ( 'NONE', *, *, #130, .F. ) ;
#207 = VERTEX_POINT ( 'NONE', #95 ) ;
#208 = AXIS2_PLACEMENT_3D ( 'NONE', #174, #289, #249 ) ;
#209 = CIRCLE ( 'NONE', #16, 0.1875000000000000278 ) ;
#210 = UNCERTAINTY_MEASURE_WITH_UNIT (LENGTH_MEASURE( 1.000000000000000082E-05 ), #223, 'distance_accuracy_value', 'NONE');
#211 = DIRECTION ( 'NONE',  ( 0.000000000000000000, 0.000000000000000000, 1.000000000000000000 ) ) ;
#212 = DIRECTION ( 'NONE',  ( 0.000000000000000000, 0.000000000000000000, -1.000000000000000000 ) ) ;
#213 = FACE_OUTER_BOUND ( 'NONE', #148, .T. ) ;
#214 = FILL_AREA_STYLE_COLOUR ( '', #175 ) ;
#215 = APPLICATION_PROTOCOL_DEFINITION ( 'draft international standard', 'automotive_design', 1998, #142 ) ;
#216 =( GEOMETRIC_REPRESENTATION_CONTEXT ( 3 ) GLOBAL_UNCERTAINTY_ASSIGNED_CONTEXT ( ( #227 ) ) GLOBAL_UNIT_ASSIGNED_CONTEXT ( ( #39, #185, #94 ) ) REPRESENTATION_CONTEXT ( 'NONE', 'WORKASPACE' ) );
#217 = SURFACE_SIDE_STYLE ('',( #301 ) ) ;
#218 =( GEOMETRIC_REPRESENTATION_CONTEXT ( 3 ) GLOBAL_UNCERTAINTY_ASSIGNED_CONTEXT ( ( #266 ) ) GLOBAL_UNIT_ASSIGNED_CONTEXT ( ( #91, #299, #302 ) ) REPRESENTATION_CONTEXT ( 'NONE', 'WORKASPACE' ) );
#219 = ADVANCED_FACE ( 'NONE', ( #49 ), #98, .T. ) ;
#220 = DIMENSIONAL_EXPONENTS ( 1.000000000000000000, 0.000000000000000000, 0.000000000000000000, 0.000000000000000000, 0.000000000000000000, 0.000000000000000000, 0.000000000000000000 ) ;
#221 =( LENGTH_UNIT ( ) NAMED_UNIT ( * ) SI_UNIT ( $, .METRE. ) );
#222 = CARTESIAN_POINT ( 'NONE',  ( -0.1875000000000001110, 4.000000000000000000, 0.000000000000000000 ) ) ;
#223 =( CONVERSION_BASED_UNIT ( 'INCH', #170 ) LENGTH_UNIT ( ) NAMED_UNIT ( #17 ) );
#224 =( NAMED_UNIT ( * ) PLANE_ANGLE_UNIT ( ) SI_UNIT ( $, .RADIAN. ) );
#225 = AXIS2_PLACEMENT_3D ( 'NONE', #57, #203, #293 ) ;
#226 = ADVANCED_FACE ( 'NONE', ( #271 ), #128, .T. ) ;
#227 = UNCERTAINTY_MEASURE_WITH_UNIT (LENGTH_MEASURE( 1.000000000000000082E-05 ), #39, 'distance_accuracy_value', 'NONE');
#228 = EDGE_LOOP ( 'NONE', ( #59, #159, #164, #132 ) ) ;
#229 =( NAMED_UNIT ( * ) SI_UNIT ( $, .STERADIAN. ) SOLID_ANGLE_UNIT ( ) );
#230 = CARTESIAN_POINT ( 'NONE',  ( 0.000000000000000000, 0.000000000000000000, 0.000000000000000000 ) ) ;
#231 =( LENGTH_UNIT ( ) NAMED_UNIT ( * ) SI_UNIT ( $, .METRE. ) );
#232 = ORIENTED_EDGE ( 'NONE', *, *, #149, .F. ) ;
#233 = SURFACE_STYLE_USAGE ( .BOTH. , #285 ) ;
#234 = ORIENTED_EDGE ( 'NONE', *, *, #72, .F. ) ;
#235 = ORIENTED_EDGE ( 'NONE', *, *, #85, .T. ) ;
#236 = ADVANCED_FACE ( 'NONE', ( #251 ), #102, .T. ) ;
#237 = AXIS2_PLACEMENT_3D ( 'NONE', #305, #242, #267 ) ;
#238 = CARTESIAN_POINT ( 'NONE',  ( -0.1875000000000001388, 4.000000000000000000, 0.000000000000000000 ) ) ;
#239 = PRODUCT ( '01390', '01390', '', ( #116 ) ) ;
#240 = SURFACE_STYLE_FILL_AREA ( #165 ) ;
#241 = CIRCLE ( 'NONE', #101, 0.1875000000000000278 ) ;
#242 = DIRECTION ( 'NONE',  ( -3.061616997868383018E-17, 1.000000000000000000, -0.000000000000000000 ) ) ;
#243 = FILL_AREA_STYLE_COLOUR ( '', #264 ) ;
#244 = DIRECTION ( 'NONE',  ( -3.061616997868383018E-17, 1.000000000000000000, -0.000000000000000000 ) ) ;
#245 = AXIS2_PLACEMENT_3D ( 'NONE', #179, #295, #276 ) ;
#246 = CARTESIAN_POINT ( 'NONE',  ( 0.000000000000000000, 0.000000000000000000, 0.000000000000000000 ) ) ;
#247 = DIRECTION ( 'NONE',  ( 0.000000000000000000, 0.000000000000000000, -1.000000000000000000 ) ) ;
#248 = SURFACE_STYLE_USAGE ( .BOTH. , #137 ) ;
#249 = DIRECTION ( 'NONE',  ( -1.000000000000000000, 0.000000000000000000, 0.000000000000000000 ) ) ;
#250 =( GEOMETRIC_REPRESENTATION_CONTEXT ( 3 ) GLOBAL_UNCERTAINTY_ASSIGNED_CONTEXT ( ( #54 ) ) GLOBAL_UNIT_ASSIGNED_CONTEXT ( ( #151, #224, #171 ) ) REPRESENTATION_CONTEXT ( 'NONE', 'WORKASPACE' ) );
#251 = FACE_OUTER_BOUND ( 'NONE', #109, .T. ) ;
#252 = LINE ( 'NONE', #204, #25 ) ;
#253 = DIRECTION ( 'NONE',  ( -1.000000000000000000, 0.000000000000000000, 0.000000000000000000 ) ) ;
#254 = DIRECTION ( 'NONE',  ( -1.000000000000000000, 0.000000000000000000, 0.000000000000000000 ) ) ;
#255 = LENGTH_MEASURE_WITH_UNIT ( LENGTH_MEASURE( 0.02539999999999999897 ), #32 );
#256 = CARTESIAN_POINT ( 'NONE',  ( 0.1875000000000000278, 4.000000000000000000, 0.000000000000000000 ) ) ;
#257 =( GEOMETRIC_REPRESENTATION_CONTEXT ( 3 ) GLOBAL_UNCERTAINTY_ASSIGNED_CONTEXT ( ( #210 ) ) GLOBAL_UNIT_ASSIGNED_CONTEXT ( ( #223, #270, #192 ) ) REPRESENTATION_CONTEXT ( 'NONE', 'WORKASPACE' ) );
#258 = LENGTH_MEASURE_WITH_UNIT ( LENGTH_MEASURE( 0.02539999999999999897 ), #231 );
#259 = DIRECTION ( 'NONE',  ( -3.061616997868383018E-17, 1.000000000000000000, -0.000000000000000000 ) ) ;
#260 = STYLED_ITEM ( 'NONE', ( #197 ), #219 ) ;
#261 = CIRCLE ( 'NONE', #47, 0.1875000000000000278 ) ;
#262 = CYLINDRICAL_SURFACE ( 'NONE', #147, 0.1875000000000000278 ) ;
#263 = FILL_AREA_STYLE_COLOUR ( '', #35 ) ;
#264 = COLOUR_RGB ( '',1.000000000000000000, 0.000000000000000000, 0.000000000000000000 ) ;
#265 = PRESENTATION_STYLE_ASSIGNMENT (( #284 ) ) ;
#266 = UNCERTAINTY_MEASURE_WITH_UNIT (LENGTH_MEASURE( 1.000000000000000082E-05 ), #91, 'distance_accuracy_value', 'NONE');
#267 = DIRECTION ( 'NONE',  ( -1.000000000000000000, 0.000000000000000000, 0.000000000000000000 ) ) ;
#268 = MECHANICAL_DESIGN_GEOMETRIC_PRESENTATION_REPRESENTATION (  '', ( #169 ), #135 ) ;
#269 = EDGE_CURVE ( 'NONE', #294, #291, #61, .T. ) ;
#270 =( NAMED_UNIT ( * ) PLANE_ANGLE_UNIT ( ) SI_UNIT ( $, .RADIAN. ) );
#271 = FACE_OUTER_BOUND ( 'NONE', #8, .T. ) ;
#272 = CARTESIAN_POINT ( 'NONE',  ( 0.1875000000000000278, 4.000000000000000000, 2.296212748401288342E-17 ) ) ;
#273 = MECHANICAL_DESIGN_GEOMETRIC_PRESENTATION_REPRESENTATION (  '', ( #260 ), #298 ) ;
#274 = ORIENTED_EDGE ( 'NONE', *, *, #149, .T. ) ;
#275 = DIRECTION ( 'NONE',  ( -0.000000000000000000, -1.000000000000000000, -0.000000000000000000 ) ) ;
#276 = DIRECTION ( 'NONE',  ( 0.000000000000000000, 0.000000000000000000, -1.000000000000000000 ) ) ;
#277 = ORIENTED_EDGE ( 'NONE', *, *, #72, .T. ) ;
#278 = VECTOR ( 'NONE', #244, 39.37007874015748143 ) ;
#279 = PRESENTATION_STYLE_ASSIGNMENT (( #67 ) ) ;
#280 =( LENGTH_UNIT ( ) NAMED_UNIT ( * ) SI_UNIT ( $, .METRE. ) );
#281 = COLOUR_RGB ( '',1.000000000000000000, 0.000000000000000000, 0.000000000000000000 ) ;
#282 = CARTESIAN_POINT ( 'NONE',  ( 0.000000000000000000, 0.000000000000000000, 0.000000000000000000 ) ) ;
#283 = DIMENSIONAL_EXPONENTS ( 1.000000000000000000, 0.000000000000000000, 0.000000000000000000, 0.000000000000000000, 0.000000000000000000, 0.000000000000000000, 0.000000000000000000 ) ;
#284 = SURFACE_STYLE_USAGE ( .BOTH. , #123 ) ;
#285 = SURFACE_SIDE_STYLE ('',( #152 ) ) ;
#286 = ORIENTED_EDGE ( 'NONE', *, *, #45, .T. ) ;
#287 = SURFACE_SIDE_STYLE ('',( #195 ) ) ;
#288 = STYLED_ITEM ( 'NONE', ( #87 ), #100 ) ;
#289 = DIRECTION ( 'NONE',  ( -3.061616997868383018E-17, 1.000000000000000000, -0.000000000000000000 ) ) ;
#290 = CARTESIAN_POINT ( 'NONE',  ( 0.000000000000000000, 2.000000000000000000, 0.000000000000000000 ) ) ;
#291 = VERTEX_POINT ( 'NONE', #158 ) ;
#292 = EDGE_CURVE ( 'NONE', #2, #207, #261, .T. ) ;
#293 = DIRECTION ( 'NONE',  ( 0.000000000000000000, 0.000000000000000000, -1.000000000000000000 ) ) ;
#294 = VERTEX_POINT ( 'NONE', #131 ) ;
#295 = DIRECTION ( 'NONE',  ( 0.000000000000000000, -1.000000000000000000, -0.000000000000000000 ) ) ;
#296 = VERTEX_POINT ( 'NONE', #106 ) ;
#297 = PLANE ( 'NONE',  #161 ) ;
#298 =( GEOMETRIC_REPRESENTATION_CONTEXT ( 3 ) GLOBAL_UNCERTAINTY_ASSIGNED_CONTEXT ( ( #205 ) ) GLOBAL_UNIT_ASSIGNED_CONTEXT ( ( #133, #5, #108 ) ) REPRESENTATION_CONTEXT ( 'NONE', 'WORKASPACE' ) );
#299 =( NAMED_UNIT ( * ) PLANE_ANGLE_UNIT ( ) SI_UNIT ( $, .RADIAN. ) );
#300 =( NAMED_UNIT ( * ) PLANE_ANGLE_UNIT ( ) SI_UNIT ( $, .RADIAN. ) );
#301 = SURFACE_STYLE_FILL_AREA ( #167 ) ;
#302 =( NAMED_UNIT ( * ) SI_UNIT ( $, .STERADIAN. ) SOLID_ANGLE_UNIT ( ) );
#303 =( LENGTH_UNIT ( ) NAMED_UNIT ( * ) SI_UNIT ( $, .METRE. ) );
#304 = LINE ( 'NONE', #144, #163 ) ;
#305 = CARTESIAN_POINT ( 'NONE',  ( -6.123233995736766036E-17, 4.000000000000000000, 0.000000000000000000 ) ) ;
#306 = CIRCLE ( 'NONE', #172, 0.1875000000000000278 ) ;
#307 = SURFACE_STYLE_FILL_AREA ( #122 ) ;
#308 = UNCERTAINTY_MEASURE_WITH_UNIT (LENGTH_MEASURE( 1.000000000000000082E-05 ), #198, 'distance_accuracy_value', 'NONE');
#309 = PRESENTATION_LAYER_ASSIGNMENT (  '', '', ( #41 ) ) ;
ENDSEC;
END-ISO-10303-21;
