ISO-10303-21;
HEADER;
FILE_DESCRIPTION (( 'STEP AP214' ),
    '1' );
FILE_NAME ('84582.STEP',
    '2023-07-12T13:08:19',
    ( '' ),
    ( '' ),
    'SwSTEP 2.0',
    'SolidWorks 2023',
    '' );
FILE_SCHEMA (( 'AUTOMOTIVE_DESIGN' ));
ENDSEC;

DATA;
#1 = DIRECTION ( 'NONE',  ( 1.000000000000000000, 0.000000000000000000, 0.000000000000000000 ) ) ;
#2 = EDGE_LOOP ( 'NONE', ( #44, #11 ) ) ;
#3 = ORIENTED_EDGE ( 'NONE', *, *, #176, .F. ) ;
#4 = EDGE_LOOP ( 'NONE', ( #235, #260, #244, #243 ) ) ;
#5 = MECHANICAL_DESIGN_GEOMETRIC_PRESENTATION_REPRESENTATION (  '', ( #157 ), #206 ) ;
#6 = SURFACE_SIDE_STYLE ('',( #78 ) ) ;
#7 = LENGTH_MEASURE_WITH_UNIT ( LENGTH_MEASURE( 0.02539999999999999897 ), #172 );
#8 = VERTEX_POINT ( 'NONE', #83 ) ;
#9 = SURFACE_SIDE_STYLE ('',( #221 ) ) ;
#10 = ORIENTED_EDGE ( 'NONE', *, *, #181, .T. ) ;
#11 = ORIENTED_EDGE ( 'NONE', *, *, #227, .F. ) ;
#12 = EDGE_LOOP ( 'NONE', ( #283, #106 ) ) ;
#13 =( GEOMETRIC_REPRESENTATION_CONTEXT ( 3 ) GLOBAL_UNCERTAINTY_ASSIGNED_CONTEXT ( ( #22 ) ) GLOBAL_UNIT_ASSIGNED_CONTEXT ( ( #199, #130, #182 ) ) REPRESENTATION_CONTEXT ( 'NONE', 'WORKASPACE' ) );
#14 = FACE_OUTER_BOUND ( 'NONE', #12, .T. ) ;
#15 = FACE_OUTER_BOUND ( 'NONE', #170, .T. ) ;
#16 = CARTESIAN_POINT ( 'NONE',  ( 2.934689718313361793E-36, -2.422680217574478517E-19, 0.000000000000000000 ) ) ;
#17 = ADVANCED_FACE ( 'NONE', ( #34 ), #104, .T. ) ;
#18 = CONICAL_SURFACE ( 'NONE', #302, 0.02000000000000000042, 0.5235987755983000369 ) ;
#19 = DIRECTION ( 'NONE',  ( -1.211340108787239345E-17, 1.000000000000000000, 0.000000000000000000 ) ) ;
#20 = SURFACE_STYLE_USAGE ( .BOTH. , #135 ) ;
#21 = DIRECTION ( 'NONE',  ( 1.211340108787239345E-17, -1.000000000000000000, -0.000000000000000000 ) ) ;
#22 = UNCERTAINTY_MEASURE_WITH_UNIT (LENGTH_MEASURE( 1.000000000000000082E-05 ), #199, 'distance_accuracy_value', 'NONE');
#23 = COLOUR_RGB ( '',1.000000000000000000, 0.000000000000000000, 0.000000000000000000 ) ;
#24 = VERTEX_POINT ( 'NONE', #99 ) ;
#25 = CARTESIAN_POINT ( 'NONE',  ( 0.000000000000000000, 0.000000000000000000, 0.000000000000000000 ) ) ;
#26 = UNCERTAINTY_MEASURE_WITH_UNIT (LENGTH_MEASURE( 1.000000000000000082E-05 ), #39, 'distance_accuracy_value', 'NONE');
#27 = EDGE_CURVE ( 'NONE', #132, #305, #64, .T. ) ;
#28 = AXIS2_PLACEMENT_3D ( 'NONE', #185, #117, #186 ) ;
#29 = CARTESIAN_POINT ( 'NONE',  ( 2.366403184893062976E-16, 0.07361215932167709808, 0.000000000000000000 ) ) ;
#30 = ORIENTED_EDGE ( 'NONE', *, *, #181, .F. ) ;
#31 = DIRECTION ( 'NONE',  ( -1.211340108787239345E-17, 1.000000000000000000, 0.000000000000000000 ) ) ;
#32 =( CONVERSION_BASED_UNIT ( 'INCH', #131 ) LENGTH_UNIT ( ) NAMED_UNIT ( #67 ) );
#33 = ORIENTED_EDGE ( 'NONE', *, *, #232, .T. ) ;
#34 = FACE_OUTER_BOUND ( 'NONE', #4, .T. ) ;
#35 = CARTESIAN_POINT ( 'NONE',  ( 1.467344859156680896E-36, -1.211340108787239258E-19, 0.000000000000000000 ) ) ;
#36 =( NAMED_UNIT ( * ) PLANE_ANGLE_UNIT ( ) SI_UNIT ( $, .RADIAN. ) );
#37 = DIRECTION ( 'NONE',  ( -1.000000000000000000, -1.365923996832137033E-16, 0.000000000000000000 ) ) ;
#38 = STYLED_ITEM ( 'NONE', ( #81 ), #256 ) ;
#39 =( CONVERSION_BASED_UNIT ( 'INCH', #273 ) LENGTH_UNIT ( ) NAMED_UNIT ( #188 ) );
#40 = FACE_OUTER_BOUND ( 'NONE', #159, .T. ) ;
#41 = CARTESIAN_POINT ( 'NONE',  ( 0.06249999999999999306, 1.500000000000000222, 0.000000000000000000 ) ) ;
#42 = STYLED_ITEM ( 'NONE', ( #69 ), #58 ) ;
#43 = DIRECTION ( 'NONE',  ( 1.211340108787239345E-17, -1.000000000000000000, -0.000000000000000000 ) ) ;
#44 = ORIENTED_EDGE ( 'NONE', *, *, #74, .F. ) ;
#45 =( LENGTH_UNIT ( ) NAMED_UNIT ( * ) SI_UNIT ( $, .METRE. ) );
#46 = MANIFOLD_SOLID_BREP ( 'Revolve - Cutting Edge', #301 ) ;
#47 = PRESENTATION_LAYER_ASSIGNMENT (  '', '', ( #42 ) ) ;
#48 = APPLICATION_PROTOCOL_DEFINITION ( 'draft international standard', 'automotive_design', 1998, #87 ) ;
#49 = MANIFOLD_SOLID_BREP ( 'Revolve - Tool Body (Tipped Off)', #249 ) ;
#50 = PRESENTATION_LAYER_ASSIGNMENT (  '', '', ( #189 ) ) ;
#51 = VERTEX_POINT ( 'NONE', #201 ) ;
#52 =( NAMED_UNIT ( * ) SI_UNIT ( $, .STERADIAN. ) SOLID_ANGLE_UNIT ( ) );
#53 =( NAMED_UNIT ( * ) SI_UNIT ( $, .STERADIAN. ) SOLID_ANGLE_UNIT ( ) );
#54 = UNCERTAINTY_MEASURE_WITH_UNIT (LENGTH_MEASURE( 1.000000000000000082E-05 ), #271, 'distance_accuracy_value', 'NONE');
#55 =( NAMED_UNIT ( * ) SI_UNIT ( $, .STERADIAN. ) SOLID_ANGLE_UNIT ( ) );
#56 =( GEOMETRIC_REPRESENTATION_CONTEXT ( 3 ) GLOBAL_UNCERTAINTY_ASSIGNED_CONTEXT ( ( #54 ) ) GLOBAL_UNIT_ASSIGNED_CONTEXT ( ( #271, #247, #202 ) ) REPRESENTATION_CONTEXT ( 'NONE', 'WORKASPACE' ) );
#57 = DIRECTION ( 'NONE',  ( -1.229735514630598979E-16, 1.000000000000000000, -0.000000000000000000 ) ) ;
#58 = ADVANCED_FACE ( 'NONE', ( #14 ), #140, .T. ) ;
#59 = CARTESIAN_POINT ( 'NONE',  ( -0.06249999999999978489, 1.500000000000000222, 0.000000000000000000 ) ) ;
#60 = COLOUR_RGB ( '',1.000000000000000000, 0.000000000000000000, 0.000000000000000000 ) ;
#61 = SURFACE_STYLE_FILL_AREA ( #62 ) ;
#62 = FILL_AREA_STYLE ('',( #68 ) ) ;
#63 = CARTESIAN_POINT ( 'NONE',  ( 0.06249999999999999306, 1.500000000000000222, 7.654042494670943678E-18 ) ) ;
#64 = CIRCLE ( 'NONE', #295, 0.06249999999999993061 ) ;
#65 = STYLED_ITEM ( 'NONE', ( #173 ), #49 ) ;
#66 =( CONVERSION_BASED_UNIT ( 'INCH', #205 ) LENGTH_UNIT ( ) NAMED_UNIT ( #90 ) );
#67 = DIMENSIONAL_EXPONENTS ( 1.000000000000000000, 0.000000000000000000, 0.000000000000000000, 0.000000000000000000, 0.000000000000000000, 0.000000000000000000, 0.000000000000000000 ) ;
#68 = FILL_AREA_STYLE_COLOUR ( '', #60 ) ;
#69 = PRESENTATION_STYLE_ASSIGNMENT (( #94 ) ) ;
#70 = MECHANICAL_DESIGN_GEOMETRIC_PRESENTATION_REPRESENTATION (  '', ( #92 ), #258 ) ;
#71 = MECHANICAL_DESIGN_GEOMETRIC_PRESENTATION_REPRESENTATION (  '', ( #42 ), #93 ) ;
#72 = EDGE_CURVE ( 'NONE', #8, #51, #263, .T. ) ;
#73 = ORIENTED_EDGE ( 'NONE', *, *, #269, .T. ) ;
#74 = EDGE_CURVE ( 'NONE', #118, #265, #195, .T. ) ;
#75 =( CONVERSION_BASED_UNIT ( 'INCH', #193 ) LENGTH_UNIT ( ) NAMED_UNIT ( #299 ) );
#76 = DIRECTION ( 'NONE',  ( -1.229735514630598979E-16, 1.000000000000000000, -0.000000000000000000 ) ) ;
#77 = AXIS2_PLACEMENT_3D ( 'NONE', #41, #284, #125 ) ;
#78 = SURFACE_STYLE_FILL_AREA ( #153 ) ;
#79 = PRODUCT ( '84582', '84582', '', ( #254 ) ) ;
#80 = SURFACE_SIDE_STYLE ('',( #124 ) ) ;
#81 = PRESENTATION_STYLE_ASSIGNMENT (( #105 ) ) ;
#82 = CIRCLE ( 'NONE', #164, 0.06249999999999993061 ) ;
#83 = CARTESIAN_POINT ( 'NONE',  ( -0.02000000000000000042, -4.845360435148957034E-19, 0.000000000000000000 ) ) ;
#84 = DIRECTION ( 'NONE',  ( -1.229735514630598979E-16, 1.000000000000000000, -0.000000000000000000 ) ) ;
#85 = CARTESIAN_POINT ( 'NONE',  ( -0.06250000000000001388, 0.07361215932167709808, 0.000000000000000000 ) ) ;
#86 = AXIS2_PLACEMENT_3D ( 'NONE', #91, #31, #123 ) ;
#87 = APPLICATION_CONTEXT ( 'automotive_design' ) ;
#88 = DIRECTION ( 'NONE',  ( 1.000000000000000000, 1.211340108787239191E-17, 0.000000000000000000 ) ) ;
#89 = DIRECTION ( 'NONE',  ( -1.000000000000000000, -1.211340108787239499E-17, 0.000000000000000000 ) ) ;
#90 = DIMENSIONAL_EXPONENTS ( 1.000000000000000000, 0.000000000000000000, 0.000000000000000000, 0.000000000000000000, 0.000000000000000000, 0.000000000000000000, 0.000000000000000000 ) ;
#91 = CARTESIAN_POINT ( 'NONE',  ( 2.934689718313361793E-36, -2.422680217574478517E-19, 0.000000000000000000 ) ) ;
#92 = STYLED_ITEM ( 'NONE', ( #151 ), #46 ) ;
#93 =( GEOMETRIC_REPRESENTATION_CONTEXT ( 3 ) GLOBAL_UNCERTAINTY_ASSIGNED_CONTEXT ( ( #26 ) ) GLOBAL_UNIT_ASSIGNED_CONTEXT ( ( #39, #158, #252 ) ) REPRESENTATION_CONTEXT ( 'NONE', 'WORKASPACE' ) );
#94 = SURFACE_STYLE_USAGE ( .BOTH. , #303 ) ;
#95 = DIMENSIONAL_EXPONENTS ( 1.000000000000000000, 0.000000000000000000, 0.000000000000000000, 0.000000000000000000, 0.000000000000000000, 0.000000000000000000, 0.000000000000000000 ) ;
#96 = ORIENTED_EDGE ( 'NONE', *, *, #292, .T. ) ;
#97 = MECHANICAL_DESIGN_GEOMETRIC_PRESENTATION_REPRESENTATION (  '', ( #65 ), #211 ) ;
#98 = CARTESIAN_POINT ( 'NONE',  ( 2.366403184893062483E-16, 0.07361215932167698706, 0.000000000000000000 ) ) ;
#99 = CARTESIAN_POINT ( 'NONE',  ( 0.06250000000000001388, 0.07361215932167709808, 7.654042494670959086E-18 ) ) ;
#100 = DIRECTION ( 'NONE',  ( 1.211340108787239345E-17, -1.000000000000000000, -0.000000000000000000 ) ) ;
#101 = AXIS2_PLACEMENT_3D ( 'NONE', #280, #298, #297 ) ;
#102 = ADVANCED_BREP_SHAPE_REPRESENTATION ( '84582', ( #46, #49, #109 ), #149 ) ;
#103 =( LENGTH_UNIT ( ) NAMED_UNIT ( * ) SI_UNIT ( $, .METRE. ) );
#104 = CYLINDRICAL_SURFACE ( 'NONE', #198, 0.06249999999999984734 ) ;
#105 = SURFACE_STYLE_USAGE ( .BOTH. , #9 ) ;
#106 = ORIENTED_EDGE ( 'NONE', *, *, #275, .F. ) ;
#107 = DIRECTION ( 'NONE',  ( -1.229735514630598979E-16, 1.000000000000000000, -0.000000000000000000 ) ) ;
#108 = CONICAL_SURFACE ( 'NONE', #86, 0.02000000000000000042, 0.5235987755983000369 ) ;
#109 = AXIS2_PLACEMENT_3D ( 'NONE', #25, #191, #282 ) ;
#110 = CARTESIAN_POINT ( 'NONE',  ( 2.934689718313361793E-36, -2.422680217574478517E-19, 0.000000000000000000 ) ) ;
#111 = DIRECTION ( 'NONE',  ( -1.000000000000000000, -1.211340108787239191E-17, 0.000000000000000000 ) ) ;
#112 =( LENGTH_UNIT ( ) NAMED_UNIT ( * ) SI_UNIT ( $, .METRE. ) );
#113 = VECTOR ( 'NONE', #250, 39.37007874015748143 ) ;
#114 = CYLINDRICAL_SURFACE ( 'NONE', #101, 0.06249999999999984734 ) ;
#115 = VERTEX_POINT ( 'NONE', #85 ) ;
#116 = DIRECTION ( 'NONE',  ( 1.211340108787239345E-17, -1.000000000000000000, -0.000000000000000000 ) ) ;
#117 = DIRECTION ( 'NONE',  ( -1.229735514630598979E-16, 1.000000000000000000, -0.000000000000000000 ) ) ;
#118 = VERTEX_POINT ( 'NONE', #139 ) ;
#119 = AXIS2_PLACEMENT_3D ( 'NONE', #29, #255, #121 ) ;
#120 = VECTOR ( 'NONE', #76, 39.37007874015748143 ) ;
#121 = DIRECTION ( 'NONE',  ( -1.000000000000000000, -1.229735514630598979E-16, 0.000000000000000000 ) ) ;
#122 = ORIENTED_EDGE ( 'NONE', *, *, #27, .F. ) ;
#123 = DIRECTION ( 'NONE',  ( -1.000000000000000000, -1.211340108787239191E-17, 0.000000000000000000 ) ) ;
#124 = SURFACE_STYLE_FILL_AREA ( #291 ) ;
#125 = DIRECTION ( 'NONE',  ( 1.000000000000000000, 1.229735514630598979E-16, 0.000000000000000000 ) ) ;
#126 = UNCERTAINTY_MEASURE_WITH_UNIT (LENGTH_MEASURE( 1.000000000000000082E-05 ), #75, 'distance_accuracy_value', 'NONE');
#127 = CARTESIAN_POINT ( 'NONE',  ( 6.123233995736763571E-17, 1.500000000000000222, 0.000000000000000000 ) ) ;
#128 = CARTESIAN_POINT ( 'NONE',  ( 6.123233995736763571E-17, 1.500000000000000222, 0.000000000000000000 ) ) ;
#129 = ADVANCED_FACE ( 'NONE', ( #300 ), #114, .T. ) ;
#130 =( NAMED_UNIT ( * ) PLANE_ANGLE_UNIT ( ) SI_UNIT ( $, .RADIAN. ) );
#131 = LENGTH_MEASURE_WITH_UNIT ( LENGTH_MEASURE( 0.02539999999999999897 ), #103 );
#132 = VERTEX_POINT ( 'NONE', #63 ) ;
#133 = FILL_AREA_STYLE ('',( #246 ) ) ;
#134 = COLOUR_RGB ( '',0.7921568627450980005, 0.8196078431372548767, 0.9333333333333333481 ) ;
#135 = SURFACE_SIDE_STYLE ('',( #270 ) ) ;
#136 = LINE ( 'NONE', #161, #113 ) ;
#137 = CARTESIAN_POINT ( 'NONE',  ( 2.934689718313361793E-36, -2.422680217574478517E-19, 0.000000000000000000 ) ) ;
#138 = DIRECTION ( 'NONE',  ( 1.000000000000000000, 1.211340108787239191E-17, 0.000000000000000000 ) ) ;
#139 = CARTESIAN_POINT ( 'NONE',  ( -0.06249999999999952122, 0.07361215932167698706, 0.000000000000000000 ) ) ;
#140 = PLANE ( 'NONE',  #148 ) ;
#141 = PRESENTATION_LAYER_ASSIGNMENT (  '', '', ( #65 ) ) ;
#142 = AXIS2_PLACEMENT_3D ( 'NONE', #216, #100, #1 ) ;
#143 = PRESENTATION_LAYER_ASSIGNMENT (  '', '', ( #38 ) ) ;
#144 = CIRCLE ( 'NONE', #207, 0.06250000000000000000 ) ;
#145 = ORIENTED_EDGE ( 'NONE', *, *, #269, .F. ) ;
#146 = DIRECTION ( 'NONE',  ( 1.000000000000000000, 0.000000000000000000, 0.000000000000000000 ) ) ;
#147 =( CONVERSION_BASED_UNIT ( 'INCH', #287 ) LENGTH_UNIT ( ) NAMED_UNIT ( #274 ) );
#148 = AXIS2_PLACEMENT_3D ( 'NONE', #248, #187, #89 ) ;
#149 =( GEOMETRIC_REPRESENTATION_CONTEXT ( 3 ) GLOBAL_UNCERTAINTY_ASSIGNED_CONTEXT ( ( #126 ) ) GLOBAL_UNIT_ASSIGNED_CONTEXT ( ( #75, #309, #257 ) ) REPRESENTATION_CONTEXT ( 'NONE', 'WORKASPACE' ) );
#150 = FILL_AREA_STYLE_COLOUR ( '', #23 ) ;
#151 = PRESENTATION_STYLE_ASSIGNMENT (( #179 ) ) ;
#152 = LINE ( 'NONE', #59, #277 ) ;
#153 = FILL_AREA_STYLE ('',( #217 ) ) ;
#154 = DIRECTION ( 'NONE',  ( -1.229735514630598979E-16, 1.000000000000000000, -0.000000000000000000 ) ) ;
#155 = PRODUCT_DEFINITION ( 'UNKNOWN', '', #308, #293 ) ;
#156 = DIRECTION ( 'NONE',  ( -1.000000000000000000, 0.000000000000000000, 0.000000000000000000 ) ) ;
#157 = STYLED_ITEM ( 'NONE', ( #162 ), #184 ) ;
#158 =( NAMED_UNIT ( * ) PLANE_ANGLE_UNIT ( ) SI_UNIT ( $, .RADIAN. ) );
#159 = EDGE_LOOP ( 'NONE', ( #3, #73, #223, #30 ) ) ;
#160 =( NAMED_UNIT ( * ) PLANE_ANGLE_UNIT ( ) SI_UNIT ( $, .RADIAN. ) );
#161 = CARTESIAN_POINT ( 'NONE',  ( 0.02000000000000000042, 0.000000000000000000, 2.449293598294706769E-18 ) ) ;
#162 = PRESENTATION_STYLE_ASSIGNMENT (( #20 ) ) ;
#163 = EDGE_LOOP ( 'NONE', ( #180, #196 ) ) ;
#164 = AXIS2_PLACEMENT_3D ( 'NONE', #128, #154, #156 ) ;
#165 = SURFACE_STYLE_USAGE ( .BOTH. , #228 ) ;
#166 = PRESENTATION_STYLE_ASSIGNMENT (( #165 ) ) ;
#167 = AXIS2_PLACEMENT_3D ( 'NONE', #35, #210, #279 ) ;
#168 = APPLICATION_PROTOCOL_DEFINITION ( 'draft international standard', 'automotive_design', 1998, #307 ) ;
#169 = ORIENTED_EDGE ( 'NONE', *, *, #72, .T. ) ;
#170 = EDGE_LOOP ( 'NONE', ( #169, #177 ) ) ;
#171 = AXIS2_PLACEMENT_3D ( 'NONE', #137, #21, #88 ) ;
#172 =( LENGTH_UNIT ( ) NAMED_UNIT ( * ) SI_UNIT ( $, .METRE. ) );
#173 = PRESENTATION_STYLE_ASSIGNMENT (( #286 ) ) ;
#174 = FILL_AREA_STYLE ('',( #150 ) ) ;
#175 = FACE_OUTER_BOUND ( 'NONE', #163, .T. ) ;
#176 = EDGE_CURVE ( 'NONE', #51, #8, #267, .T. ) ;
#177 = ORIENTED_EDGE ( 'NONE', *, *, #176, .T. ) ;
#178 = AXIS2_PLACEMENT_3D ( 'NONE', #110, #43, #138 ) ;
#179 = SURFACE_STYLE_USAGE ( .BOTH. , #80 ) ;
#180 = ORIENTED_EDGE ( 'NONE', *, *, #242, .T. ) ;
#181 = EDGE_CURVE ( 'NONE', #8, #115, #234, .T. ) ;
#182 =( NAMED_UNIT ( * ) SI_UNIT ( $, .STERADIAN. ) SOLID_ANGLE_UNIT ( ) );
#183 = FILL_AREA_STYLE ('',( #294 ) ) ;
#184 = ADVANCED_FACE ( 'NONE', ( #40 ), #108, .T. ) ;
#185 = CARTESIAN_POINT ( 'NONE',  ( 2.366403184893062483E-16, 0.07361215932167698706, 0.000000000000000000 ) ) ;
#186 = DIRECTION ( 'NONE',  ( -1.000000000000000000, -1.365923996832137033E-16, 0.000000000000000000 ) ) ;
#187 = DIRECTION ( 'NONE',  ( -1.211340108787239499E-17, 1.000000000000000000, 0.000000000000000000 ) ) ;
#188 = DIMENSIONAL_EXPONENTS ( 1.000000000000000000, 0.000000000000000000, 0.000000000000000000, 0.000000000000000000, 0.000000000000000000, 0.000000000000000000, 0.000000000000000000 ) ;
#189 = STYLED_ITEM ( 'NONE', ( #166 ), #262 ) ;
#190 = UNCERTAINTY_MEASURE_WITH_UNIT (LENGTH_MEASURE( 1.000000000000000082E-05 ), #147, 'distance_accuracy_value', 'NONE');
#191 = DIRECTION ( 'NONE',  ( 0.000000000000000000, 0.000000000000000000, 1.000000000000000000 ) ) ;
#192 = ORIENTED_EDGE ( 'NONE', *, *, #289, .F. ) ;
#193 = LENGTH_MEASURE_WITH_UNIT ( LENGTH_MEASURE( 0.02539999999999999897 ), #239 );
#194 = SHAPE_DEFINITION_REPRESENTATION ( #238, #102 ) ;
#195 = CIRCLE ( 'NONE', #28, 0.06249999999999975714 ) ;
#196 = ORIENTED_EDGE ( 'NONE', *, *, #27, .T. ) ;
#197 = DIRECTION ( 'NONE',  ( -1.000000000000000000, 0.000000000000000000, 0.000000000000000000 ) ) ;
#198 = AXIS2_PLACEMENT_3D ( 'NONE', #245, #57, #197 ) ;
#199 =( CONVERSION_BASED_UNIT ( 'INCH', #7 ) LENGTH_UNIT ( ) NAMED_UNIT ( #95 ) );
#200 = ADVANCED_FACE ( 'NONE', ( #175 ), #222, .F. ) ;
#201 = CARTESIAN_POINT ( 'NONE',  ( 0.02000000000000000042, 0.000000000000000000, 5.051668046482832349E-18 ) ) ;
#202 =( NAMED_UNIT ( * ) SI_UNIT ( $, .STERADIAN. ) SOLID_ANGLE_UNIT ( ) );
#203 = CARTESIAN_POINT ( 'NONE',  ( -0.02000000000000000042, -4.845360435148957034E-19, 0.000000000000000000 ) ) ;
#204 = CARTESIAN_POINT ( 'NONE',  ( 0.06250000000000001388, 0.07361215932167700093, 7.654042494670945219E-18 ) ) ;
#205 = LENGTH_MEASURE_WITH_UNIT ( LENGTH_MEASURE( 0.02539999999999999897 ), #112 );
#206 =( GEOMETRIC_REPRESENTATION_CONTEXT ( 3 ) GLOBAL_UNCERTAINTY_ASSIGNED_CONTEXT ( ( #212 ) ) GLOBAL_UNIT_ASSIGNED_CONTEXT ( ( #66, #160, #52 ) ) REPRESENTATION_CONTEXT ( 'NONE', 'WORKASPACE' ) );
#207 = AXIS2_PLACEMENT_3D ( 'NONE', #230, #116, #146 ) ;
#208 =( LENGTH_UNIT ( ) NAMED_UNIT ( * ) SI_UNIT ( $, .METRE. ) );
#209 = ORIENTED_EDGE ( 'NONE', *, *, #227, .T. ) ;
#210 = DIRECTION ( 'NONE',  ( 1.211340108787239499E-17, -1.000000000000000000, -0.000000000000000000 ) ) ;
#211 =( GEOMETRIC_REPRESENTATION_CONTEXT ( 3 ) GLOBAL_UNCERTAINTY_ASSIGNED_CONTEXT ( ( #190 ) ) GLOBAL_UNIT_ASSIGNED_CONTEXT ( ( #147, #261, #55 ) ) REPRESENTATION_CONTEXT ( 'NONE', 'WORKASPACE' ) );
#212 = UNCERTAINTY_MEASURE_WITH_UNIT (LENGTH_MEASURE( 1.000000000000000082E-05 ), #66, 'distance_accuracy_value', 'NONE');
#213 = PLANE ( 'NONE',  #119 ) ;
#214 = VECTOR ( 'NONE', #272, 39.37007874015748143 ) ;
#215 = CIRCLE ( 'NONE', #142, 0.06250000000000000000 ) ;
#216 = CARTESIAN_POINT ( 'NONE',  ( -8.916936108078392579E-19, 0.07361215932167709808, 0.000000000000000000 ) ) ;
#217 = FILL_AREA_STYLE_COLOUR ( '', #134 ) ;
#218 = ADVANCED_FACE ( 'NONE', ( #281 ), #213, .F. ) ;
#219 = EDGE_LOOP ( 'NONE', ( #192, #209, #33, #122 ) ) ;
#220 = EDGE_LOOP ( 'NONE', ( #145, #229, #10, #96 ) ) ;
#221 = SURFACE_STYLE_FILL_AREA ( #174 ) ;
#222 = PLANE ( 'NONE',  #77 ) ;
#223 = ORIENTED_EDGE ( 'NONE', *, *, #275, .T. ) ;
#224 = MECHANICAL_DESIGN_GEOMETRIC_PRESENTATION_REPRESENTATION (  '', ( #189 ), #56 ) ;
#225 = SURFACE_STYLE_FILL_AREA ( #133 ) ;
#226 = DIRECTION ( 'NONE',  ( -1.229735514630598979E-16, 1.000000000000000000, -0.000000000000000000 ) ) ;
#227 = EDGE_CURVE ( 'NONE', #265, #118, #251, .T. ) ;
#228 = SURFACE_SIDE_STYLE ('',( #61 ) ) ;
#229 = ORIENTED_EDGE ( 'NONE', *, *, #72, .F. ) ;
#230 = CARTESIAN_POINT ( 'NONE',  ( -8.916936108078392579E-19, 0.07361215932167709808, 0.000000000000000000 ) ) ;
#231 = DIMENSIONAL_EXPONENTS ( 1.000000000000000000, 0.000000000000000000, 0.000000000000000000, 0.000000000000000000, 0.000000000000000000, 0.000000000000000000, 0.000000000000000000 ) ;
#232 = EDGE_CURVE ( 'NONE', #118, #305, #152, .T. ) ;
#233 = LENGTH_MEASURE_WITH_UNIT ( LENGTH_MEASURE( 0.02539999999999999897 ), #45 );
#234 = LINE ( 'NONE', #203, #214 ) ;
#235 = ORIENTED_EDGE ( 'NONE', *, *, #74, .T. ) ;
#236 = LINE ( 'NONE', #240, #120 ) ;
#237 = PRODUCT_RELATED_PRODUCT_CATEGORY ( 'part', '', ( #79 ) ) ;
#238 = PRODUCT_DEFINITION_SHAPE ( 'NONE', 'NONE',  #155 ) ;
#239 =( LENGTH_UNIT ( ) NAMED_UNIT ( * ) SI_UNIT ( $, .METRE. ) );
#240 = CARTESIAN_POINT ( 'NONE',  ( 0.06249999999999990286, 1.500000000000000222, 7.654042494670939056E-18 ) ) ;
#241 = CARTESIAN_POINT ( 'NONE',  ( -0.06249999999999986816, 1.500000000000000222, 0.000000000000000000 ) ) ;
#242 = EDGE_CURVE ( 'NONE', #305, #132, #82, .T. ) ;
#243 = ORIENTED_EDGE ( 'NONE', *, *, #232, .F. ) ;
#244 = ORIENTED_EDGE ( 'NONE', *, *, #242, .F. ) ;
#245 = CARTESIAN_POINT ( 'NONE',  ( 6.123233995736763571E-17, 1.500000000000000222, 0.000000000000000000 ) ) ;
#246 = FILL_AREA_STYLE_COLOUR ( '', #306 ) ;
#247 =( NAMED_UNIT ( * ) PLANE_ANGLE_UNIT ( ) SI_UNIT ( $, .RADIAN. ) );
#248 = CARTESIAN_POINT ( 'NONE',  ( -8.916936108078392579E-19, 0.07361215932167709808, 0.000000000000000000 ) ) ;
#249 = CLOSED_SHELL ( 'NONE', ( #17, #218, #129, #200 ) ) ;
#250 = DIRECTION ( 'NONE',  ( 0.5000000000000009992, 0.8660254037844380415, 6.123233995736778362E-17 ) ) ;
#251 = CIRCLE ( 'NONE', #290, 0.06249999999999975714 ) ;
#252 =( NAMED_UNIT ( * ) SI_UNIT ( $, .STERADIAN. ) SOLID_ANGLE_UNIT ( ) );
#253 = MECHANICAL_DESIGN_GEOMETRIC_PRESENTATION_REPRESENTATION (  '', ( #38 ), #13 ) ;
#254 = PRODUCT_CONTEXT ( 'NONE', #307, 'mechanical' ) ;
#255 = DIRECTION ( 'NONE',  ( -1.229735514630598979E-16, 1.000000000000000000, 0.000000000000000000 ) ) ;
#256 = ADVANCED_FACE ( 'NONE', ( #15 ), #264, .T. ) ;
#257 =( NAMED_UNIT ( * ) SI_UNIT ( $, .STERADIAN. ) SOLID_ANGLE_UNIT ( ) );
#258 =( GEOMETRIC_REPRESENTATION_CONTEXT ( 3 ) GLOBAL_UNCERTAINTY_ASSIGNED_CONTEXT ( ( #304 ) ) GLOBAL_UNIT_ASSIGNED_CONTEXT ( ( #32, #36, #53 ) ) REPRESENTATION_CONTEXT ( 'NONE', 'WORKASPACE' ) );
#259 = COLOUR_RGB ( '',1.000000000000000000, 0.000000000000000000, 0.000000000000000000 ) ;
#260 = ORIENTED_EDGE ( 'NONE', *, *, #289, .T. ) ;
#261 =( NAMED_UNIT ( * ) PLANE_ANGLE_UNIT ( ) SI_UNIT ( $, .RADIAN. ) );
#262 = ADVANCED_FACE ( 'NONE', ( #268 ), #18, .T. ) ;
#263 = CIRCLE ( 'NONE', #171, 0.02000000000000000042 ) ;
#264 = PLANE ( 'NONE',  #167 ) ;
#265 = VERTEX_POINT ( 'NONE', #204 ) ;
#266 = DIRECTION ( 'NONE',  ( -1.000000000000000000, 0.000000000000000000, 0.000000000000000000 ) ) ;
#267 = CIRCLE ( 'NONE', #178, 0.02000000000000000042 ) ;
#268 = FACE_OUTER_BOUND ( 'NONE', #220, .T. ) ;
#269 = EDGE_CURVE ( 'NONE', #51, #24, #136, .T. ) ;
#270 = SURFACE_STYLE_FILL_AREA ( #183 ) ;
#271 =( CONVERSION_BASED_UNIT ( 'INCH', #233 ) LENGTH_UNIT ( ) NAMED_UNIT ( #231 ) );
#272 = DIRECTION ( 'NONE',  ( -0.5000000000000009992, 0.8660254037844380415, 0.000000000000000000 ) ) ;
#273 = LENGTH_MEASURE_WITH_UNIT ( LENGTH_MEASURE( 0.02539999999999999897 ), #208 );
#274 = DIMENSIONAL_EXPONENTS ( 1.000000000000000000, 0.000000000000000000, 0.000000000000000000, 0.000000000000000000, 0.000000000000000000, 0.000000000000000000, 0.000000000000000000 ) ;
#275 = EDGE_CURVE ( 'NONE', #24, #115, #144, .T. ) ;
#276 = PRESENTATION_LAYER_ASSIGNMENT (  '', '', ( #92 ) ) ;
#277 = VECTOR ( 'NONE', #84, 39.37007874015748143 ) ;
#278 = COLOUR_RGB ( '',0.7921568627450980005, 0.8196078431372548767, 0.9333333333333333481 ) ;
#279 = DIRECTION ( 'NONE',  ( 1.000000000000000000, 1.211340108787239499E-17, 0.000000000000000000 ) ) ;
#280 = CARTESIAN_POINT ( 'NONE',  ( 6.123233995736763571E-17, 1.500000000000000222, 0.000000000000000000 ) ) ;
#281 = FACE_OUTER_BOUND ( 'NONE', #2, .T. ) ;
#282 = DIRECTION ( 'NONE',  ( 1.000000000000000000, 0.000000000000000000, 0.000000000000000000 ) ) ;
#283 = ORIENTED_EDGE ( 'NONE', *, *, #292, .F. ) ;
#284 = DIRECTION ( 'NONE',  ( 1.229735514630598979E-16, -1.000000000000000000, 0.000000000000000000 ) ) ;
#285 =( LENGTH_UNIT ( ) NAMED_UNIT ( * ) SI_UNIT ( $, .METRE. ) );
#286 = SURFACE_STYLE_USAGE ( .BOTH. , #6 ) ;
#287 = LENGTH_MEASURE_WITH_UNIT ( LENGTH_MEASURE( 0.02539999999999999897 ), #285 );
#288 = FILL_AREA_STYLE_COLOUR ( '', #278 ) ;
#289 = EDGE_CURVE ( 'NONE', #265, #132, #236, .T. ) ;
#290 = AXIS2_PLACEMENT_3D ( 'NONE', #98, #226, #37 ) ;
#291 = FILL_AREA_STYLE ('',( #288 ) ) ;
#292 = EDGE_CURVE ( 'NONE', #115, #24, #215, .T. ) ;
#293 = PRODUCT_DEFINITION_CONTEXT ( 'detailed design', #87, 'design' ) ;
#294 = FILL_AREA_STYLE_COLOUR ( '', #259 ) ;
#295 = AXIS2_PLACEMENT_3D ( 'NONE', #127, #107, #266 ) ;
#296 = PRESENTATION_LAYER_ASSIGNMENT (  '', '', ( #157 ) ) ;
#297 = DIRECTION ( 'NONE',  ( -1.000000000000000000, 0.000000000000000000, 0.000000000000000000 ) ) ;
#298 = DIRECTION ( 'NONE',  ( -1.229735514630598979E-16, 1.000000000000000000, -0.000000000000000000 ) ) ;
#299 = DIMENSIONAL_EXPONENTS ( 1.000000000000000000, 0.000000000000000000, 0.000000000000000000, 0.000000000000000000, 0.000000000000000000, 0.000000000000000000, 0.000000000000000000 ) ;
#300 = FACE_OUTER_BOUND ( 'NONE', #219, .T. ) ;
#301 = CLOSED_SHELL ( 'NONE', ( #184, #58, #262, #256 ) ) ;
#302 = AXIS2_PLACEMENT_3D ( 'NONE', #16, #19, #111 ) ;
#303 = SURFACE_SIDE_STYLE ('',( #225 ) ) ;
#304 = UNCERTAINTY_MEASURE_WITH_UNIT (LENGTH_MEASURE( 1.000000000000000082E-05 ), #32, 'distance_accuracy_value', 'NONE');
#305 = VERTEX_POINT ( 'NONE', #241 ) ;
#306 = COLOUR_RGB ( '',1.000000000000000000, 0.000000000000000000, 0.000000000000000000 ) ;
#307 = APPLICATION_CONTEXT ( 'automotive_design' ) ;
#308 = PRODUCT_DEFINITION_FORMATION_WITH_SPECIFIED_SOURCE ( 'ANY', '', #79, .NOT_KNOWN. ) ;
#309 =( NAMED_UNIT ( * ) PLANE_ANGLE_UNIT ( ) SI_UNIT ( $, .RADIAN. ) );
ENDSEC;
END-ISO-10303-21;
