ISO-10303-21;
HEADER;
FILE_DESCRIPTION (( 'STEP AP214' ),
    '1' );
FILE_NAME ('Micro_GEC-312-4-010X.STEP',
    '2021-09-03T17:19:33',
    ( '' ),
    ( '' ),
    'SwSTEP 2.0',
    'SolidWorks 2020',
    '' );
FILE_SCHEMA (( 'AUTOMOTIVE_DESIGN' ));
ENDSEC;

DATA;
#1 = CARTESIAN_POINT ( 'NONE',  ( 0.0000000000000000000, 0.0000000000000000000, 2.500000000000000000 ) ) ;
#2 = ADVANCED_FACE ( 'NONE', ( #50 ), #197, .T. ) ;
#3 = FACE_OUTER_BOUND ( 'NONE', #290, .T. ) ;
#4 = CARTESIAN_POINT ( 'NONE',  ( 0.1412499999999994871, 1.821662113731684786E-17, 2.500000000000000000 ) ) ;
#5 = AXIS2_PLACEMENT_3D ( 'NONE', #166, #327, #77 ) ;
#6 = CYLINDRICAL_SURFACE ( 'NONE', #303, 0.1562500000000000000 ) ;
#7 = TOROIDAL_SURFACE ( 'NONE', #40, 0.1460937499999999667, 0.01000000000000000021 ) ;
#8 = LINE ( 'NONE', #332, #59 ) ;
#9 = EDGE_CURVE ( 'NONE', #288, #342, #14, .T. ) ;
#10 = CARTESIAN_POINT ( 'NONE',  ( -0.1412499999999994871, 0.0000000000000000000, 2.500000000000000000 ) ) ;
#11 = FACE_OUTER_BOUND ( 'NONE', #38, .T. ) ;
#12 = AXIS2_PLACEMENT_3D ( 'NONE', #275, #82, #141 ) ;
#13 = EDGE_LOOP ( 'NONE', ( #144, #314, #21, #102 ) ) ;
#14 = CIRCLE ( 'NONE', #161, 0.1562500000000000000 ) ;
#15 = DIRECTION ( 'NONE',  ( -1.000000000000000000, 1.224646799147354933E-16, 0.0000000000000000000 ) ) ;
#16 = UNCERTAINTY_MEASURE_WITH_UNIT (LENGTH_MEASURE( 1.000000000000000082E-05 ), #218, 'distance_accuracy_value', 'NONE');
#17 = PRODUCT ( 'Micro_GEC-312-4-010X', 'Micro_GEC-312-4-010X', '', ( #335 ) ) ;
#18 = ORIENTED_EDGE ( 'NONE', *, *, #217, .T. ) ;
#19 = FACE_OUTER_BOUND ( 'NONE', #13, .T. ) ;
#20 = CIRCLE ( 'NONE', #113, 0.1562500000000000000 ) ;
#21 = ORIENTED_EDGE ( 'NONE', *, *, #147, .T. ) ;
#22 = DIRECTION ( 'NONE',  ( 1.224646799147353207E-16, 1.000000000000000000, -0.0000000000000000000 ) ) ;
#23 = ORIENTED_EDGE ( 'NONE', *, *, #348, .F. ) ;
#24 = PLANE ( 'NONE',  #175 ) ;
#25 = EDGE_LOOP ( 'NONE', ( #204, #278, #237, #157 ) ) ;
#26 = CARTESIAN_POINT ( 'NONE',  ( -0.1460937499999999667, 1.850364773086703240E-17, 0.0000000000000000000 ) ) ;
#27 = EDGE_CURVE ( 'NONE', #323, #232, #115, .T. ) ;
#28 = DIRECTION ( 'NONE',  ( -0.7071067811865410224, 0.0000000000000000000, -0.7071067811865539010 ) ) ;
#29 = DIRECTION ( 'NONE',  ( 1.224646799147353207E-16, 0.0000000000000000000, 1.000000000000000000 ) ) ;
#30 = CIRCLE ( 'NONE', #104, 0.1460937499999999667 ) ;
#31 = CARTESIAN_POINT ( 'NONE',  ( 9.956378477067980482E-17, 0.0000000000000000000, 0.8129999999999999449 ) ) ;
#32 = EDGE_CURVE ( 'NONE', #45, #341, #184, .T. ) ;
#33 = CARTESIAN_POINT ( 'NONE',  ( 1.224646799147353577E-18, 0.0000000000000000000, 0.01000000000000000194 ) ) ;
#34 = DIRECTION ( 'NONE',  ( 0.7071067811865410224, 8.659560562354852739E-17, -0.7071067811865539010 ) ) ;
#35 = EDGE_CURVE ( 'NONE', #66, #232, #52, .T. ) ;
#36 = CONICAL_SURFACE ( 'NONE', #281, 0.1560937499999999756, 0.1745329251994339192 ) ;
#37 = ORIENTED_EDGE ( 'NONE', *, *, #55, .T. ) ;
#38 = EDGE_LOOP ( 'NONE', ( #100, #47, #114, #64 ) ) ;
#39 = AXIS2_PLACEMENT_3D ( 'NONE', #337, #76, #187 ) ;
#40 = AXIS2_PLACEMENT_3D ( 'NONE', #213, #51, #43 ) ;
#41 = EDGE_LOOP ( 'NONE', ( #150, #259 ) ) ;
#42 = VERTEX_POINT ( 'NONE', #26 ) ;
#43 = DIRECTION ( 'NONE',  ( 1.000000000000000000, 0.0000000000000000000, 0.0000000000000000000 ) ) ;
#44 = ADVANCED_FACE ( 'NONE', ( #68 ), #336, .T. ) ;
#45 = VERTEX_POINT ( 'NONE', #4 ) ;
#46 = AXIS2_PLACEMENT_3D ( 'NONE', #272, #80, #219 ) ;
#47 = ORIENTED_EDGE ( 'NONE', *, *, #268, .T. ) ;
#48 = CARTESIAN_POINT ( 'NONE',  ( 0.0000000000000000000, 0.0000000000000000000, 2.500000000000000000 ) ) ;
#49 = UNCERTAINTY_MEASURE_WITH_UNIT (LENGTH_MEASURE( 1.000000000000000082E-05 ), #167, 'distance_accuracy_value', 'NONE');
#50 = FACE_OUTER_BOUND ( 'NONE', #338, .T. ) ;
#51 = DIRECTION ( 'NONE',  ( 0.0000000000000000000, 0.0000000000000000000, 1.000000000000000000 ) ) ;
#52 = LINE ( 'NONE', #269, #109 ) ;
#53 = AXIS2_PLACEMENT_3D ( 'NONE', #33, #301, #112 ) ;
#54 = DIRECTION ( 'NONE',  ( 0.0000000000000000000, 0.0000000000000000000, -1.000000000000000000 ) ) ;
#55 = EDGE_CURVE ( 'NONE', #205, #342, #8, .T. ) ;
#56 = FACE_OUTER_BOUND ( 'NONE', #70, .T. ) ;
#57 = ADVANCED_FACE ( 'NONE', ( #189 ), #108, .F. ) ;
#58 = DIRECTION ( 'NONE',  ( 1.000000000000000000, 0.0000000000000000000, 0.0000000000000000000 ) ) ;
#59 = VECTOR ( 'NONE', #131, 39.37007874015748143 ) ;
#60 = LINE ( 'NONE', #302, #270 ) ;
#61 =( GEOMETRIC_REPRESENTATION_CONTEXT ( 3 ) GLOBAL_UNCERTAINTY_ASSIGNED_CONTEXT ( ( #16 ) ) GLOBAL_UNIT_ASSIGNED_CONTEXT ( ( #218, #297, #271 ) ) REPRESENTATION_CONTEXT ( 'NONE', 'WORKASPACE' ) );
#62 = CYLINDRICAL_SURFACE ( 'NONE', #46, 0.1560937499999999478 ) ;
#63 = CARTESIAN_POINT ( 'NONE',  ( 0.1412499999999994871, 1.729813603795630110E-17, 2.500000000000000000 ) ) ;
#64 = ORIENTED_EDGE ( 'NONE', *, *, #27, .F. ) ;
#65 = COLOUR_RGB ( '',0.7921568627450980005, 0.8196078431372548767, 0.9333333333333333481 ) ;
#66 = VERTEX_POINT ( 'NONE', #196 ) ;
#67 = LENGTH_MEASURE_WITH_UNIT ( LENGTH_MEASURE( 0.02539999999999999897 ), #262 );
#68 = FACE_OUTER_BOUND ( 'NONE', #261, .T. ) ;
#69 = DIRECTION ( 'NONE',  ( -1.000000000000000000, 0.0000000000000000000, 0.0000000000000000000 ) ) ;
#70 = EDGE_LOOP ( 'NONE', ( #210, #181, #349, #183 ) ) ;
#71 = PRESENTATION_STYLE_ASSIGNMENT (( #241 ) ) ;
#72 = VECTOR ( 'NONE', #315, 39.37007874015747433 ) ;
#73 = CARTESIAN_POINT ( 'NONE',  ( 0.0000000000000000000, 0.0000000000000000000, 2.500000000000000000 ) ) ;
#74 = DIRECTION ( 'NONE',  ( 1.000000000000000000, 0.0000000000000000000, 0.0000000000000000000 ) ) ;
#75 = ORIENTED_EDGE ( 'NONE', *, *, #118, .F. ) ;
#76 = DIRECTION ( 'NONE',  ( 0.0000000000000000000, 0.0000000000000000000, -1.000000000000000000 ) ) ;
#77 = DIRECTION ( 'NONE',  ( 1.000000000000000000, 0.0000000000000000000, 0.0000000000000000000 ) ) ;
#78 = SHAPE_DEFINITION_REPRESENTATION ( #123, #169 ) ;
#79 = AXIS2_PLACEMENT_3D ( 'NONE', #334, #86, #199 ) ;
#80 = DIRECTION ( 'NONE',  ( -1.224646799147353207E-16, -0.0000000000000000000, -1.000000000000000000 ) ) ;
#81 = SURFACE_STYLE_FILL_AREA ( #135 ) ;
#82 = DIRECTION ( 'NONE',  ( 0.0000000000000000000, 0.0000000000000000000, 1.000000000000000000 ) ) ;
#83 = DIRECTION ( 'NONE',  ( 1.000000000000000000, 0.0000000000000000000, 0.0000000000000000000 ) ) ;
#84 =( NAMED_UNIT ( * ) SI_UNIT ( $, .STERADIAN. ) SOLID_ANGLE_UNIT ( ) );
#85 = CIRCLE ( 'NONE', #129, 0.1560937499999999756 ) ;
#86 = DIRECTION ( 'NONE',  ( -0.0000000000000000000, -0.0000000000000000000, -1.000000000000000000 ) ) ;
#87 = DIRECTION ( 'NONE',  ( 0.0000000000000000000, 0.0000000000000000000, 1.000000000000000000 ) ) ;
#88 = EDGE_CURVE ( 'NONE', #66, #342, #60, .T. ) ;
#89 = ADVANCED_FACE ( 'NONE', ( #56 ), #62, .T. ) ;
#90 = CONICAL_SURFACE ( 'NONE', #231, 0.1412499999999994871, 0.7853981633974391752 ) ;
#91 = ORIENTED_EDGE ( 'NONE', *, *, #32, .F. ) ;
#92 = PRESENTATION_LAYER_ASSIGNMENT (  '', '', ( #130 ) ) ;
#93 = ORIENTED_EDGE ( 'NONE', *, *, #118, .T. ) ;
#94 = ORIENTED_EDGE ( 'NONE', *, *, #27, .T. ) ;
#95 = DIRECTION ( 'NONE',  ( 0.0000000000000000000, 0.0000000000000000000, -1.000000000000000000 ) ) ;
#96 = CIRCLE ( 'NONE', #168, 0.1560937499999999756 ) ;
#97 = LINE ( 'NONE', #207, #72 ) ;
#98 = PRESENTATION_LAYER_ASSIGNMENT (  '', '', ( #174 ) ) ;
#99 = DIRECTION ( 'NONE',  ( 1.000000000000000000, 0.0000000000000000000, 0.0000000000000000000 ) ) ;
#100 = ORIENTED_EDGE ( 'NONE', *, *, #142, .F. ) ;
#101 = CYLINDRICAL_SURFACE ( 'NONE', #304, 0.1562500000000000000 ) ;
#102 = ORIENTED_EDGE ( 'NONE', *, *, #126, .F. ) ;
#103 = CARTESIAN_POINT ( 'NONE',  ( -0.1412499999999994871, 0.0000000000000000000, 2.500000000000000000 ) ) ;
#104 = AXIS2_PLACEMENT_3D ( 'NONE', #243, #192, #273 ) ;
#105 = ORIENTED_EDGE ( 'NONE', *, *, #277, .F. ) ;
#106 = CARTESIAN_POINT ( 'NONE',  ( -0.1562500000000000000, 0.0000000000000000000, 2.484999999999999432 ) ) ;
#107 = LINE ( 'NONE', #10, #137 ) ;
#108 = PLANE ( 'NONE',  #12 ) ;
#109 = VECTOR ( 'NONE', #179, 39.37007874015748143 ) ;
#110 = DIRECTION ( 'NONE',  ( 1.000000000000000000, 0.0000000000000000000, 0.0000000000000000000 ) ) ;
#111 = CARTESIAN_POINT ( 'NONE',  ( 9.967230535079632947E-17, 0.0000000000000000000, 0.8138861377843152889 ) ) ;
#112 = DIRECTION ( 'NONE',  ( 1.000000000000000000, 0.0000000000000000000, 0.0000000000000000000 ) ) ;
#113 = AXIS2_PLACEMENT_3D ( 'NONE', #143, #201, #308 ) ;
#114 = ORIENTED_EDGE ( 'NONE', *, *, #147, .F. ) ;
#115 = CIRCLE ( 'NONE', #249, 0.01000000000000000021 ) ;
#116 = ORIENTED_EDGE ( 'NONE', *, *, #149, .F. ) ;
#117 = SURFACE_SIDE_STYLE ('',( #125 ) ) ;
#118 = EDGE_CURVE ( 'NONE', #341, #346, #107, .T. ) ;
#119 = DIRECTION ( 'NONE',  ( 1.000000000000000000, 0.0000000000000000000, 0.0000000000000000000 ) ) ;
#120 = TOROIDAL_SURFACE ( 'NONE', #198, 0.1460937499999999667, 0.01000000000000000021 ) ;
#121 = CARTESIAN_POINT ( 'NONE',  ( 0.0000000000000000000, 0.0000000000000000000, 2.500000000000000000 ) ) ;
#122 = ORIENTED_EDGE ( 'NONE', *, *, #202, .F. ) ;
#123 = PRODUCT_DEFINITION_SHAPE ( 'NONE', 'NONE',  #145 ) ;
#124 = ORIENTED_EDGE ( 'NONE', *, *, #316, .F. ) ;
#125 = SURFACE_STYLE_FILL_AREA ( #320 ) ;
#126 = EDGE_CURVE ( 'NONE', #310, #146, #134, .T. ) ;
#127 = DIRECTION ( 'NONE',  ( -1.224646799147353207E-16, -0.0000000000000000000, -1.000000000000000000 ) ) ;
#128 = DIRECTION ( 'NONE',  ( -0.0000000000000000000, -0.0000000000000000000, -1.000000000000000000 ) ) ;
#129 = AXIS2_PLACEMENT_3D ( 'NONE', #284, #347, #69 ) ;
#130 = STYLED_ITEM ( 'NONE', ( #71 ), #305 ) ;
#131 = DIRECTION ( 'NONE',  ( -0.0000000000000000000, -0.0000000000000000000, -1.000000000000000000 ) ) ;
#132 =( LENGTH_UNIT ( ) NAMED_UNIT ( * ) SI_UNIT ( $, .METRE. ) );
#133 = EDGE_CURVE ( 'NONE', #66, #310, #96, .T. ) ;
#134 = LINE ( 'NONE', #170, #257 ) ;
#135 = FILL_AREA_STYLE ('',( #246 ) ) ;
#136 = DIRECTION ( 'NONE',  ( -1.000000000000000000, 0.0000000000000000000, 0.0000000000000000000 ) ) ;
#137 = VECTOR ( 'NONE', #28, 39.37007874015748854 ) ;
#138 =( GEOMETRIC_REPRESENTATION_CONTEXT ( 3 ) GLOBAL_UNCERTAINTY_ASSIGNED_CONTEXT ( ( #49 ) ) GLOBAL_UNIT_ASSIGNED_CONTEXT ( ( #167, #244, #84 ) ) REPRESENTATION_CONTEXT ( 'NONE', 'WORKASPACE' ) );
#139 = CARTESIAN_POINT ( 'NONE',  ( 0.0000000000000000000, 0.0000000000000000000, 2.500000000000000000 ) ) ;
#140 = APPLICATION_PROTOCOL_DEFINITION ( 'draft international standard', 'automotive_design', 1998, #255 ) ;
#141 = DIRECTION ( 'NONE',  ( 1.000000000000000000, 0.0000000000000000000, -0.0000000000000000000 ) ) ;
#142 = EDGE_CURVE ( 'NONE', #42, #323, #30, .T. ) ;
#143 = CARTESIAN_POINT ( 'NONE',  ( 0.0000000000000000000, 0.0000000000000000000, 2.484999999999999432 ) ) ;
#144 = ORIENTED_EDGE ( 'NONE', *, *, #277, .T. ) ;
#145 = PRODUCT_DEFINITION ( 'UNKNOWN', '', #340, #158 ) ;
#146 = VERTEX_POINT ( 'NONE', #245 ) ;
#147 = EDGE_CURVE ( 'NONE', #232, #146, #151, .T. ) ;
#148 = ORIENTED_EDGE ( 'NONE', *, *, #242, .T. ) ;
#149 = EDGE_CURVE ( 'NONE', #346, #288, #191, .T. ) ;
#150 = ORIENTED_EDGE ( 'NONE', *, *, #202, .T. ) ;
#151 = CIRCLE ( 'NONE', #53, 0.1560937499999999478 ) ;
#152 =( NAMED_UNIT ( * ) PLANE_ANGLE_UNIT ( ) SI_UNIT ( $, .RADIAN. ) );
#153 = UNCERTAINTY_MEASURE_WITH_UNIT (LENGTH_MEASURE( 1.000000000000000082E-05 ), #160, 'distance_accuracy_value', 'NONE');
#154 = EDGE_LOOP ( 'NONE', ( #234, #37, #266, #116 ) ) ;
#155 = ADVANCED_FACE ( 'NONE', ( #3 ), #36, .T. ) ;
#156 = CARTESIAN_POINT ( 'NONE',  ( 0.0000000000000000000, 0.0000000000000000000, 0.0000000000000000000 ) ) ;
#157 = ORIENTED_EDGE ( 'NONE', *, *, #217, .F. ) ;
#158 = PRODUCT_DEFINITION_CONTEXT ( 'detailed design', #235, 'design' ) ;
#159 = ORIENTED_EDGE ( 'NONE', *, *, #178, .F. ) ;
#160 =( CONVERSION_BASED_UNIT ( 'INCH', #67 ) LENGTH_UNIT ( ) NAMED_UNIT ( #194 ) );
#161 = AXIS2_PLACEMENT_3D ( 'NONE', #188, #127, #119 ) ;
#162 = DIRECTION ( 'NONE',  ( 0.1736481776669314137, 0.0000000000000000000, 0.9848077530122077983 ) ) ;
#163 = DIRECTION ( 'NONE',  ( -1.224646799147353207E-16, -0.0000000000000000000, -1.000000000000000000 ) ) ;
#164 = LENGTH_MEASURE_WITH_UNIT ( LENGTH_MEASURE( 0.02539999999999999897 ), #132 );
#165 = DIMENSIONAL_EXPONENTS ( 1.000000000000000000, 0.0000000000000000000, 0.0000000000000000000, 0.0000000000000000000, 0.0000000000000000000, 0.0000000000000000000, 0.0000000000000000000 ) ;
#166 = CARTESIAN_POINT ( 'NONE',  ( 1.224646799147353577E-18, 0.0000000000000000000, 0.01000000000000000194 ) ) ;
#167 =( CONVERSION_BASED_UNIT ( 'INCH', #307 ) LENGTH_UNIT ( ) NAMED_UNIT ( #165 ) );
#168 = AXIS2_PLACEMENT_3D ( 'NONE', #171, #276, #330 ) ;
#169 = ADVANCED_BREP_SHAPE_REPRESENTATION ( 'Micro_GEC-312-4-010X', ( #305, #258 ), #138 ) ;
#170 = CARTESIAN_POINT ( 'NONE',  ( -0.1560937499999999478, 0.0000000000000000000, 1.911597113044071073E-17 ) ) ;
#171 = CARTESIAN_POINT ( 'NONE',  ( 9.956378477067980482E-17, 0.0000000000000000000, 0.8129999999999999449 ) ) ;
#172 = CARTESIAN_POINT ( 'NONE',  ( 0.1560937499999999478, 1.911597113044071073E-17, 0.01000000000000000194 ) ) ;
#173 = CIRCLE ( 'NONE', #220, 0.009999999999999995004 ) ;
#174 = STYLED_ITEM ( 'NONE', ( #299 ), #169 ) ;
#175 = AXIS2_PLACEMENT_3D ( 'NONE', #121, #180, #326 ) ;
#176 = ORIENTED_EDGE ( 'NONE', *, *, #88, .F. ) ;
#177 = COLOUR_RGB ( '',0.7921568627450980005, 0.8196078431372548767, 0.9333333333333333481 ) ;
#178 = EDGE_CURVE ( 'NONE', #146, #232, #294, .T. ) ;
#179 = DIRECTION ( 'NONE',  ( -1.224646799147353207E-16, -0.0000000000000000000, -1.000000000000000000 ) ) ;
#180 = DIRECTION ( 'NONE',  ( 0.0000000000000000000, 0.0000000000000000000, 1.000000000000000000 ) ) ;
#181 = ORIENTED_EDGE ( 'NONE', *, *, #133, .T. ) ;
#182 = CARTESIAN_POINT ( 'NONE',  ( -0.1562499999999999167, 0.0000000000000000000, 0.8138861377843152889 ) ) ;
#183 = ORIENTED_EDGE ( 'NONE', *, *, #178, .T. ) ;
#184 = CIRCLE ( 'NONE', #240, 0.1412499999999994871 ) ;
#185 = CARTESIAN_POINT ( 'NONE',  ( -0.1560937499999998923, 1.912553868355905422E-17, 0.8129999999999999449 ) ) ;
#186 = DIRECTION ( 'NONE',  ( -1.000000000000000000, 0.0000000000000000000, 0.0000000000000000000 ) ) ;
#187 = DIRECTION ( 'NONE',  ( 1.000000000000000000, 0.0000000000000000000, 0.0000000000000000000 ) ) ;
#188 = CARTESIAN_POINT ( 'NONE',  ( 9.967230535079632947E-17, 0.0000000000000000000, 0.8138861377843152889 ) ) ;
#189 = FACE_OUTER_BOUND ( 'NONE', #41, .T. ) ;
#190 = VECTOR ( 'NONE', #295, 39.37007874015748143 ) ;
#191 = LINE ( 'NONE', #225, #190 ) ;
#192 = DIRECTION ( 'NONE',  ( -0.0000000000000000000, -0.0000000000000000000, -1.000000000000000000 ) ) ;
#193 = APPLICATION_PROTOCOL_DEFINITION ( 'draft international standard', 'automotive_design', 1998, #235 ) ;
#194 = DIMENSIONAL_EXPONENTS ( 1.000000000000000000, 0.0000000000000000000, 0.0000000000000000000, 0.0000000000000000000, 0.0000000000000000000, 0.0000000000000000000, 0.0000000000000000000 ) ;
#195 = ADVANCED_FACE ( 'NONE', ( #298 ), #90, .T. ) ;
#196 = CARTESIAN_POINT ( 'NONE',  ( 0.1560937500000000866, 0.0000000000000000000, 0.8129999999999999449 ) ) ;
#197 = CONICAL_SURFACE ( 'NONE', #229, 0.1412499999999994871, 0.7853981633974391752 ) ;
#198 = AXIS2_PLACEMENT_3D ( 'NONE', #227, #87, #74 ) ;
#199 = DIRECTION ( 'NONE',  ( 1.000000000000000000, 0.0000000000000000000, 0.0000000000000000000 ) ) ;
#200 = SURFACE_STYLE_USAGE ( .BOTH. , #248 ) ;
#201 = DIRECTION ( 'NONE',  ( 0.0000000000000000000, 0.0000000000000000000, -1.000000000000000000 ) ) ;
#202 = EDGE_CURVE ( 'NONE', #323, #42, #287, .T. ) ;
#203 = EDGE_LOOP ( 'NONE', ( #208, #124, #93, #313 ) ) ;
#204 = ORIENTED_EDGE ( 'NONE', *, *, #55, .F. ) ;
#205 = VERTEX_POINT ( 'NONE', #274 ) ;
#206 = ORIENTED_EDGE ( 'NONE', *, *, #88, .T. ) ;
#207 = CARTESIAN_POINT ( 'NONE',  ( -0.1560937499999998923, 1.911597113044071690E-17, 0.8129999999999999449 ) ) ;
#208 = ORIENTED_EDGE ( 'NONE', *, *, #242, .F. ) ;
#209 = ADVANCED_FACE ( 'NONE', ( #247 ), #6, .T. ) ;
#210 = ORIENTED_EDGE ( 'NONE', *, *, #35, .F. ) ;
#211 = FILL_AREA_STYLE_COLOUR ( '', #65 ) ;
#212 = EDGE_LOOP ( 'NONE', ( #283, #122, #94, #159 ) ) ;
#213 = CARTESIAN_POINT ( 'NONE',  ( 1.224646799147353384E-18, 0.0000000000000000000, 0.01000000000000000021 ) ) ;
#214 = DIRECTION ( 'NONE',  ( 0.0000000000000000000, 0.0000000000000000000, -1.000000000000000000 ) ) ;
#215 = FACE_OUTER_BOUND ( 'NONE', #154, .T. ) ;
#216 = CARTESIAN_POINT ( 'NONE',  ( 9.956378477067980482E-17, 0.0000000000000000000, 0.8129999999999999449 ) ) ;
#217 = EDGE_CURVE ( 'NONE', #342, #288, #226, .T. ) ;
#218 =( CONVERSION_BASED_UNIT ( 'INCH', #164 ) LENGTH_UNIT ( ) NAMED_UNIT ( #300 ) );
#219 = DIRECTION ( 'NONE',  ( -1.000000000000000000, 0.0000000000000000000, 1.224646799147353207E-16 ) ) ;
#220 = AXIS2_PLACEMENT_3D ( 'NONE', #324, #22, #15 ) ;
#221 = CARTESIAN_POINT ( 'NONE',  ( 0.0000000000000000000, 0.0000000000000000000, 2.500000000000000000 ) ) ;
#222 = DIRECTION ( 'NONE',  ( 1.000000000000000000, 0.0000000000000000000, 0.0000000000000000000 ) ) ;
#223 = DIRECTION ( 'NONE',  ( 1.224646799147353207E-16, 0.0000000000000000000, 1.000000000000000000 ) ) ;
#224 =( LENGTH_UNIT ( ) NAMED_UNIT ( * ) SI_UNIT ( $, .METRE. ) );
#225 = CARTESIAN_POINT ( 'NONE',  ( -0.1562500000000000000, 0.0000000000000000000, 2.500000000000000000 ) ) ;
#226 = CIRCLE ( 'NONE', #279, 0.1562500000000000000 ) ;
#227 = CARTESIAN_POINT ( 'NONE',  ( 1.224646799147353384E-18, 0.0000000000000000000, 0.01000000000000000021 ) ) ;
#228 = EDGE_CURVE ( 'NONE', #205, #346, #20, .T. ) ;
#229 = AXIS2_PLACEMENT_3D ( 'NONE', #73, #95, #186 ) ;
#230 = DIRECTION ( 'NONE',  ( -1.224646799147353207E-16, -0.0000000000000000000, -1.000000000000000000 ) ) ;
#231 = AXIS2_PLACEMENT_3D ( 'NONE', #221, #54, #136 ) ;
#232 = VERTEX_POINT ( 'NONE', #172 ) ;
#233 = DIRECTION ( 'NONE',  ( -1.000000000000000000, 0.0000000000000000000, 1.224646799147353207E-16 ) ) ;
#234 = ORIENTED_EDGE ( 'NONE', *, *, #260, .T. ) ;
#235 = APPLICATION_CONTEXT ( 'automotive_design' ) ;
#236 =( NAMED_UNIT ( * ) SI_UNIT ( $, .STERADIAN. ) SOLID_ANGLE_UNIT ( ) );
#237 = ORIENTED_EDGE ( 'NONE', *, *, #149, .T. ) ;
#238 = DIRECTION ( 'NONE',  ( 1.000000000000000000, 0.0000000000000000000, 0.0000000000000000000 ) ) ;
#239 = CARTESIAN_POINT ( 'NONE',  ( 0.1460937499999999667, 0.0000000000000000000, 0.01000000000000000021 ) ) ;
#240 = AXIS2_PLACEMENT_3D ( 'NONE', #325, #293, #99 ) ;
#241 = SURFACE_STYLE_USAGE ( .BOTH. , #117 ) ;
#242 = EDGE_CURVE ( 'NONE', #45, #205, #253, .T. ) ;
#243 = CARTESIAN_POINT ( 'NONE',  ( 1.224646799147353384E-18, 0.0000000000000000000, 0.0000000000000000000 ) ) ;
#244 =( NAMED_UNIT ( * ) PLANE_ANGLE_UNIT ( ) SI_UNIT ( $, .RADIAN. ) );
#245 = CARTESIAN_POINT ( 'NONE',  ( -0.1560937499999999478, 0.0000000000000000000, 0.01000000000000000194 ) ) ;
#246 = FILL_AREA_STYLE_COLOUR ( '', #177 ) ;
#247 = FACE_OUTER_BOUND ( 'NONE', #25, .T. ) ;
#248 = SURFACE_SIDE_STYLE ('',( #81 ) ) ;
#249 = AXIS2_PLACEMENT_3D ( 'NONE', #239, #351, #214 ) ;
#250 = MECHANICAL_DESIGN_GEOMETRIC_PRESENTATION_REPRESENTATION (  '', ( #130 ), #331 ) ;
#251 = DIRECTION ( 'NONE',  ( -1.000000000000000000, 0.0000000000000000000, 0.0000000000000000000 ) ) ;
#252 = CARTESIAN_POINT ( 'NONE',  ( 0.0000000000000000000, 0.0000000000000000000, 0.0000000000000000000 ) ) ;
#253 = LINE ( 'NONE', #63, #350 ) ;
#254 = ADVANCED_FACE ( 'NONE', ( #11 ), #120, .T. ) ;
#255 = APPLICATION_CONTEXT ( 'automotive_design' ) ;
#256 = CLOSED_SHELL ( 'NONE', ( #254, #291, #44, #2, #312, #209, #280, #195, #155, #89, #57, #321 ) ) ;
#257 = VECTOR ( 'NONE', #163, 39.37007874015748143 ) ;
#258 = AXIS2_PLACEMENT_3D ( 'NONE', #252, #328, #222 ) ;
#259 = ORIENTED_EDGE ( 'NONE', *, *, #142, .T. ) ;
#260 = EDGE_CURVE ( 'NONE', #346, #205, #329, .T. ) ;
#261 = EDGE_LOOP ( 'NONE', ( #105, #317, #263, #176 ) ) ;
#262 =( LENGTH_UNIT ( ) NAMED_UNIT ( * ) SI_UNIT ( $, .METRE. ) );
#263 = ORIENTED_EDGE ( 'NONE', *, *, #9, .T. ) ;
#264 = ORIENTED_EDGE ( 'NONE', *, *, #32, .T. ) ;
#265 = DIRECTION ( 'NONE',  ( 0.0000000000000000000, 0.0000000000000000000, 1.000000000000000000 ) ) ;
#266 = ORIENTED_EDGE ( 'NONE', *, *, #9, .F. ) ;
#267 = CARTESIAN_POINT ( 'NONE',  ( 0.1562500000000001110, 1.913510623667740388E-17, 0.8138861377843152889 ) ) ;
#268 = EDGE_CURVE ( 'NONE', #42, #146, #173, .T. ) ;
#269 = CARTESIAN_POINT ( 'NONE',  ( 0.1560937499999999478, 1.911597113044071073E-17, -1.911597113044071073E-17 ) ) ;
#270 = VECTOR ( 'NONE', #162, 39.37007874015748143 ) ;
#271 =( NAMED_UNIT ( * ) SI_UNIT ( $, .STERADIAN. ) SOLID_ANGLE_UNIT ( ) );
#272 = CARTESIAN_POINT ( 'NONE',  ( 0.0000000000000000000, 0.0000000000000000000, 0.0000000000000000000 ) ) ;
#273 = DIRECTION ( 'NONE',  ( 1.000000000000000000, 0.0000000000000000000, 0.0000000000000000000 ) ) ;
#274 = CARTESIAN_POINT ( 'NONE',  ( 0.1562500000000000000, 1.913510623667739463E-17, 2.484999999999999432 ) ) ;
#275 = CARTESIAN_POINT ( 'NONE',  ( 0.0000000000000000000, 0.0000000000000000000, 0.0000000000000000000 ) ) ;
#276 = DIRECTION ( 'NONE',  ( -1.224646799147353207E-16, -0.0000000000000000000, -1.000000000000000000 ) ) ;
#277 = EDGE_CURVE ( 'NONE', #310, #66, #85, .T. ) ;
#278 = ORIENTED_EDGE ( 'NONE', *, *, #228, .T. ) ;
#279 = AXIS2_PLACEMENT_3D ( 'NONE', #111, #333, #83 ) ;
#280 = ADVANCED_FACE ( 'NONE', ( #318 ), #24, .T. ) ;
#281 = AXIS2_PLACEMENT_3D ( 'NONE', #216, #29, #58 ) ;
#282 = AXIS2_PLACEMENT_3D ( 'NONE', #156, #230, #233 ) ;
#283 = ORIENTED_EDGE ( 'NONE', *, *, #268, .F. ) ;
#284 = CARTESIAN_POINT ( 'NONE',  ( 9.956378477067980482E-17, 0.0000000000000000000, 0.8129999999999999449 ) ) ;
#285 = ORIENTED_EDGE ( 'NONE', *, *, #260, .F. ) ;
#286 = CYLINDRICAL_SURFACE ( 'NONE', #282, 0.1560937499999999478 ) ;
#287 = CIRCLE ( 'NONE', #79, 0.1460937499999999667 ) ;
#288 = VERTEX_POINT ( 'NONE', #182 ) ;
#289 = DIRECTION ( 'NONE',  ( -1.000000000000000000, 0.0000000000000000000, 0.0000000000000000000 ) ) ;
#290 = EDGE_LOOP ( 'NONE', ( #23, #345, #206, #18 ) ) ;
#291 = ADVANCED_FACE ( 'NONE', ( #19 ), #286, .T. ) ;
#292 = FACE_OUTER_BOUND ( 'NONE', #212, .T. ) ;
#293 = DIRECTION ( 'NONE',  ( 0.0000000000000000000, 0.0000000000000000000, 1.000000000000000000 ) ) ;
#294 = CIRCLE ( 'NONE', #5, 0.1560937499999999478 ) ;
#295 = DIRECTION ( 'NONE',  ( -0.0000000000000000000, -0.0000000000000000000, -1.000000000000000000 ) ) ;
#296 = MECHANICAL_DESIGN_GEOMETRIC_PRESENTATION_REPRESENTATION (  '', ( #174 ), #61 ) ;
#297 =( NAMED_UNIT ( * ) PLANE_ANGLE_UNIT ( ) SI_UNIT ( $, .RADIAN. ) );
#298 = FACE_OUTER_BOUND ( 'NONE', #203, .T. ) ;
#299 = PRESENTATION_STYLE_ASSIGNMENT (( #200 ) ) ;
#300 = DIMENSIONAL_EXPONENTS ( 1.000000000000000000, 0.0000000000000000000, 0.0000000000000000000, 0.0000000000000000000, 0.0000000000000000000, 0.0000000000000000000, 0.0000000000000000000 ) ;
#301 = DIRECTION ( 'NONE',  ( 0.0000000000000000000, 0.0000000000000000000, 1.000000000000000000 ) ) ;
#302 = CARTESIAN_POINT ( 'NONE',  ( 0.1560937500000000866, 0.0000000000000000000, 0.8129999999999999449 ) ) ;
#303 = AXIS2_PLACEMENT_3D ( 'NONE', #139, #306, #251 ) ;
#304 = AXIS2_PLACEMENT_3D ( 'NONE', #1, #128, #289 ) ;
#305 = MANIFOLD_SOLID_BREP ( 'Fillet1', #256 ) ;
#306 = DIRECTION ( 'NONE',  ( -0.0000000000000000000, -0.0000000000000000000, -1.000000000000000000 ) ) ;
#307 = LENGTH_MEASURE_WITH_UNIT ( LENGTH_MEASURE( 0.02539999999999999897 ), #224 );
#308 = DIRECTION ( 'NONE',  ( 1.000000000000000000, 0.0000000000000000000, 0.0000000000000000000 ) ) ;
#309 = PRODUCT_RELATED_PRODUCT_CATEGORY ( 'part', '', ( #17 ) ) ;
#310 = VERTEX_POINT ( 'NONE', #185 ) ;
#311 = AXIS2_PLACEMENT_3D ( 'NONE', #31, #223, #110 ) ;
#312 = ADVANCED_FACE ( 'NONE', ( #215 ), #101, .T. ) ;
#313 = ORIENTED_EDGE ( 'NONE', *, *, #228, .F. ) ;
#314 = ORIENTED_EDGE ( 'NONE', *, *, #35, .T. ) ;
#315 = DIRECTION ( 'NONE',  ( -0.1736481776669312194, 2.126576849575783625E-17, 0.9848077530122080203 ) ) ;
#316 = EDGE_CURVE ( 'NONE', #341, #45, #344, .T. ) ;
#317 = ORIENTED_EDGE ( 'NONE', *, *, #348, .T. ) ;
#318 = FACE_OUTER_BOUND ( 'NONE', #319, .T. ) ;
#319 = EDGE_LOOP ( 'NONE', ( #339, #264 ) ) ;
#320 = FILL_AREA_STYLE ('',( #211 ) ) ;
#321 = ADVANCED_FACE ( 'NONE', ( #292 ), #7, .T. ) ;
#322 = AXIS2_PLACEMENT_3D ( 'NONE', #48, #265, #238 ) ;
#323 = VERTEX_POINT ( 'NONE', #343 ) ;
#324 = CARTESIAN_POINT ( 'NONE',  ( -0.1460937499999999667, 1.789132433129335716E-17, 0.01000000000000000021 ) ) ;
#325 = CARTESIAN_POINT ( 'NONE',  ( 0.0000000000000000000, 0.0000000000000000000, 2.500000000000000000 ) ) ;
#326 = DIRECTION ( 'NONE',  ( 1.000000000000000000, 0.0000000000000000000, -0.0000000000000000000 ) ) ;
#327 = DIRECTION ( 'NONE',  ( 0.0000000000000000000, 0.0000000000000000000, 1.000000000000000000 ) ) ;
#328 = DIRECTION ( 'NONE',  ( 0.0000000000000000000, 0.0000000000000000000, 1.000000000000000000 ) ) ;
#329 = CIRCLE ( 'NONE', #39, 0.1562500000000000000 ) ;
#330 = DIRECTION ( 'NONE',  ( -1.000000000000000000, 0.0000000000000000000, 0.0000000000000000000 ) ) ;
#331 =( GEOMETRIC_REPRESENTATION_CONTEXT ( 3 ) GLOBAL_UNCERTAINTY_ASSIGNED_CONTEXT ( ( #153 ) ) GLOBAL_UNIT_ASSIGNED_CONTEXT ( ( #160, #152, #236 ) ) REPRESENTATION_CONTEXT ( 'NONE', 'WORKASPACE' ) );
#332 = CARTESIAN_POINT ( 'NONE',  ( 0.1562500000000000000, 1.913510623667739463E-17, 2.500000000000000000 ) ) ;
#333 = DIRECTION ( 'NONE',  ( -1.224646799147353207E-16, -0.0000000000000000000, -1.000000000000000000 ) ) ;
#334 = CARTESIAN_POINT ( 'NONE',  ( 1.224646799147353384E-18, 0.0000000000000000000, 0.0000000000000000000 ) ) ;
#335 = PRODUCT_CONTEXT ( 'NONE', #255, 'mechanical' ) ;
#336 = CONICAL_SURFACE ( 'NONE', #311, 0.1560937499999999756, 0.1745329251994339192 ) ;
#337 = CARTESIAN_POINT ( 'NONE',  ( 0.0000000000000000000, 0.0000000000000000000, 2.484999999999999432 ) ) ;
#338 = EDGE_LOOP ( 'NONE', ( #91, #148, #285, #75 ) ) ;
#339 = ORIENTED_EDGE ( 'NONE', *, *, #316, .T. ) ;
#340 = PRODUCT_DEFINITION_FORMATION_WITH_SPECIFIED_SOURCE ( 'ANY', '', #17, .NOT_KNOWN. ) ;
#341 = VERTEX_POINT ( 'NONE', #103 ) ;
#342 = VERTEX_POINT ( 'NONE', #267 ) ;
#343 = CARTESIAN_POINT ( 'NONE',  ( 0.1460937499999999667, 0.0000000000000000000, 0.0000000000000000000 ) ) ;
#344 = CIRCLE ( 'NONE', #322, 0.1412499999999994871 ) ;
#345 = ORIENTED_EDGE ( 'NONE', *, *, #133, .F. ) ;
#346 = VERTEX_POINT ( 'NONE', #106 ) ;
#347 = DIRECTION ( 'NONE',  ( -1.224646799147353207E-16, -0.0000000000000000000, -1.000000000000000000 ) ) ;
#348 = EDGE_CURVE ( 'NONE', #310, #288, #97, .T. ) ;
#349 = ORIENTED_EDGE ( 'NONE', *, *, #126, .T. ) ;
#350 = VECTOR ( 'NONE', #34, 39.37007874015748854 ) ;
#351 = DIRECTION ( 'NONE',  ( 0.0000000000000000000, -1.000000000000000000, 0.0000000000000000000 ) ) ;
ENDSEC;
END-ISO-10303-21;
