ISO-10303-21;
HEADER;
FILE_DESCRIPTION (( 'STEP AP214' ),
    '1' );
FILE_NAME ('Micro_DM-250-290X.STEP',
    '2021-09-02T16:01:11',
    ( '' ),
    ( '' ),
    'SwSTEP 2.0',
    'SolidWorks 2020',
    '' );
FILE_SCHEMA (( 'AUTOMOTIVE_DESIGN' ));
ENDSEC;

DATA;
#1 =( NAMED_UNIT ( * ) PLANE_ANGLE_UNIT ( ) SI_UNIT ( $, .RADIAN. ) );
#2 = LINE ( 'NONE', #252, #25 ) ;
#3 = DIRECTION ( 'NONE',  ( -1.000000000000000000, 0.0000000000000000000, 0.0000000000000000000 ) ) ;
#4 = APPLICATION_CONTEXT ( 'automotive_design' ) ;
#5 = CYLINDRICAL_SURFACE ( 'NONE', #124, 0.1249500000000000610 ) ;
#6 = FACE_OUTER_BOUND ( 'NONE', #111, .T. ) ;
#7 = DIRECTION ( 'NONE',  ( 0.0000000000000000000, 0.0000000000000000000, 1.000000000000000000 ) ) ;
#8 = CARTESIAN_POINT ( 'NONE',  ( 0.0000000000000000000, 0.0000000000000000000, 2.500000000000000000 ) ) ;
#9 = ORIENTED_EDGE ( 'NONE', *, *, #46, .F. ) ;
#10 = CONICAL_SURFACE ( 'NONE', #31, 0.007499999999999999722, 0.7853981633974503884 ) ;
#11 = ORIENTED_EDGE ( 'NONE', *, *, #74, .F. ) ;
#12 = ORIENTED_EDGE ( 'NONE', *, *, #242, .T. ) ;
#13 = DIRECTION ( 'NONE',  ( -1.000000000000000000, 0.0000000000000000000, 0.0000000000000000000 ) ) ;
#14 = EDGE_LOOP ( 'NONE', ( #166, #69, #294, #191 ) ) ;
#15 = AXIS2_PLACEMENT_3D ( 'NONE', #230, #205, #329 ) ;
#16 = AXIS2_PLACEMENT_3D ( 'NONE', #55, #295, #273 ) ;
#17 = ORIENTED_EDGE ( 'NONE', *, *, #74, .T. ) ;
#18 = CIRCLE ( 'NONE', #64, 0.1249500000000001027 ) ;
#19 = COLOUR_RGB ( '',0.7921568627450980005, 0.8196078431372548767, 0.9333333333333333481 ) ;
#20 = DIRECTION ( 'NONE',  ( -1.000000000000000000, 0.0000000000000000000, 0.0000000000000000000 ) ) ;
#21 = MANIFOLD_SOLID_BREP ( 'Cut-Revolve4', #304 ) ;
#22 = SURFACE_STYLE_FILL_AREA ( #73 ) ;
#23 =( CONVERSION_BASED_UNIT ( 'INCH', #254 ) LENGTH_UNIT ( ) NAMED_UNIT ( #256 ) );
#24 = DIRECTION ( 'NONE',  ( -0.0000000000000000000, -0.0000000000000000000, -1.000000000000000000 ) ) ;
#25 = VECTOR ( 'NONE', #101, 39.37007874015748143 ) ;
#26 = CIRCLE ( 'NONE', #44, 0.1249500000000001027 ) ;
#27 = FACE_OUTER_BOUND ( 'NONE', #162, .T. ) ;
#28 = EDGE_CURVE ( 'NONE', #217, #246, #153, .T. ) ;
#29 = CARTESIAN_POINT ( 'NONE',  ( 0.1249500000000000610, 1.530196175534618635E-17, 0.0000000000000000000 ) ) ;
#30 = DIRECTION ( 'NONE',  ( -0.0000000000000000000, -0.0000000000000000000, -1.000000000000000000 ) ) ;
#31 = AXIS2_PLACEMENT_3D ( 'NONE', #59, #7, #81 ) ;
#32 = FACE_OUTER_BOUND ( 'NONE', #133, .T. ) ;
#33 = PLANE ( 'NONE',  #120 ) ;
#34 = ORIENTED_EDGE ( 'NONE', *, *, #68, .T. ) ;
#35 =( GEOMETRIC_REPRESENTATION_CONTEXT ( 3 ) GLOBAL_UNCERTAINTY_ASSIGNED_CONTEXT ( ( #125 ) ) GLOBAL_UNIT_ASSIGNED_CONTEXT ( ( #172, #257, #232 ) ) REPRESENTATION_CONTEXT ( 'NONE', 'WORKASPACE' ) );
#36 = PRODUCT_RELATED_PRODUCT_CATEGORY ( 'part', '', ( #319 ) ) ;
#37 = VERTEX_POINT ( 'NONE', #173 ) ;
#38 = DIRECTION ( 'NONE',  ( 1.000000000000000000, 0.0000000000000000000, 0.0000000000000000000 ) ) ;
#39 = ORIENTED_EDGE ( 'NONE', *, *, #142, .T. ) ;
#40 = ORIENTED_EDGE ( 'NONE', *, *, #28, .F. ) ;
#41 = ADVANCED_FACE ( 'NONE', ( #279 ), #5, .T. ) ;
#42 = EDGE_CURVE ( 'NONE', #63, #168, #266, .T. ) ;
#43 = AXIS2_PLACEMENT_3D ( 'NONE', #234, #100, #3 ) ;
#44 = AXIS2_PLACEMENT_3D ( 'NONE', #187, #286, #108 ) ;
#45 = ORIENTED_EDGE ( 'NONE', *, *, #103, .T. ) ;
#46 = EDGE_CURVE ( 'NONE', #246, #216, #144, .T. ) ;
#47 = CARTESIAN_POINT ( 'NONE',  ( -0.1249500000000000610, 0.0000000000000000000, 0.0000000000000000000 ) ) ;
#48 =( NAMED_UNIT ( * ) SI_UNIT ( $, .STERADIAN. ) SOLID_ANGLE_UNIT ( ) );
#49 = AXIS2_PLACEMENT_3D ( 'NONE', #85, #155, #261 ) ;
#50 = AXIS2_PLACEMENT_3D ( 'NONE', #79, #180, #280 ) ;
#51 = CARTESIAN_POINT ( 'NONE',  ( 0.007499999999999999722, 0.0000000000000000000, 1.707404996040164512E-17 ) ) ;
#52 = DIRECTION ( 'NONE',  ( -1.000000000000000000, 0.0000000000000000000, 0.0000000000000000000 ) ) ;
#53 = APPLICATION_PROTOCOL_DEFINITION ( 'draft international standard', 'automotive_design', 1998, #4 ) ;
#54 = CARTESIAN_POINT ( 'NONE',  ( 0.0000000000000000000, 0.0000000000000000000, 1.707404996040164512E-17 ) ) ;
#55 = CARTESIAN_POINT ( 'NONE',  ( 0.0000000000000000000, 0.0000000000000000000, 2.500000000000000000 ) ) ;
#56 = CARTESIAN_POINT ( 'NONE',  ( -0.007499999999999999722, 9.184850993605147975E-19, 1.707404996040164512E-17 ) ) ;
#57 = EDGE_CURVE ( 'NONE', #265, #167, #18, .T. ) ;
#58 = DIRECTION ( 'NONE',  ( -0.0000000000000000000, 0.0000000000000000000, -1.000000000000000000 ) ) ;
#59 = CARTESIAN_POINT ( 'NONE',  ( 0.0000000000000000000, 0.0000000000000000000, 1.707404996040164512E-17 ) ) ;
#60 = ORIENTED_EDGE ( 'NONE', *, *, #169, .T. ) ;
#61 = ORIENTED_EDGE ( 'NONE', *, *, #83, .T. ) ;
#62 = ADVANCED_FACE ( 'NONE', ( #27 ), #249, .T. ) ;
#63 = VERTEX_POINT ( 'NONE', #72 ) ;
#64 = AXIS2_PLACEMENT_3D ( 'NONE', #300, #274, #147 ) ;
#65 = STYLED_ITEM ( 'NONE', ( #328 ), #89 ) ;
#66 = DIRECTION ( 'NONE',  ( -0.0000000000000000000, -0.0000000000000000000, -1.000000000000000000 ) ) ;
#67 = VERTEX_POINT ( 'NONE', #228 ) ;
#68 = EDGE_CURVE ( 'NONE', #167, #315, #122, .T. ) ;
#69 = ORIENTED_EDGE ( 'NONE', *, *, #291, .T. ) ;
#70 = PRODUCT_DEFINITION_FORMATION_WITH_SPECIFIED_SOURCE ( 'ANY', '', #319, .NOT_KNOWN. ) ;
#71 = CARTESIAN_POINT ( 'NONE',  ( -0.1100000000000001948, 0.0000000000000000000, 2.500000000000000000 ) ) ;
#72 = CARTESIAN_POINT ( 'NONE',  ( 0.1250000000000000000, 1.530808498934191509E-17, 0.7499999999999998890 ) ) ;
#73 = FILL_AREA_STYLE ('',( #231 ) ) ;
#74 = EDGE_CURVE ( 'NONE', #216, #315, #114, .T. ) ;
#75 = CARTESIAN_POINT ( 'NONE',  ( 0.0000000000000000000, 0.0000000000000000000, 0.7499999999999998890 ) ) ;
#76 = PRODUCT_DEFINITION_CONTEXT ( 'detailed design', #4, 'design' ) ;
#77 = FACE_OUTER_BOUND ( 'NONE', #91, .T. ) ;
#78 = ADVANCED_FACE ( 'NONE', ( #149 ), #198, .T. ) ;
#79 = CARTESIAN_POINT ( 'NONE',  ( 0.0000000000000000000, 0.0000000000000000000, 0.0000000000000000000 ) ) ;
#80 = CARTESIAN_POINT ( 'NONE',  ( 0.0000000000000000000, 0.0000000000000000000, 0.7499999999999998890 ) ) ;
#81 = DIRECTION ( 'NONE',  ( 1.000000000000000000, 0.0000000000000000000, 0.0000000000000000000 ) ) ;
#82 = VECTOR ( 'NONE', #170, 39.37007874015748143 ) ;
#83 = EDGE_CURVE ( 'NONE', #37, #63, #2, .T. ) ;
#84 = EDGE_CURVE ( 'NONE', #37, #67, #213, .T. ) ;
#85 = CARTESIAN_POINT ( 'NONE',  ( 0.0000000000000000000, 0.0000000000000000000, 0.0000000000000000000 ) ) ;
#86 = DIRECTION ( 'NONE',  ( -0.0000000000000000000, -0.0000000000000000000, -1.000000000000000000 ) ) ;
#88 = ORIENTED_EDGE ( 'NONE', *, *, #57, .F. ) ;
#87 = AXIS2_PLACEMENT_3D ( 'NONE', #75, #123, #102 ) ;
#89 = ADVANCED_BREP_SHAPE_REPRESENTATION ( 'Micro_DM-250-290X', ( #21, #50 ), #305 ) ;
#90 = ORIENTED_EDGE ( 'NONE', *, *, #196, .T. ) ;
#91 = EDGE_LOOP ( 'NONE', ( #269, #117 ) ) ;
#92 = FILL_AREA_STYLE_COLOUR ( '', #188 ) ;
#93 = VECTOR ( 'NONE', #259, 39.37007874015748143 ) ;
#94 = ORIENTED_EDGE ( 'NONE', *, *, #196, .F. ) ;
#95 = EDGE_LOOP ( 'NONE', ( #40, #39, #140, #9 ) ) ;
#96 = ORIENTED_EDGE ( 'NONE', *, *, #57, .T. ) ;
#97 = AXIS2_PLACEMENT_3D ( 'NONE', #202, #303, #178 ) ;
#98 = CARTESIAN_POINT ( 'NONE',  ( 0.0000000000000000000, 0.0000000000000000000, 1.707404996040164512E-17 ) ) ;
#99 = DIMENSIONAL_EXPONENTS ( 1.000000000000000000, 0.0000000000000000000, 0.0000000000000000000, 0.0000000000000000000, 0.0000000000000000000, 0.0000000000000000000, 0.0000000000000000000 ) ;
#100 = DIRECTION ( 'NONE',  ( -0.0000000000000000000, -0.0000000000000000000, -1.000000000000000000 ) ) ;
#101 = DIRECTION ( 'NONE',  ( -0.0000000000000000000, -0.0000000000000000000, -1.000000000000000000 ) ) ;
#102 = DIRECTION ( 'NONE',  ( -1.000000000000000000, 0.0000000000000000000, 0.0000000000000000000 ) ) ;
#103 = EDGE_CURVE ( 'NONE', #168, #63, #233, .T. ) ;
#104 = SURFACE_SIDE_STYLE ('',( #22 ) ) ;
#105 = DIRECTION ( 'NONE',  ( -0.0000000000000000000, -0.0000000000000000000, -1.000000000000000000 ) ) ;
#106 = CARTESIAN_POINT ( 'NONE',  ( 0.0000000000000000000, 0.0000000000000000000, 2.500000000000000000 ) ) ;
#107 = CARTESIAN_POINT ( 'NONE',  ( -0.1249500000000001027, 0.0000000000000000000, 0.7500000000000001110 ) ) ;
#108 = DIRECTION ( 'NONE',  ( -1.000000000000000000, 0.0000000000000000000, 0.0000000000000000000 ) ) ;
#109 = DIRECTION ( 'NONE',  ( -1.000000000000000000, 0.0000000000000000000, 0.0000000000000000000 ) ) ;
#110 = ORIENTED_EDGE ( 'NONE', *, *, #46, .T. ) ;
#111 = EDGE_LOOP ( 'NONE', ( #45, #244 ) ) ;
#112 = FACE_OUTER_BOUND ( 'NONE', #14, .T. ) ;
#113 = EDGE_LOOP ( 'NONE', ( #190, #263, #289, #118 ) ) ;
#114 = CIRCLE ( 'NONE', #43, 0.1249500000000000194 ) ;
#115 = AXIS2_PLACEMENT_3D ( 'NONE', #139, #245, #13 ) ;
#116 =( LENGTH_UNIT ( ) NAMED_UNIT ( * ) SI_UNIT ( $, .METRE. ) );
#117 = ORIENTED_EDGE ( 'NONE', *, *, #28, .T. ) ;
#118 = ORIENTED_EDGE ( 'NONE', *, *, #42, .F. ) ;
#119 = DIRECTION ( 'NONE',  ( 0.7071067811865499042, 8.659560562354961208E-17, -0.7071067811865451302 ) ) ;
#120 = AXIS2_PLACEMENT_3D ( 'NONE', #106, #310, #283 ) ;
#121 = DIRECTION ( 'NONE',  ( 0.7071067811865490160, 0.0000000000000000000, 0.7071067811865460184 ) ) ;
#122 = LINE ( 'NONE', #47, #316 ) ;
#123 = DIRECTION ( 'NONE',  ( -0.0000000000000000000, -0.0000000000000000000, -1.000000000000000000 ) ) ;
#124 = AXIS2_PLACEMENT_3D ( 'NONE', #182, #105, #20 ) ;
#125 = UNCERTAINTY_MEASURE_WITH_UNIT (LENGTH_MEASURE( 1.000000000000000082E-05 ), #172, 'distance_accuracy_value', 'NONE');
#126 = DIRECTION ( 'NONE',  ( 1.000000000000000000, 0.0000000000000000000, 0.0000000000000000000 ) ) ;
#127 = CARTESIAN_POINT ( 'NONE',  ( -0.1250000000000000000, 0.0000000000000000000, 0.7499999999999998890 ) ) ;
#128 = EDGE_CURVE ( 'NONE', #67, #37, #145, .T. ) ;
#129 = PRESENTATION_LAYER_ASSIGNMENT (  '', '', ( #207 ) ) ;
#130 = CIRCLE ( 'NONE', #16, 0.1100000000000001948 ) ;
#131 = CYLINDRICAL_SURFACE ( 'NONE', #276, 0.1250000000000000000 ) ;
#132 = ADVANCED_FACE ( 'NONE', ( #77 ), #179, .F. ) ;
#133 = EDGE_LOOP ( 'NONE', ( #325, #61, #247, #194 ) ) ;
#135 = FILL_AREA_STYLE ('',( #92 ) ) ;
#134 = VECTOR ( 'NONE', #119, 39.37007874015748143 ) ;
#136 = SURFACE_STYLE_FILL_AREA ( #135 ) ;
#137 = DIRECTION ( 'NONE',  ( 0.0000000000000000000, 0.0000000000000000000, 1.000000000000000000 ) ) ;
#138 = SURFACE_SIDE_STYLE ('',( #136 ) ) ;
#139 = CARTESIAN_POINT ( 'NONE',  ( 0.0000000000000000000, 0.0000000000000000000, 2.500000000000000000 ) ) ;
#140 = ORIENTED_EDGE ( 'NONE', *, *, #159, .T. ) ;
#141 = LINE ( 'NONE', #71, #82 ) ;
#142 = EDGE_CURVE ( 'NONE', #217, #315, #206, .T. ) ;
#143 = FACE_OUTER_BOUND ( 'NONE', #95, .T. ) ;
#144 = LINE ( 'NONE', #51, #176 ) ;
#145 = CIRCLE ( 'NONE', #275, 0.1250000000000000000 ) ;
#146 =( GEOMETRIC_REPRESENTATION_CONTEXT ( 3 ) GLOBAL_UNCERTAINTY_ASSIGNED_CONTEXT ( ( #171 ) ) GLOBAL_UNIT_ASSIGNED_CONTEXT ( ( #308, #1, #306 ) ) REPRESENTATION_CONTEXT ( 'NONE', 'WORKASPACE' ) );
#147 = DIRECTION ( 'NONE',  ( -1.000000000000000000, 0.0000000000000000000, 0.0000000000000000000 ) ) ;
#148 = LENGTH_MEASURE_WITH_UNIT ( LENGTH_MEASURE( 0.02539999999999999897 ), #200 );
#149 = FACE_OUTER_BOUND ( 'NONE', #223, .T. ) ;
#150 = DIRECTION ( 'NONE',  ( -1.000000000000000000, 0.0000000000000000000, 0.0000000000000000000 ) ) ;
#151 = PRODUCT_CONTEXT ( 'NONE', #158, 'mechanical' ) ;
#152 = CIRCLE ( 'NONE', #250, 0.1249500000000000194 ) ;
#153 = CIRCLE ( 'NONE', #297, 0.007499999999999999722 ) ;
#154 = CARTESIAN_POINT ( 'NONE',  ( 0.0000000000000000000, 0.0000000000000000000, 2.500000000000000000 ) ) ;
#155 = DIRECTION ( 'NONE',  ( 0.0000000000000000000, 0.0000000000000000000, 1.000000000000000000 ) ) ;
#156 = CARTESIAN_POINT ( 'NONE',  ( -0.007499999999999999722, 8.110223427353348070E-18, 1.707404996040164512E-17 ) ) ;
#157 = CIRCLE ( 'NONE', #326, 0.1100000000000001948 ) ;
#158 = APPLICATION_CONTEXT ( 'automotive_design' ) ;
#159 = EDGE_CURVE ( 'NONE', #315, #216, #152, .T. ) ;
#160 = FACE_OUTER_BOUND ( 'NONE', #293, .T. ) ;
#161 = EDGE_LOOP ( 'NONE', ( #317, #90, #271, #199 ) ) ;
#162 = EDGE_LOOP ( 'NONE', ( #220, #323, #320, #240 ) ) ;
#164 =( LENGTH_UNIT ( ) NAMED_UNIT ( * ) SI_UNIT ( $, .METRE. ) );
#163 = CONICAL_SURFACE ( 'NONE', #115, 0.1100000000000001948, 0.7853981633974517207 ) ;
#165 = CARTESIAN_POINT ( 'NONE',  ( 0.007499999999999999722, 0.0000000000000000000, 1.707404996040164512E-17 ) ) ;
#166 = ORIENTED_EDGE ( 'NONE', *, *, #242, .F. ) ;
#167 = VERTEX_POINT ( 'NONE', #107 ) ;
#168 = VERTEX_POINT ( 'NONE', #127 ) ;
#169 = EDGE_CURVE ( 'NONE', #322, #267, #157, .T. ) ;
#170 = DIRECTION ( 'NONE',  ( -0.7071067811865499042, 0.0000000000000000000, -0.7071067811865451302 ) ) ;
#171 = UNCERTAINTY_MEASURE_WITH_UNIT (LENGTH_MEASURE( 1.000000000000000082E-05 ), #308, 'distance_accuracy_value', 'NONE');
#172 =( CONVERSION_BASED_UNIT ( 'INCH', #302 ) LENGTH_UNIT ( ) NAMED_UNIT ( #224 ) );
#173 = CARTESIAN_POINT ( 'NONE',  ( 0.1250000000000000000, 1.530808498934191509E-17, 2.485000000000000320 ) ) ;
#174 = EDGE_CURVE ( 'NONE', #67, #168, #262, .T. ) ;
#175 = EDGE_LOOP ( 'NONE', ( #318, #290, #110, #17 ) ) ;
#176 = VECTOR ( 'NONE', #121, 39.37007874015748143 ) ;
#177 = AXIS2_PLACEMENT_3D ( 'NONE', #313, #58, #258 ) ;
#178 = DIRECTION ( 'NONE',  ( 1.000000000000000000, 0.0000000000000000000, 0.0000000000000000000 ) ) ;
#179 = PLANE ( 'NONE',  #49 ) ;
#180 = DIRECTION ( 'NONE',  ( 0.0000000000000000000, 0.0000000000000000000, 1.000000000000000000 ) ) ;
#181 = UNCERTAINTY_MEASURE_WITH_UNIT (LENGTH_MEASURE( 1.000000000000000082E-05 ), #23, 'distance_accuracy_value', 'NONE');
#182 = CARTESIAN_POINT ( 'NONE',  ( 0.0000000000000000000, 0.0000000000000000000, 0.0000000000000000000 ) ) ;
#183 = SHAPE_DEFINITION_REPRESENTATION ( #215, #89 ) ;
#184 = DIRECTION ( 'NONE',  ( -1.000000000000000000, 0.0000000000000000000, 0.0000000000000000000 ) ) ;
#185 = LINE ( 'NONE', #29, #260 ) ;
#186 = ADVANCED_FACE ( 'NONE', ( #314 ), #10, .T. ) ;
#187 = CARTESIAN_POINT ( 'NONE',  ( 0.0000000000000000000, 0.0000000000000000000, 0.7500000000000001110 ) ) ;
#188 = COLOUR_RGB ( '',0.7921568627450980005, 0.8196078431372548767, 0.9333333333333333481 ) ;
#189 = VECTOR ( 'NONE', #212, 39.37007874015748143 ) ;
#190 = ORIENTED_EDGE ( 'NONE', *, *, #83, .F. ) ;
#191 = ORIENTED_EDGE ( 'NONE', *, *, #253, .F. ) ;
#192 = ORIENTED_EDGE ( 'NONE', *, *, #201, .F. ) ;
#193 = CARTESIAN_POINT ( 'NONE',  ( -0.1249500000000000610, 1.530196175534618327E-17, 0.1174499999999995686 ) ) ;
#194 = ORIENTED_EDGE ( 'NONE', *, *, #174, .F. ) ;
#195 = DIRECTION ( 'NONE',  ( -1.000000000000000000, 0.0000000000000000000, 0.0000000000000000000 ) ) ;
#196 = EDGE_CURVE ( 'NONE', #265, #216, #185, .T. ) ;
#197 = CARTESIAN_POINT ( 'NONE',  ( -0.1100000000000001948, 0.0000000000000000000, 2.500000000000000000 ) ) ;
#198 = CYLINDRICAL_SURFACE ( 'NONE', #15, 0.1249500000000000610 ) ;
#199 = ORIENTED_EDGE ( 'NONE', *, *, #68, .F. ) ;
#200 =( LENGTH_UNIT ( ) NAMED_UNIT ( * ) SI_UNIT ( $, .METRE. ) );
#201 = EDGE_CURVE ( 'NONE', #167, #265, #26, .T. ) ;
#202 = CARTESIAN_POINT ( 'NONE',  ( 0.0000000000000000000, 0.0000000000000000000, 2.485000000000000320 ) ) ;
#203 = DIRECTION ( 'NONE',  ( -1.000000000000000000, 0.0000000000000000000, 0.0000000000000000000 ) ) ;
#204 = SURFACE_STYLE_USAGE ( .BOTH. , #104 ) ;
#205 = DIRECTION ( 'NONE',  ( -0.0000000000000000000, -0.0000000000000000000, -1.000000000000000000 ) ) ;
#206 = LINE ( 'NONE', #56, #93 ) ;
#207 = STYLED_ITEM ( 'NONE', ( #218 ), #21 ) ;
#208 = AXIS2_PLACEMENT_3D ( 'NONE', #324, #66, #195 ) ;
#209 = DIRECTION ( 'NONE',  ( -0.0000000000000000000, -0.0000000000000000000, -1.000000000000000000 ) ) ;
#210 = ADVANCED_FACE ( 'NONE', ( #239, #6 ), #211, .T. ) ;
#211 = PLANE ( 'NONE',  #177 ) ;
#212 = DIRECTION ( 'NONE',  ( -0.0000000000000000000, -0.0000000000000000000, -1.000000000000000000 ) ) ;
#213 = CIRCLE ( 'NONE', #97, 0.1250000000000000000 ) ;
#214 = PRESENTATION_LAYER_ASSIGNMENT (  '', '', ( #65 ) ) ;
#215 = PRODUCT_DEFINITION_SHAPE ( 'NONE', 'NONE',  #285 ) ;
#216 = VERTEX_POINT ( 'NONE', #284 ) ;
#217 = VERTEX_POINT ( 'NONE', #156 ) ;
#218 = PRESENTATION_STYLE_ASSIGNMENT (( #243 ) ) ;
#219 = AXIS2_PLACEMENT_3D ( 'NONE', #80, #281, #203 ) ;
#220 = ORIENTED_EDGE ( 'NONE', *, *, #291, .F. ) ;
#221 = DIRECTION ( 'NONE',  ( -1.000000000000000000, 0.0000000000000000000, 0.0000000000000000000 ) ) ;
#222 = CARTESIAN_POINT ( 'NONE',  ( 0.1100000000000001948, 1.438959988998141146E-17, 2.500000000000000000 ) ) ;
#223 = EDGE_LOOP ( 'NONE', ( #94, #96, #34, #11 ) ) ;
#224 = DIMENSIONAL_EXPONENTS ( 1.000000000000000000, 0.0000000000000000000, 0.0000000000000000000, 0.0000000000000000000, 0.0000000000000000000, 0.0000000000000000000, 0.0000000000000000000 ) ;
#225 = MECHANICAL_DESIGN_GEOMETRIC_PRESENTATION_REPRESENTATION (  '', ( #207 ), #35 ) ;
#226 = CIRCLE ( 'NONE', #208, 0.007499999999999999722 ) ;
#227 = CARTESIAN_POINT ( 'NONE',  ( 0.1249500000000001027, 1.530196175534619251E-17, 0.7500000000000001110 ) ) ;
#228 = CARTESIAN_POINT ( 'NONE',  ( -0.1250000000000000000, 0.0000000000000000000, 2.485000000000000320 ) ) ;
#229 = APPLICATION_PROTOCOL_DEFINITION ( 'draft international standard', 'automotive_design', 1998, #158 ) ;
#230 = CARTESIAN_POINT ( 'NONE',  ( 0.0000000000000000000, 0.0000000000000000000, 0.0000000000000000000 ) ) ;
#231 = FILL_AREA_STYLE_COLOUR ( '', #19 ) ;
#232 =( NAMED_UNIT ( * ) SI_UNIT ( $, .STERADIAN. ) SOLID_ANGLE_UNIT ( ) );
#233 = CIRCLE ( 'NONE', #87, 0.1250000000000000000 ) ;
#234 = CARTESIAN_POINT ( 'NONE',  ( 0.0000000000000000000, 0.0000000000000000000, 0.1174499999999995548 ) ) ;
#235 = ADVANCED_FACE ( 'NONE', ( #32 ), #131, .T. ) ;
#236 = DIRECTION ( 'NONE',  ( 1.000000000000000000, 0.0000000000000000000, 0.0000000000000000000 ) ) ;
#237 = ADVANCED_FACE ( 'NONE', ( #160 ), #33, .T. ) ;
#238 = CARTESIAN_POINT ( 'NONE',  ( 0.0000000000000000000, 0.0000000000000000000, 0.1174499999999995548 ) ) ;
#239 = FACE_BOUND ( 'NONE', #292, .T. ) ;
#240 = ORIENTED_EDGE ( 'NONE', *, *, #84, .F. ) ;
#241 = MECHANICAL_DESIGN_GEOMETRIC_PRESENTATION_REPRESENTATION (  '', ( #65 ), #146 ) ;
#242 = EDGE_CURVE ( 'NONE', #267, #322, #130, .T. ) ;
#243 = SURFACE_STYLE_USAGE ( .BOTH. , #138 ) ;
#244 = ORIENTED_EDGE ( 'NONE', *, *, #42, .T. ) ;
#245 = DIRECTION ( 'NONE',  ( 0.0000000000000000000, 0.0000000000000000000, -1.000000000000000000 ) ) ;
#246 = VERTEX_POINT ( 'NONE', #165 ) ;
#247 = ORIENTED_EDGE ( 'NONE', *, *, #103, .F. ) ;
#248 = DIRECTION ( 'NONE',  ( -0.0000000000000000000, -0.0000000000000000000, -1.000000000000000000 ) ) ;
#249 = CONICAL_SURFACE ( 'NONE', #287, 0.1100000000000001948, 0.7853981633974517207 ) ;
#250 = AXIS2_PLACEMENT_3D ( 'NONE', #238, #86, #184 ) ;
#251 = CARTESIAN_POINT ( 'NONE',  ( 0.0000000000000000000, 0.0000000000000000000, 2.500000000000000000 ) ) ;
#252 = CARTESIAN_POINT ( 'NONE',  ( 0.1250000000000000000, 1.530808498934191509E-17, 2.500000000000000000 ) ) ;
#253 = EDGE_CURVE ( 'NONE', #322, #67, #141, .T. ) ;
#254 = LENGTH_MEASURE_WITH_UNIT ( LENGTH_MEASURE( 0.02539999999999999897 ), #116 );
#255 = DIRECTION ( 'NONE',  ( -0.0000000000000000000, -0.0000000000000000000, -1.000000000000000000 ) ) ;
#256 = DIMENSIONAL_EXPONENTS ( 1.000000000000000000, 0.0000000000000000000, 0.0000000000000000000, 0.0000000000000000000, 0.0000000000000000000, 0.0000000000000000000, 0.0000000000000000000 ) ;
#257 =( NAMED_UNIT ( * ) PLANE_ANGLE_UNIT ( ) SI_UNIT ( $, .RADIAN. ) );
#258 = DIRECTION ( 'NONE',  ( -1.000000000000000000, 0.0000000000000000000, 0.0000000000000000000 ) ) ;
#259 = DIRECTION ( 'NONE',  ( -0.7071067811865490160, 8.659560562354951347E-17, 0.7071067811865460184 ) ) ;
#260 = VECTOR ( 'NONE', #30, 39.37007874015748143 ) ;
#261 = DIRECTION ( 'NONE',  ( 1.000000000000000000, 0.0000000000000000000, -0.0000000000000000000 ) ) ;
#262 = LINE ( 'NONE', #288, #189 ) ;
#263 = ORIENTED_EDGE ( 'NONE', *, *, #84, .T. ) ;
#264 = ADVANCED_FACE ( 'NONE', ( #299 ), #270, .T. ) ;
#265 = VERTEX_POINT ( 'NONE', #227 ) ;
#266 = CIRCLE ( 'NONE', #219, 0.1250000000000000000 ) ;
#267 = VERTEX_POINT ( 'NONE', #222 ) ;
#268 = LINE ( 'NONE', #296, #134 ) ;
#269 = ORIENTED_EDGE ( 'NONE', *, *, #278, .T. ) ;
#270 = CYLINDRICAL_SURFACE ( 'NONE', #311, 0.1250000000000000000 ) ;
#271 = ORIENTED_EDGE ( 'NONE', *, *, #159, .F. ) ;
#272 = CARTESIAN_POINT ( 'NONE',  ( 0.0000000000000000000, 0.0000000000000000000, 2.500000000000000000 ) ) ;
#273 = DIRECTION ( 'NONE',  ( 1.000000000000000000, 0.0000000000000000000, 0.0000000000000000000 ) ) ;
#274 = DIRECTION ( 'NONE',  ( -0.0000000000000000000, -0.0000000000000000000, -1.000000000000000000 ) ) ;
#275 = AXIS2_PLACEMENT_3D ( 'NONE', #307, #309, #126 ) ;
#276 = AXIS2_PLACEMENT_3D ( 'NONE', #8, #209, #109 ) ;
#277 = DIRECTION ( 'NONE',  ( 0.0000000000000000000, 0.0000000000000000000, -1.000000000000000000 ) ) ;
#278 = EDGE_CURVE ( 'NONE', #246, #217, #226, .T. ) ;
#279 = FACE_OUTER_BOUND ( 'NONE', #161, .T. ) ;
#280 = DIRECTION ( 'NONE',  ( 1.000000000000000000, 0.0000000000000000000, 0.0000000000000000000 ) ) ;
#281 = DIRECTION ( 'NONE',  ( -0.0000000000000000000, -0.0000000000000000000, -1.000000000000000000 ) ) ;
#282 = CONICAL_SURFACE ( 'NONE', #321, 0.007499999999999999722, 0.7853981633974503884 ) ;
#283 = DIRECTION ( 'NONE',  ( 1.000000000000000000, 0.0000000000000000000, -0.0000000000000000000 ) ) ;
#284 = CARTESIAN_POINT ( 'NONE',  ( 0.1249500000000000610, 0.0000000000000000000, 0.1174499999999995686 ) ) ;
#285 = PRODUCT_DEFINITION ( 'UNKNOWN', '', #70, #76 ) ;
#286 = DIRECTION ( 'NONE',  ( -0.0000000000000000000, -0.0000000000000000000, -1.000000000000000000 ) ) ;
#287 = AXIS2_PLACEMENT_3D ( 'NONE', #251, #277, #150 ) ;
#288 = CARTESIAN_POINT ( 'NONE',  ( -0.1250000000000000000, 0.0000000000000000000, 2.500000000000000000 ) ) ;
#289 = ORIENTED_EDGE ( 'NONE', *, *, #174, .T. ) ;
#290 = ORIENTED_EDGE ( 'NONE', *, *, #278, .F. ) ;
#291 = EDGE_CURVE ( 'NONE', #267, #37, #268, .T. ) ;
#292 = EDGE_LOOP ( 'NONE', ( #192, #88 ) ) ;
#293 = EDGE_LOOP ( 'NONE', ( #60, #12 ) ) ;
#294 = ORIENTED_EDGE ( 'NONE', *, *, #128, .F. ) ;
#295 = DIRECTION ( 'NONE',  ( 0.0000000000000000000, 0.0000000000000000000, 1.000000000000000000 ) ) ;
#296 = CARTESIAN_POINT ( 'NONE',  ( 0.1100000000000001948, 1.347111479062090784E-17, 2.500000000000000000 ) ) ;
#297 = AXIS2_PLACEMENT_3D ( 'NONE', #54, #24, #52 ) ;
#298 = ADVANCED_FACE ( 'NONE', ( #143 ), #282, .T. ) ;
#299 = FACE_OUTER_BOUND ( 'NONE', #113, .T. ) ;
#300 = CARTESIAN_POINT ( 'NONE',  ( 0.0000000000000000000, 0.0000000000000000000, 0.7500000000000001110 ) ) ;
#301 =( NAMED_UNIT ( * ) PLANE_ANGLE_UNIT ( ) SI_UNIT ( $, .RADIAN. ) );
#302 = LENGTH_MEASURE_WITH_UNIT ( LENGTH_MEASURE( 0.02539999999999999897 ), #164 );
#303 = DIRECTION ( 'NONE',  ( 0.0000000000000000000, 0.0000000000000000000, -1.000000000000000000 ) ) ;
#304 = CLOSED_SHELL ( 'NONE', ( #41, #298, #327, #235, #264, #237, #62, #210, #186, #78, #132 ) ) ;
#305 =( GEOMETRIC_REPRESENTATION_CONTEXT ( 3 ) GLOBAL_UNCERTAINTY_ASSIGNED_CONTEXT ( ( #181 ) ) GLOBAL_UNIT_ASSIGNED_CONTEXT ( ( #23, #301, #48 ) ) REPRESENTATION_CONTEXT ( 'NONE', 'WORKASPACE' ) );
#306 =( NAMED_UNIT ( * ) SI_UNIT ( $, .STERADIAN. ) SOLID_ANGLE_UNIT ( ) );
#307 = CARTESIAN_POINT ( 'NONE',  ( 0.0000000000000000000, 0.0000000000000000000, 2.485000000000000320 ) ) ;
#308 =( CONVERSION_BASED_UNIT ( 'INCH', #148 ) LENGTH_UNIT ( ) NAMED_UNIT ( #99 ) );
#309 = DIRECTION ( 'NONE',  ( 0.0000000000000000000, 0.0000000000000000000, -1.000000000000000000 ) ) ;
#310 = DIRECTION ( 'NONE',  ( 0.0000000000000000000, 0.0000000000000000000, 1.000000000000000000 ) ) ;
#311 = AXIS2_PLACEMENT_3D ( 'NONE', #272, #248, #221 ) ;
#312 = DIRECTION ( 'NONE',  ( 0.0000000000000000000, 0.0000000000000000000, 1.000000000000000000 ) ) ;
#313 = CARTESIAN_POINT ( 'NONE',  ( 0.1249500000000001027, 0.0000000000000000000, 0.7500000000000001110 ) ) ;
#314 = FACE_OUTER_BOUND ( 'NONE', #175, .T. ) ;
#315 = VERTEX_POINT ( 'NONE', #193 ) ;
#316 = VECTOR ( 'NONE', #255, 39.37007874015748143 ) ;
#317 = ORIENTED_EDGE ( 'NONE', *, *, #201, .T. ) ;
#318 = ORIENTED_EDGE ( 'NONE', *, *, #142, .F. ) ;
#319 = PRODUCT ( 'Micro_DM-250-290X', 'Micro_DM-250-290X', '', ( #151 ) ) ;
#320 = ORIENTED_EDGE ( 'NONE', *, *, #253, .T. ) ;
#321 = AXIS2_PLACEMENT_3D ( 'NONE', #98, #137, #38 ) ;
#322 = VERTEX_POINT ( 'NONE', #197 ) ;
#323 = ORIENTED_EDGE ( 'NONE', *, *, #169, .F. ) ;
#324 = CARTESIAN_POINT ( 'NONE',  ( 0.0000000000000000000, 0.0000000000000000000, 1.707404996040164512E-17 ) ) ;
#325 = ORIENTED_EDGE ( 'NONE', *, *, #128, .T. ) ;
#326 = AXIS2_PLACEMENT_3D ( 'NONE', #154, #312, #236 ) ;
#327 = ADVANCED_FACE ( 'NONE', ( #112 ), #163, .T. ) ;
#328 = PRESENTATION_STYLE_ASSIGNMENT (( #204 ) ) ;
#329 = DIRECTION ( 'NONE',  ( -1.000000000000000000, 0.0000000000000000000, 0.0000000000000000000 ) ) ;
ENDSEC;
END-ISO-10303-21;
