ISO-10303-21;
HEADER;
FILE_DESCRIPTION (( 'STEP AP214' ),
    '1' );
FILE_NAME ('24122.STEP',
    '2023-06-22T16:58:15',
    ( '' ),
    ( '' ),
    'SwSTEP 2.0',
    'SolidWorks 2023',
    '' );
FILE_SCHEMA (( 'AUTOMOTIVE_DESIGN' ));
ENDSEC;

DATA;
#1 =( CONVERSION_BASED_UNIT ( 'INCH', #234 ) LENGTH_UNIT ( ) NAMED_UNIT ( #225 ) );
#2 =( CONVERSION_BASED_UNIT ( 'INCH', #219 ) LENGTH_UNIT ( ) NAMED_UNIT ( #202 ) );
#3 = ADVANCED_FACE ( 'NONE', ( #57 ), #98, .T. ) ;
#4 = DIRECTION ( 'NONE',  ( 1.000000000000000000, 0.000000000000000000, 0.000000000000000000 ) ) ;
#5 =( GEOMETRIC_REPRESENTATION_CONTEXT ( 3 ) GLOBAL_UNCERTAINTY_ASSIGNED_CONTEXT ( ( #35 ) ) GLOBAL_UNIT_ASSIGNED_CONTEXT ( ( #298, #307, #163 ) ) REPRESENTATION_CONTEXT ( 'NONE', 'WORKASPACE' ) );
#6 = FILL_AREA_STYLE_COLOUR ( '', #77 ) ;
#7 = ORIENTED_EDGE ( 'NONE', *, *, #206, .T. ) ;
#8 = EDGE_CURVE ( 'NONE', #102, #32, #132, .T. ) ;
#9 = VERTEX_POINT ( 'NONE', #279 ) ;
#10 = PRODUCT_DEFINITION_SHAPE ( 'NONE', 'NONE',  #254 ) ;
#11 = STYLED_ITEM ( 'NONE', ( #253 ), #181 ) ;
#12 = DIRECTION ( 'NONE',  ( 0.000000000000000000, 0.000000000000000000, -1.000000000000000000 ) ) ;
#13 = EDGE_LOOP ( 'NONE', ( #53, #34 ) ) ;
#14 = ORIENTED_EDGE ( 'NONE', *, *, #274, .T. ) ;
#15 =( NAMED_UNIT ( * ) PLANE_ANGLE_UNIT ( ) SI_UNIT ( $, .RADIAN. ) );
#16 = CARTESIAN_POINT ( 'NONE',  ( 0.000000000000000000, 0.000000000000000000, 0.000000000000000000 ) ) ;
#17 = DIRECTION ( 'NONE',  ( -5.763043760693426857E-17, 1.000000000000000000, -0.000000000000000000 ) ) ;
#18 = MECHANICAL_DESIGN_GEOMETRIC_PRESENTATION_REPRESENTATION (  '', ( #11 ), #180 ) ;
#19 = SURFACE_STYLE_FILL_AREA ( #168 ) ;
#20 = CARTESIAN_POINT ( 'NONE',  ( 0.000000000000000000, 1.375000000000000000, 0.000000000000000000 ) ) ;
#21 = EDGE_CURVE ( 'NONE', #32, #102, #261, .T. ) ;
#22 = DIRECTION ( 'NONE',  ( -5.763043760693426857E-17, 1.000000000000000000, -0.000000000000000000 ) ) ;
#23 = FILL_AREA_STYLE ('',( #287 ) ) ;
#24 = PRESENTATION_LAYER_ASSIGNMENT (  '', '', ( #153 ) ) ;
#25 = DIRECTION ( 'NONE',  ( 0.000000000000000000, -1.000000000000000000, -0.000000000000000000 ) ) ;
#26 = SURFACE_SIDE_STYLE ('',( #288 ) ) ;
#27 = AXIS2_PLACEMENT_3D ( 'NONE', #237, #22, #216 ) ;
#28 = STYLED_ITEM ( 'NONE', ( #304 ), #227 ) ;
#29 = VERTEX_POINT ( 'NONE', #87 ) ;
#30 =( CONVERSION_BASED_UNIT ( 'INCH', #246 ) LENGTH_UNIT ( ) NAMED_UNIT ( #218 ) );
#31 = DIMENSIONAL_EXPONENTS ( 1.000000000000000000, 0.000000000000000000, 0.000000000000000000, 0.000000000000000000, 0.000000000000000000, 0.000000000000000000, 0.000000000000000000 ) ;
#32 = VERTEX_POINT ( 'NONE', #55 ) ;
#33 = CARTESIAN_POINT ( 'NONE',  ( -0.1562500000000003053, 3.500000000000000000, 0.000000000000000000 ) ) ;
#34 = ORIENTED_EDGE ( 'NONE', *, *, #235, .F. ) ;
#35 = UNCERTAINTY_MEASURE_WITH_UNIT (LENGTH_MEASURE( 1.000000000000000082E-05 ), #298, 'distance_accuracy_value', 'NONE');
#36 = EDGE_LOOP ( 'NONE', ( #250, #14, #7, #258 ) ) ;
#37 = AXIS2_PLACEMENT_3D ( 'NONE', #256, #17, #179 ) ;
#38 = FILL_AREA_STYLE_COLOUR ( '', #187 ) ;
#39 = ORIENTED_EDGE ( 'NONE', *, *, #75, .F. ) ;
#40 = DIRECTION ( 'NONE',  ( -0.000000000000000000, -1.000000000000000000, -0.000000000000000000 ) ) ;
#41 = DIRECTION ( 'NONE',  ( -0.000000000000000000, -1.000000000000000000, -0.000000000000000000 ) ) ;
#42 = DIRECTION ( 'NONE',  ( 0.000000000000000000, 1.000000000000000000, 0.000000000000000000 ) ) ;
#43 = AXIS2_PLACEMENT_3D ( 'NONE', #282, #166, #45 ) ;
#44 = DIRECTION ( 'NONE',  ( 5.763043760693426857E-17, -1.000000000000000000, 0.000000000000000000 ) ) ;
#45 = DIRECTION ( 'NONE',  ( -1.000000000000000000, 0.000000000000000000, 0.000000000000000000 ) ) ;
#46 = LINE ( 'NONE', #263, #186 ) ;
#47 = DIRECTION ( 'NONE',  ( 0.000000000000000000, 0.000000000000000000, 1.000000000000000000 ) ) ;
#48 = PLANE ( 'NONE',  #119 ) ;
#49 = CIRCLE ( 'NONE', #112, 0.1562500000000000278 ) ;
#50 = ADVANCED_FACE ( 'NONE', ( #184 ), #64, .F. ) ;
#51 = PRESENTATION_LAYER_ASSIGNMENT (  '', '', ( #28 ) ) ;
#52 = EDGE_LOOP ( 'NONE', ( #296, #148, #243, #120 ) ) ;
#53 = ORIENTED_EDGE ( 'NONE', *, *, #71, .F. ) ;
#54 = EDGE_CURVE ( 'NONE', #182, #178, #164, .T. ) ;
#55 = CARTESIAN_POINT ( 'NONE',  ( 1.913510623667739463E-17, 0.000000000000000000, 0.1562500000000000000 ) ) ;
#56 = SURFACE_STYLE_USAGE ( .BOTH. , #292 ) ;
#57 = FACE_OUTER_BOUND ( 'NONE', #117, .T. ) ;
#58 = LENGTH_MEASURE_WITH_UNIT ( LENGTH_MEASURE( 0.02539999999999999897 ), #160 );
#59 = PRODUCT_RELATED_PRODUCT_CATEGORY ( 'part', '', ( #97 ) ) ;
#60 = UNCERTAINTY_MEASURE_WITH_UNIT (LENGTH_MEASURE( 1.000000000000000082E-05 ), #262, 'distance_accuracy_value', 'NONE');
#61 = CARTESIAN_POINT ( 'NONE',  ( 0.000000000000000000, 0.000000000000000000, 0.000000000000000000 ) ) ;
#62 = CARTESIAN_POINT ( 'NONE',  ( -0.1562500000000002498, 3.500000000000000000, 0.000000000000000000 ) ) ;
#63 = DIMENSIONAL_EXPONENTS ( 1.000000000000000000, 0.000000000000000000, 0.000000000000000000, 0.000000000000000000, 0.000000000000000000, 0.000000000000000000, 0.000000000000000000 ) ;
#64 = PLANE ( 'NONE',  #114 ) ;
#65 = CARTESIAN_POINT ( 'NONE',  ( -0.1562500000000000278, 1.375000000000000000, 0.000000000000000000 ) ) ;
#66 = LENGTH_MEASURE_WITH_UNIT ( LENGTH_MEASURE( 0.02539999999999999897 ), #111 );
#67 = CLOSED_SHELL ( 'NONE', ( #227, #181, #3, #306 ) ) ;
#68 = COLOUR_RGB ( '',1.000000000000000000, 0.000000000000000000, 0.000000000000000000 ) ;
#69 = SURFACE_STYLE_USAGE ( .BOTH. , #26 ) ;
#70 = CARTESIAN_POINT ( 'NONE',  ( 0.000000000000000000, 1.375000000000000000, 0.000000000000000000 ) ) ;
#71 = EDGE_CURVE ( 'NONE', #29, #9, #241, .T. ) ;
#72 = CARTESIAN_POINT ( 'NONE',  ( 0.000000000000000000, 0.000000000000000000, -0.1562500000000000000 ) ) ;
#73 = FACE_OUTER_BOUND ( 'NONE', #226, .T. ) ;
#74 = APPLICATION_CONTEXT ( 'automotive_design' ) ;
#75 = EDGE_CURVE ( 'NONE', #9, #32, #188, .T. ) ;
#76 = COLOUR_RGB ( '',1.000000000000000000, 0.000000000000000000, 0.000000000000000000 ) ;
#77 = COLOUR_RGB ( '',1.000000000000000000, 0.000000000000000000, 0.000000000000000000 ) ;
#78 = AXIS2_PLACEMENT_3D ( 'NONE', #205, #40, #12 ) ;
#79 =( LENGTH_UNIT ( ) NAMED_UNIT ( * ) SI_UNIT ( $, .METRE. ) );
#80 = PRESENTATION_LAYER_ASSIGNMENT (  '', '', ( #248 ) ) ;
#81 = AXIS2_PLACEMENT_3D ( 'NONE', #281, #44, #211 ) ;
#82 = FACE_OUTER_BOUND ( 'NONE', #36, .T. ) ;
#83 = SURFACE_SIDE_STYLE ('',( #201 ) ) ;
#84 = CIRCLE ( 'NONE', #43, 0.1562500000000000278 ) ;
#85 = DIRECTION ( 'NONE',  ( 0.000000000000000000, 0.000000000000000000, -1.000000000000000000 ) ) ;
#86 = CYLINDRICAL_SURFACE ( 'NONE', #37, 0.1562500000000001110 ) ;
#87 = CARTESIAN_POINT ( 'NONE',  ( 0.000000000000000000, 1.375000000000000000, -0.1562500000000000278 ) ) ;
#88 = FACE_OUTER_BOUND ( 'NONE', #228, .T. ) ;
#89 = PRESENTATION_STYLE_ASSIGNMENT (( #305 ) ) ;
#90 = AXIS2_PLACEMENT_3D ( 'NONE', #209, #158, #130 ) ;
#91 = STYLED_ITEM ( 'NONE', ( #285 ), #306 ) ;
#92 =( LENGTH_UNIT ( ) NAMED_UNIT ( * ) SI_UNIT ( $, .METRE. ) );
#93 = ADVANCED_BREP_SHAPE_REPRESENTATION ( '24122', ( #155, #159, #208 ), #242 ) ;
#94 = FACE_OUTER_BOUND ( 'NONE', #13, .T. ) ;
#95 = UNCERTAINTY_MEASURE_WITH_UNIT (LENGTH_MEASURE( 1.000000000000000082E-05 ), #30, 'distance_accuracy_value', 'NONE');
#96 =( NAMED_UNIT ( * ) SI_UNIT ( $, .STERADIAN. ) SOLID_ANGLE_UNIT ( ) );
#97 = PRODUCT ( '24122', '24122', '', ( #141 ) ) ;
#98 = CYLINDRICAL_SURFACE ( 'NONE', #255, 0.1562500000000000000 ) ;
#99 = AXIS2_PLACEMENT_3D ( 'NONE', #212, #309, #217 ) ;
#100 = FILL_AREA_STYLE ('',( #257 ) ) ;
#101 = CYLINDRICAL_SURFACE ( 'NONE', #78, 0.1562500000000000000 ) ;
#102 = VERTEX_POINT ( 'NONE', #72 ) ;
#103 =( NAMED_UNIT ( * ) SI_UNIT ( $, .STERADIAN. ) SOLID_ANGLE_UNIT ( ) );
#104 = ORIENTED_EDGE ( 'NONE', *, *, #126, .F. ) ;
#105 = DIRECTION ( 'NONE',  ( -5.763043760693426857E-17, 1.000000000000000000, -0.000000000000000000 ) ) ;
#106 =( GEOMETRIC_REPRESENTATION_CONTEXT ( 3 ) GLOBAL_UNCERTAINTY_ASSIGNED_CONTEXT ( ( #95 ) ) GLOBAL_UNIT_ASSIGNED_CONTEXT ( ( #30, #221, #96 ) ) REPRESENTATION_CONTEXT ( 'NONE', 'WORKASPACE' ) );
#107 =( CONVERSION_BASED_UNIT ( 'INCH', #204 ) LENGTH_UNIT ( ) NAMED_UNIT ( #31 ) );
#108 = LINE ( 'NONE', #62, #154 ) ;
#109 = SURFACE_SIDE_STYLE ('',( #19 ) ) ;
#110 = CARTESIAN_POINT ( 'NONE',  ( 0.000000000000000000, 1.375000000000000000, 0.000000000000000000 ) ) ;
#111 =( LENGTH_UNIT ( ) NAMED_UNIT ( * ) SI_UNIT ( $, .METRE. ) );
#112 = AXIS2_PLACEMENT_3D ( 'NONE', #70, #264, #136 ) ;
#113 = CARTESIAN_POINT ( 'NONE',  ( 0.1562500000000000278, 1.375000000000000000, 1.913510623667741312E-17 ) ) ;
#114 = AXIS2_PLACEMENT_3D ( 'NONE', #161, #259, #252 ) ;
#115 = STYLED_ITEM ( 'NONE', ( #149 ), #159 ) ;
#116 = EDGE_CURVE ( 'NONE', #277, #182, #46, .T. ) ;
#117 = EDGE_LOOP ( 'NONE', ( #39, #144, #223, #299 ) ) ;
#118 = CLOSED_SHELL ( 'NONE', ( #177, #50, #189, #157 ) ) ;
#119 = AXIS2_PLACEMENT_3D ( 'NONE', #236, #25, #213 ) ;
#120 = ORIENTED_EDGE ( 'NONE', *, *, #245, .F. ) ;
#121 = FACE_OUTER_BOUND ( 'NONE', #271, .T. ) ;
#122 = PLANE ( 'NONE',  #276 ) ;
#123 = ORIENTED_EDGE ( 'NONE', *, *, #206, .F. ) ;
#124 = AXIS2_PLACEMENT_3D ( 'NONE', #16, #176, #272 ) ;
#125 =( GEOMETRIC_REPRESENTATION_CONTEXT ( 3 ) GLOBAL_UNCERTAINTY_ASSIGNED_CONTEXT ( ( #171 ) ) GLOBAL_UNIT_ASSIGNED_CONTEXT ( ( #1, #190, #215 ) ) REPRESENTATION_CONTEXT ( 'NONE', 'WORKASPACE' ) );
#126 = EDGE_CURVE ( 'NONE', #273, #277, #49, .T. ) ;
#127 = SURFACE_STYLE_USAGE ( .BOTH. , #83 ) ;
#128 =( NAMED_UNIT ( * ) PLANE_ANGLE_UNIT ( ) SI_UNIT ( $, .RADIAN. ) );
#129 = CARTESIAN_POINT ( 'NONE',  ( 0.1562500000000000278, 3.500000000000000000, 1.913510623667741312E-17 ) ) ;
#130 = DIRECTION ( 'NONE',  ( 0.000000000000000000, 0.000000000000000000, -1.000000000000000000 ) ) ;
#131 = CARTESIAN_POINT ( 'NONE',  ( 0.000000000000000000, 0.000000000000000000, -0.1562500000000000000 ) ) ;
#132 = CIRCLE ( 'NONE', #90, 0.1562500000000000000 ) ;
#133 = MECHANICAL_DESIGN_GEOMETRIC_PRESENTATION_REPRESENTATION (  '', ( #28 ), #286 ) ;
#134 = PLANE ( 'NONE',  #81 ) ;
#135 = CARTESIAN_POINT ( 'NONE',  ( -1.224646799147353207E-16, 3.500000000000000000, 0.000000000000000000 ) ) ;
#136 = DIRECTION ( 'NONE',  ( -1.000000000000000000, 0.000000000000000000, 0.000000000000000000 ) ) ;
#137 =( NAMED_UNIT ( * ) SI_UNIT ( $, .STERADIAN. ) SOLID_ANGLE_UNIT ( ) );
#138 = DIRECTION ( 'NONE',  ( -0.000000000000000000, -1.000000000000000000, -0.000000000000000000 ) ) ;
#139 = APPLICATION_PROTOCOL_DEFINITION ( 'draft international standard', 'automotive_design', 1998, #74 ) ;
#140 = SURFACE_STYLE_FILL_AREA ( #265 ) ;
#141 = PRODUCT_CONTEXT ( 'NONE', #74, 'mechanical' ) ;
#142 = VECTOR ( 'NONE', #138, 39.37007874015748143 ) ;
#143 = PRESENTATION_LAYER_ASSIGNMENT (  '', '', ( #115 ) ) ;
#144 = ORIENTED_EDGE ( 'NONE', *, *, #235, .T. ) ;
#145 = ORIENTED_EDGE ( 'NONE', *, *, #174, .T. ) ;
#146 =( GEOMETRIC_REPRESENTATION_CONTEXT ( 3 ) GLOBAL_UNCERTAINTY_ASSIGNED_CONTEXT ( ( #289 ) ) GLOBAL_UNIT_ASSIGNED_CONTEXT ( ( #107, #156, #199 ) ) REPRESENTATION_CONTEXT ( 'NONE', 'WORKASPACE' ) );
#147 = MECHANICAL_DESIGN_GEOMETRIC_PRESENTATION_REPRESENTATION (  '', ( #115 ), #106 ) ;
#148 = ORIENTED_EDGE ( 'NONE', *, *, #75, .T. ) ;
#149 = PRESENTATION_STYLE_ASSIGNMENT (( #198 ) ) ;
#150 = ORIENTED_EDGE ( 'NONE', *, *, #54, .T. ) ;
#151 =( LENGTH_UNIT ( ) NAMED_UNIT ( * ) SI_UNIT ( $, .METRE. ) );
#152 =( CONVERSION_BASED_UNIT ( 'INCH', #58 ) LENGTH_UNIT ( ) NAMED_UNIT ( #63 ) );
#153 = STYLED_ITEM ( 'NONE', ( #89 ), #155 ) ;
#154 = VECTOR ( 'NONE', #105, 39.37007874015748143 ) ;
#155 = MANIFOLD_SOLID_BREP ( 'Revolve - Cutting Edge', #67 ) ;
#156 =( NAMED_UNIT ( * ) PLANE_ANGLE_UNIT ( ) SI_UNIT ( $, .RADIAN. ) );
#157 = ADVANCED_FACE ( 'NONE', ( #88 ), #134, .F. ) ;
#158 = DIRECTION ( 'NONE',  ( -0.000000000000000000, -1.000000000000000000, -0.000000000000000000 ) ) ;
#159 = MANIFOLD_SOLID_BREP ( 'Revolve - Tool Body (Straight Shanked)', #118 ) ;
#160 =( LENGTH_UNIT ( ) NAMED_UNIT ( * ) SI_UNIT ( $, .METRE. ) );
#161 = CARTESIAN_POINT ( 'NONE',  ( 2.594740108411518872E-34, 1.375000000000000000, 0.000000000000000000 ) ) ;
#162 =( NAMED_UNIT ( * ) SI_UNIT ( $, .STERADIAN. ) SOLID_ANGLE_UNIT ( ) );
#163 =( NAMED_UNIT ( * ) SI_UNIT ( $, .STERADIAN. ) SOLID_ANGLE_UNIT ( ) );
#164 = CIRCLE ( 'NONE', #27, 0.1562500000000001665 ) ;
#165 = AXIS2_PLACEMENT_3D ( 'NONE', #135, #251, #293 ) ;
#166 = DIRECTION ( 'NONE',  ( -5.763043760693426857E-17, 1.000000000000000000, -0.000000000000000000 ) ) ;
#167 = FILL_AREA_STYLE_COLOUR ( '', #283 ) ;
#168 = FILL_AREA_STYLE ('',( #232 ) ) ;
#169 = CARTESIAN_POINT ( 'NONE',  ( 0.000000000000000000, 0.000000000000000000, 0.000000000000000000 ) ) ;
#170 =( NAMED_UNIT ( * ) PLANE_ANGLE_UNIT ( ) SI_UNIT ( $, .RADIAN. ) );
#171 = UNCERTAINTY_MEASURE_WITH_UNIT (LENGTH_MEASURE( 1.000000000000000082E-05 ), #1, 'distance_accuracy_value', 'NONE');
#172 = ORIENTED_EDGE ( 'NONE', *, *, #8, .T. ) ;
#173 = PRODUCT_DEFINITION_FORMATION_WITH_SPECIFIED_SOURCE ( 'ANY', '', #97, .NOT_KNOWN. ) ;
#174 = EDGE_CURVE ( 'NONE', #178, #182, #297, .T. ) ;
#175 = VECTOR ( 'NONE', #231, 39.37007874015748143 ) ;
#176 = DIRECTION ( 'NONE',  ( -0.000000000000000000, -1.000000000000000000, -0.000000000000000000 ) ) ;
#177 = ADVANCED_FACE ( 'NONE', ( #121 ), #200, .T. ) ;
#178 = VERTEX_POINT ( 'NONE', #33 ) ;
#179 = DIRECTION ( 'NONE',  ( -1.000000000000000000, 0.000000000000000000, 0.000000000000000000 ) ) ;
#180 =( GEOMETRIC_REPRESENTATION_CONTEXT ( 3 ) GLOBAL_UNCERTAINTY_ASSIGNED_CONTEXT ( ( #60 ) ) GLOBAL_UNIT_ASSIGNED_CONTEXT ( ( #262, #15, #162 ) ) REPRESENTATION_CONTEXT ( 'NONE', 'WORKASPACE' ) );
#181 = ADVANCED_FACE ( 'NONE', ( #94 ), #122, .T. ) ;
#182 = VERTEX_POINT ( 'NONE', #129 ) ;
#183 = FACE_OUTER_BOUND ( 'NONE', #52, .T. ) ;
#184 = FACE_OUTER_BOUND ( 'NONE', #300, .T. ) ;
#185 = DIRECTION ( 'NONE',  ( -5.763043760693426857E-17, 1.000000000000000000, -0.000000000000000000 ) ) ;
#186 = VECTOR ( 'NONE', #185, 39.37007874015748143 ) ;
#187 = COLOUR_RGB ( '',1.000000000000000000, 0.000000000000000000, 0.000000000000000000 ) ;
#188 = LINE ( 'NONE', #284, #142 ) ;
#189 = ADVANCED_FACE ( 'NONE', ( #82 ), #86, .T. ) ;
#190 =( NAMED_UNIT ( * ) PLANE_ANGLE_UNIT ( ) SI_UNIT ( $, .RADIAN. ) );
#191 = PRESENTATION_LAYER_ASSIGNMENT (  '', '', ( #11 ) ) ;
#192 = DIMENSIONAL_EXPONENTS ( 1.000000000000000000, 0.000000000000000000, 0.000000000000000000, 0.000000000000000000, 0.000000000000000000, 0.000000000000000000, 0.000000000000000000 ) ;
#193 = PRODUCT_DEFINITION_CONTEXT ( 'detailed design', #197, 'design' ) ;
#194 = DIRECTION ( 'NONE',  ( -1.000000000000000000, 0.000000000000000000, 0.000000000000000000 ) ) ;
#195 = MECHANICAL_DESIGN_GEOMETRIC_PRESENTATION_REPRESENTATION (  '', ( #153 ), #5 ) ;
#196 = FILL_AREA_STYLE ('',( #6 ) ) ;
#197 = APPLICATION_CONTEXT ( 'automotive_design' ) ;
#198 = SURFACE_STYLE_USAGE ( .BOTH. , #238 ) ;
#199 =( NAMED_UNIT ( * ) SI_UNIT ( $, .STERADIAN. ) SOLID_ANGLE_UNIT ( ) );
#200 = CYLINDRICAL_SURFACE ( 'NONE', #214, 0.1562500000000001110 ) ;
#201 = SURFACE_STYLE_FILL_AREA ( #100 ) ;
#202 = DIMENSIONAL_EXPONENTS ( 1.000000000000000000, 0.000000000000000000, 0.000000000000000000, 0.000000000000000000, 0.000000000000000000, 0.000000000000000000, 0.000000000000000000 ) ;
#203 = LINE ( 'NONE', #131, #175 ) ;
#204 = LENGTH_MEASURE_WITH_UNIT ( LENGTH_MEASURE( 0.02539999999999999897 ), #151 );
#205 = CARTESIAN_POINT ( 'NONE',  ( 0.000000000000000000, 0.000000000000000000, 0.000000000000000000 ) ) ;
#206 = EDGE_CURVE ( 'NONE', #273, #178, #108, .T. ) ;
#207 = SURFACE_STYLE_USAGE ( .BOTH. , #278 ) ;
#208 = AXIS2_PLACEMENT_3D ( 'NONE', #169, #47, #4 ) ;
#209 = CARTESIAN_POINT ( 'NONE',  ( 0.000000000000000000, 0.000000000000000000, 0.000000000000000000 ) ) ;
#210 = DIRECTION ( 'NONE',  ( 0.000000000000000000, -0.000000000000000000, 1.000000000000000000 ) ) ;
#211 = DIRECTION ( 'NONE',  ( 1.000000000000000000, 5.763043760693426857E-17, 0.000000000000000000 ) ) ;
#212 = CARTESIAN_POINT ( 'NONE',  ( 0.000000000000000000, 1.375000000000000000, 0.000000000000000000 ) ) ;
#213 = DIRECTION ( 'NONE',  ( 0.000000000000000000, 0.000000000000000000, -1.000000000000000000 ) ) ;
#214 = AXIS2_PLACEMENT_3D ( 'NONE', #224, #294, #194 ) ;
#215 =( NAMED_UNIT ( * ) SI_UNIT ( $, .STERADIAN. ) SOLID_ANGLE_UNIT ( ) );
#216 = DIRECTION ( 'NONE',  ( -1.000000000000000000, 0.000000000000000000, 0.000000000000000000 ) ) ;
#217 = DIRECTION ( 'NONE',  ( 0.000000000000000000, 0.000000000000000000, -1.000000000000000000 ) ) ;
#218 = DIMENSIONAL_EXPONENTS ( 1.000000000000000000, 0.000000000000000000, 0.000000000000000000, 0.000000000000000000, 0.000000000000000000, 0.000000000000000000, 0.000000000000000000 ) ;
#219 = LENGTH_MEASURE_WITH_UNIT ( LENGTH_MEASURE( 0.02539999999999999897 ), #308 );
#220 = ORIENTED_EDGE ( 'NONE', *, *, #274, .F. ) ;
#221 =( NAMED_UNIT ( * ) PLANE_ANGLE_UNIT ( ) SI_UNIT ( $, .RADIAN. ) );
#222 = AXIS2_PLACEMENT_3D ( 'NONE', #20, #233, #301 ) ;
#223 = ORIENTED_EDGE ( 'NONE', *, *, #245, .T. ) ;
#224 = CARTESIAN_POINT ( 'NONE',  ( -1.224646799147353207E-16, 3.500000000000000000, 0.000000000000000000 ) ) ;
#225 = DIMENSIONAL_EXPONENTS ( 1.000000000000000000, 0.000000000000000000, 0.000000000000000000, 0.000000000000000000, 0.000000000000000000, 0.000000000000000000, 0.000000000000000000 ) ;
#226 = EDGE_LOOP ( 'NONE', ( #172, #303 ) ) ;
#227 = ADVANCED_FACE ( 'NONE', ( #183 ), #101, .T. ) ;
#228 = EDGE_LOOP ( 'NONE', ( #145, #150 ) ) ;
#229 =( LENGTH_UNIT ( ) NAMED_UNIT ( * ) SI_UNIT ( $, .METRE. ) );
#230 = PRESENTATION_STYLE_ASSIGNMENT (( #127 ) ) ;
#231 = DIRECTION ( 'NONE',  ( -0.000000000000000000, -1.000000000000000000, -0.000000000000000000 ) ) ;
#232 = FILL_AREA_STYLE_COLOUR ( '', #290 ) ;
#233 = DIRECTION ( 'NONE',  ( -0.000000000000000000, -1.000000000000000000, -0.000000000000000000 ) ) ;
#234 = LENGTH_MEASURE_WITH_UNIT ( LENGTH_MEASURE( 0.02539999999999999897 ), #92 );
#235 = EDGE_CURVE ( 'NONE', #9, #29, #302, .T. ) ;
#236 = CARTESIAN_POINT ( 'NONE',  ( 0.000000000000000000, 0.000000000000000000, 0.000000000000000000 ) ) ;
#237 = CARTESIAN_POINT ( 'NONE',  ( -1.224646799147353207E-16, 3.500000000000000000, 0.000000000000000000 ) ) ;
#238 = SURFACE_SIDE_STYLE ('',( #140 ) ) ;
#239 = APPLICATION_PROTOCOL_DEFINITION ( 'draft international standard', 'automotive_design', 1998, #197 ) ;
#240 = DIMENSIONAL_EXPONENTS ( 1.000000000000000000, 0.000000000000000000, 0.000000000000000000, 0.000000000000000000, 0.000000000000000000, 0.000000000000000000, 0.000000000000000000 ) ;
#241 = CIRCLE ( 'NONE', #99, 0.1562500000000000278 ) ;
#242 =( GEOMETRIC_REPRESENTATION_CONTEXT ( 3 ) GLOBAL_UNCERTAINTY_ASSIGNED_CONTEXT ( ( #244 ) ) GLOBAL_UNIT_ASSIGNED_CONTEXT ( ( #2, #170, #137 ) ) REPRESENTATION_CONTEXT ( 'NONE', 'WORKASPACE' ) );
#243 = ORIENTED_EDGE ( 'NONE', *, *, #8, .F. ) ;
#244 = UNCERTAINTY_MEASURE_WITH_UNIT (LENGTH_MEASURE( 1.000000000000000082E-05 ), #2, 'distance_accuracy_value', 'NONE');
#245 = EDGE_CURVE ( 'NONE', #29, #102, #203, .T. ) ;
#246 = LENGTH_MEASURE_WITH_UNIT ( LENGTH_MEASURE( 0.02539999999999999897 ), #79 );
#247 = SURFACE_STYLE_FILL_AREA ( #196 ) ;
#248 = STYLED_ITEM ( 'NONE', ( #230 ), #3 ) ;
#249 = ORIENTED_EDGE ( 'NONE', *, *, #116, .T. ) ;
#250 = ORIENTED_EDGE ( 'NONE', *, *, #116, .F. ) ;
#251 = DIRECTION ( 'NONE',  ( -5.763043760693426857E-17, 1.000000000000000000, -0.000000000000000000 ) ) ;
#252 = DIRECTION ( 'NONE',  ( -1.000000000000000000, -5.763043760693426857E-17, 0.000000000000000000 ) ) ;
#253 = PRESENTATION_STYLE_ASSIGNMENT (( #56 ) ) ;
#254 = PRODUCT_DEFINITION ( 'UNKNOWN', '', #173, #193 ) ;
#255 = AXIS2_PLACEMENT_3D ( 'NONE', #61, #41, #85 ) ;
#256 = CARTESIAN_POINT ( 'NONE',  ( -1.224646799147353207E-16, 3.500000000000000000, 0.000000000000000000 ) ) ;
#257 = FILL_AREA_STYLE_COLOUR ( '', #76 ) ;
#258 = ORIENTED_EDGE ( 'NONE', *, *, #54, .F. ) ;
#259 = DIRECTION ( 'NONE',  ( -5.763043760693426857E-17, 1.000000000000000000, 0.000000000000000000 ) ) ;
#260 = SURFACE_STYLE_FILL_AREA ( #280 ) ;
#261 = CIRCLE ( 'NONE', #124, 0.1562500000000000000 ) ;
#262 =( CONVERSION_BASED_UNIT ( 'INCH', #275 ) LENGTH_UNIT ( ) NAMED_UNIT ( #240 ) );
#263 = CARTESIAN_POINT ( 'NONE',  ( 0.1562499999999999722, 3.500000000000000000, 1.913510623667741004E-17 ) ) ;
#264 = DIRECTION ( 'NONE',  ( -5.763043760693426857E-17, 1.000000000000000000, -0.000000000000000000 ) ) ;
#265 = FILL_AREA_STYLE ('',( #167 ) ) ;
#266 = PRESENTATION_LAYER_ASSIGNMENT (  '', '', ( #91 ) ) ;
#267 = ORIENTED_EDGE ( 'NONE', *, *, #174, .F. ) ;
#268 = MECHANICAL_DESIGN_GEOMETRIC_PRESENTATION_REPRESENTATION (  '', ( #91 ), #125 ) ;
#269 = ORIENTED_EDGE ( 'NONE', *, *, #126, .T. ) ;
#270 = SHAPE_DEFINITION_REPRESENTATION ( #10, #93 ) ;
#271 = EDGE_LOOP ( 'NONE', ( #269, #249, #267, #123 ) ) ;
#272 = DIRECTION ( 'NONE',  ( 0.000000000000000000, 0.000000000000000000, -1.000000000000000000 ) ) ;
#273 = VERTEX_POINT ( 'NONE', #65 ) ;
#274 = EDGE_CURVE ( 'NONE', #277, #273, #84, .T. ) ;
#275 = LENGTH_MEASURE_WITH_UNIT ( LENGTH_MEASURE( 0.02539999999999999897 ), #229 );
#276 = AXIS2_PLACEMENT_3D ( 'NONE', #110, #42, #210 ) ;
#277 = VERTEX_POINT ( 'NONE', #113 ) ;
#278 = SURFACE_SIDE_STYLE ('',( #260 ) ) ;
#279 = CARTESIAN_POINT ( 'NONE',  ( 1.913510623667739771E-17, 1.375000000000000000, 0.1562500000000000278 ) ) ;
#280 = FILL_AREA_STYLE ('',( #38 ) ) ;
#281 = CARTESIAN_POINT ( 'NONE',  ( 0.1562500000000000278, 3.500000000000000000, 0.000000000000000000 ) ) ;
#282 = CARTESIAN_POINT ( 'NONE',  ( 0.000000000000000000, 1.375000000000000000, 0.000000000000000000 ) ) ;
#283 = COLOUR_RGB ( '',0.7921568627450980005, 0.8196078431372548767, 0.9333333333333333481 ) ;
#284 = CARTESIAN_POINT ( 'NONE',  ( 1.913510623667739463E-17, 0.000000000000000000, 0.1562500000000000000 ) ) ;
#285 = PRESENTATION_STYLE_ASSIGNMENT (( #69 ) ) ;
#286 =( GEOMETRIC_REPRESENTATION_CONTEXT ( 3 ) GLOBAL_UNCERTAINTY_ASSIGNED_CONTEXT ( ( #291 ) ) GLOBAL_UNIT_ASSIGNED_CONTEXT ( ( #152, #128, #103 ) ) REPRESENTATION_CONTEXT ( 'NONE', 'WORKASPACE' ) );
#287 = FILL_AREA_STYLE_COLOUR ( '', #68 ) ;
#288 = SURFACE_STYLE_FILL_AREA ( #23 ) ;
#289 = UNCERTAINTY_MEASURE_WITH_UNIT (LENGTH_MEASURE( 1.000000000000000082E-05 ), #107, 'distance_accuracy_value', 'NONE');
#290 = COLOUR_RGB ( '',0.7921568627450980005, 0.8196078431372548767, 0.9333333333333333481 ) ;
#291 = UNCERTAINTY_MEASURE_WITH_UNIT (LENGTH_MEASURE( 1.000000000000000082E-05 ), #152, 'distance_accuracy_value', 'NONE');
#292 = SURFACE_SIDE_STYLE ('',( #247 ) ) ;
#293 = DIRECTION ( 'NONE',  ( -1.000000000000000000, 0.000000000000000000, 0.000000000000000000 ) ) ;
#294 = DIRECTION ( 'NONE',  ( -5.763043760693426857E-17, 1.000000000000000000, -0.000000000000000000 ) ) ;
#295 = MECHANICAL_DESIGN_GEOMETRIC_PRESENTATION_REPRESENTATION (  '', ( #248 ), #146 ) ;
#296 = ORIENTED_EDGE ( 'NONE', *, *, #71, .T. ) ;
#297 = CIRCLE ( 'NONE', #165, 0.1562500000000001665 ) ;
#298 =( CONVERSION_BASED_UNIT ( 'INCH', #66 ) LENGTH_UNIT ( ) NAMED_UNIT ( #192 ) );
#299 = ORIENTED_EDGE ( 'NONE', *, *, #21, .F. ) ;
#300 = EDGE_LOOP ( 'NONE', ( #104, #220 ) ) ;
#301 = DIRECTION ( 'NONE',  ( 0.000000000000000000, 0.000000000000000000, -1.000000000000000000 ) ) ;
#302 = CIRCLE ( 'NONE', #222, 0.1562500000000000278 ) ;
#303 = ORIENTED_EDGE ( 'NONE', *, *, #21, .T. ) ;
#304 = PRESENTATION_STYLE_ASSIGNMENT (( #207 ) ) ;
#305 = SURFACE_STYLE_USAGE ( .BOTH. , #109 ) ;
#306 = ADVANCED_FACE ( 'NONE', ( #73 ), #48, .T. ) ;
#307 =( NAMED_UNIT ( * ) PLANE_ANGLE_UNIT ( ) SI_UNIT ( $, .RADIAN. ) );
#308 =( LENGTH_UNIT ( ) NAMED_UNIT ( * ) SI_UNIT ( $, .METRE. ) );
#309 = DIRECTION ( 'NONE',  ( -0.000000000000000000, -1.000000000000000000, -0.000000000000000000 ) ) ;
ENDSEC;
END-ISO-10303-21;
