ISO-10303-21;
HEADER;
FILE_DESCRIPTION (( 'STEP AP214' ),
    '1' );
FILE_NAME ('Micro_SPD-500-082.STEP',
    '2021-09-03T21:21:17',
    ( '' ),
    ( '' ),
    'SwSTEP 2.0',
    'SolidWorks 2020',
    '' );
FILE_SCHEMA (( 'AUTOMOTIVE_DESIGN' ));
ENDSEC;

DATA;
#1 = CARTESIAN_POINT ( 'NONE',  ( 0.0000000000000000000, 0.0000000000000000000, 1.000000000000000000 ) ) ;
#2 = DIRECTION ( 'NONE',  ( 0.0000000000000000000, 0.0000000000000000000, 1.000000000000000000 ) ) ;
#3 = CYLINDRICAL_SURFACE ( 'NONE', #251, 0.2499500000000000888 ) ;
#4 = MECHANICAL_DESIGN_GEOMETRIC_PRESENTATION_REPRESENTATION (  '', ( #140 ), #46 ) ;
#5 = DIRECTION ( 'NONE',  ( 1.000000000000000000, 0.0000000000000000000, -0.0000000000000000000 ) ) ;
#6 = ORIENTED_EDGE ( 'NONE', *, *, #323, .F. ) ;
#7 = EDGE_CURVE ( 'NONE', #94, #19, #192, .T. ) ;
#8 = ADVANCED_FACE ( 'NONE', ( #68 ), #184, .T. ) ;
#9 = DIRECTION ( 'NONE',  ( 0.0000000000000000000, 0.0000000000000000000, 1.000000000000000000 ) ) ;
#10 = ORIENTED_EDGE ( 'NONE', *, *, #256, .F. ) ;
#11 = ORIENTED_EDGE ( 'NONE', *, *, #215, .F. ) ;
#12 = AXIS2_PLACEMENT_3D ( 'NONE', #291, #45, #325 ) ;
#13 = ORIENTED_EDGE ( 'NONE', *, *, #226, .F. ) ;
#14 = FACE_OUTER_BOUND ( 'NONE', #309, .T. ) ;
#15 = ORIENTED_EDGE ( 'NONE', *, *, #155, .T. ) ;
#16 = DIRECTION ( 'NONE',  ( -0.0000000000000000000, -0.0000000000000000000, -1.000000000000000000 ) ) ;
#17 = PRODUCT_DEFINITION ( 'UNKNOWN', '', #286, #335 ) ;
#18 = ADVANCED_FACE ( 'NONE', ( #233 ), #138, .T. ) ;
#19 = VERTEX_POINT ( 'NONE', #201 ) ;
#20 = DIRECTION ( 'NONE',  ( -1.000000000000000000, 0.0000000000000000000, 0.0000000000000000000 ) ) ;
#21 = CARTESIAN_POINT ( 'NONE',  ( 0.0000000000000000000, 0.0000000000000000000, 1.000049999999999883 ) ) ;
#22 = EDGE_CURVE ( 'NONE', #34, #88, #127, .T. ) ;
#23 = DIRECTION ( 'NONE',  ( -1.000000000000000000, 0.0000000000000000000, 0.0000000000000000000 ) ) ;
#24 = VECTOR ( 'NONE', #44, 39.37007874015748143 ) ;
#25 = DIRECTION ( 'NONE',  ( -0.0000000000000000000, -0.0000000000000000000, -1.000000000000000000 ) ) ;
#26 = PRESENTATION_LAYER_ASSIGNMENT (  '', '', ( #140 ) ) ;
#27 = DIRECTION ( 'NONE',  ( -0.0000000000000000000, -0.0000000000000000000, -1.000000000000000000 ) ) ;
#28 = CARTESIAN_POINT ( 'NONE',  ( 0.0000000000000000000, 0.0000000000000000000, 0.0000000000000000000 ) ) ;
#29 = ORIENTED_EDGE ( 'NONE', *, *, #254, .F. ) ;
#30 = DIRECTION ( 'NONE',  ( -0.0000000000000000000, -0.0000000000000000000, -1.000000000000000000 ) ) ;
#31 = ORIENTED_EDGE ( 'NONE', *, *, #66, .F. ) ;
#32 = AXIS2_PLACEMENT_3D ( 'NONE', #47, #186, #297 ) ;
#33 = DIRECTION ( 'NONE',  ( 0.7071067811865490160, 0.0000000000000000000, 0.7071067811865460184 ) ) ;
#34 = VERTEX_POINT ( 'NONE', #65 ) ;
#35 = FACE_OUTER_BOUND ( 'NONE', #167, .T. ) ;
#36 = ORIENTED_EDGE ( 'NONE', *, *, #215, .T. ) ;
#37 = MECHANICAL_DESIGN_GEOMETRIC_PRESENTATION_REPRESENTATION (  '', ( #95 ), #293 ) ;
#38 = CARTESIAN_POINT ( 'NONE',  ( 0.0000000000000000000, 0.0000000000000000000, 2.484999999999999876 ) ) ;
#39 = VERTEX_POINT ( 'NONE', #315 ) ;
#40 = AXIS2_PLACEMENT_3D ( 'NONE', #181, #176, #290 ) ;
#41 = PRESENTATION_LAYER_ASSIGNMENT (  '', '', ( #95 ) ) ;
#42 = ORIENTED_EDGE ( 'NONE', *, *, #226, .T. ) ;
#43 = DIRECTION ( 'NONE',  ( 0.0000000000000000000, 0.0000000000000000000, 1.000000000000000000 ) ) ;
#44 = DIRECTION ( 'NONE',  ( -0.0000000000000000000, -0.0000000000000000000, -1.000000000000000000 ) ) ;
#45 = DIRECTION ( 'NONE',  ( -0.0000000000000000000, -0.0000000000000000000, -1.000000000000000000 ) ) ;
#46 =( GEOMETRIC_REPRESENTATION_CONTEXT ( 3 ) GLOBAL_UNCERTAINTY_ASSIGNED_CONTEXT ( ( #202 ) ) GLOBAL_UNIT_ASSIGNED_CONTEXT ( ( #56, #83, #142 ) ) REPRESENTATION_CONTEXT ( 'NONE', 'WORKASPACE' ) );
#47 = CARTESIAN_POINT ( 'NONE',  ( 0.0000000000000000000, 0.0000000000000000000, 2.500000000000000000 ) ) ;
#48 = CARTESIAN_POINT ( 'NONE',  ( -0.2499500000000000333, 0.0000000000000000000, 0.2443957681141024907 ) ) ;
#49 = PRODUCT_DEFINITION_SHAPE ( 'NONE', 'NONE',  #17 ) ;
#50 = EDGE_CURVE ( 'NONE', #19, #94, #63, .T. ) ;
#51 = DIRECTION ( 'NONE',  ( -1.000000000000000000, 0.0000000000000000000, 0.0000000000000000000 ) ) ;
#52 = EDGE_CURVE ( 'NONE', #337, #62, #222, .T. ) ;
#53 = DIRECTION ( 'NONE',  ( -0.0000000000000000000, -0.0000000000000000000, -1.000000000000000000 ) ) ;
#54 = VECTOR ( 'NONE', #206, 39.37007874015748143 ) ;
#55 = CARTESIAN_POINT ( 'NONE',  ( 0.0000000000000000000, 0.0000000000000000000, 0.2443957681141024907 ) ) ;
#56 =( CONVERSION_BASED_UNIT ( 'INCH', #113 ) LENGTH_UNIT ( ) NAMED_UNIT ( #345 ) );
#57 = FACE_OUTER_BOUND ( 'NONE', #100, .T. ) ;
#58 = EDGE_CURVE ( 'NONE', #62, #337, #87, .T. ) ;
#59 = DIRECTION ( 'NONE',  ( -0.0000000000000000000, -0.0000000000000000000, -1.000000000000000000 ) ) ;
#60 = ORIENTED_EDGE ( 'NONE', *, *, #257, .T. ) ;
#61 =( LENGTH_UNIT ( ) NAMED_UNIT ( * ) SI_UNIT ( $, .METRE. ) );
#62 = VERTEX_POINT ( 'NONE', #279 ) ;
#63 = CIRCLE ( 'NONE', #322, 0.03749999999999999861 ) ;
#64 = AXIS2_PLACEMENT_3D ( 'NONE', #28, #302, #119 ) ;
#65 = CARTESIAN_POINT ( 'NONE',  ( -0.2500000000000000000, 0.0000000000000000000, 2.484999999999999876 ) ) ;
#66 = EDGE_CURVE ( 'NONE', #34, #255, #268, .T. ) ;
#67 = APPLICATION_PROTOCOL_DEFINITION ( 'draft international standard', 'automotive_design', 1998, #110 ) ;
#68 = FACE_OUTER_BOUND ( 'NONE', #334, .T. ) ;
#69 = ADVANCED_FACE ( 'NONE', ( #14 ), #165, .T. ) ;
#70 = ORIENTED_EDGE ( 'NONE', *, *, #52, .F. ) ;
#71 = AXIS2_PLACEMENT_3D ( 'NONE', #126, #261, #20 ) ;
#72 = CIRCLE ( 'NONE', #114, 0.2500000000000000000 ) ;
#73 = CARTESIAN_POINT ( 'NONE',  ( 0.0000000000000000000, 0.0000000000000000000, 0.0000000000000000000 ) ) ;
#74 = LINE ( 'NONE', #139, #102 ) ;
#75 = DIRECTION ( 'NONE',  ( 0.0000000000000000000, 0.0000000000000000000, 1.000000000000000000 ) ) ;
#76 = AXIS2_PLACEMENT_3D ( 'NONE', #78, #157, #111 ) ;
#77 = LINE ( 'NONE', #263, #327 ) ;
#78 = CARTESIAN_POINT ( 'NONE',  ( 0.0000000000000000000, 0.0000000000000000000, 2.500000000000000000 ) ) ;
#79 = EDGE_CURVE ( 'NONE', #94, #271, #197, .T. ) ;
#80 = CYLINDRICAL_SURFACE ( 'NONE', #193, 0.2500000000000000000 ) ;
#81 = CARTESIAN_POINT ( 'NONE',  ( 0.0000000000000000000, 0.0000000000000000000, 2.500000000000000000 ) ) ;
#82 = VECTOR ( 'NONE', #33, 39.37007874015748143 ) ;
#83 =( NAMED_UNIT ( * ) PLANE_ANGLE_UNIT ( ) SI_UNIT ( $, .RADIAN. ) );
#84 = ORIENTED_EDGE ( 'NONE', *, *, #52, .T. ) ;
#85 = SURFACE_SIDE_STYLE ('',( #194 ) ) ;
#86 = CARTESIAN_POINT ( 'NONE',  ( -0.2499500000000001165, 3.061004674468810760E-17, 1.000000000000000000 ) ) ;
#87 = CIRCLE ( 'NONE', #71, 0.2499500000000001165 ) ;
#88 = VERTEX_POINT ( 'NONE', #208 ) ;
#89 = AXIS2_PLACEMENT_3D ( 'NONE', #200, #43, #313 ) ;
#90 = DIRECTION ( 'NONE',  ( -1.000000000000000000, 0.0000000000000000000, 0.0000000000000000000 ) ) ;
#91 = EDGE_LOOP ( 'NONE', ( #199, #13, #214, #29 ) ) ;
#92 = PRODUCT_CONTEXT ( 'NONE', #110, 'mechanical' ) ;
#93 = ORIENTED_EDGE ( 'NONE', *, *, #344, .T. ) ;
#94 = VERTEX_POINT ( 'NONE', #294 ) ;
#95 = STYLED_ITEM ( 'NONE', ( #229 ), #132 ) ;
#96 = LENGTH_MEASURE_WITH_UNIT ( LENGTH_MEASURE( 0.02539999999999999897 ), #284 );
#97 = ORIENTED_EDGE ( 'NONE', *, *, #295, .T. ) ;
#98 = DIRECTION ( 'NONE',  ( 1.000000000000000000, 0.0000000000000000000, 0.0000000000000000000 ) ) ;
#99 = SHAPE_DEFINITION_REPRESENTATION ( #49, #132 ) ;
#100 = EDGE_LOOP ( 'NONE', ( #117, #301 ) ) ;
#101 = ADVANCED_FACE ( 'NONE', ( #270 ), #246, .T. ) ;
#102 = VECTOR ( 'NONE', #116, 39.37007874015748143 ) ;
#103 = LINE ( 'NONE', #134, #54 ) ;
#104 = DIMENSIONAL_EXPONENTS ( 1.000000000000000000, 0.0000000000000000000, 0.0000000000000000000, 0.0000000000000000000, 0.0000000000000000000, 0.0000000000000000000, 0.0000000000000000000 ) ;
#105 = DIRECTION ( 'NONE',  ( -0.0000000000000000000, -0.0000000000000000000, -1.000000000000000000 ) ) ;
#106 = PRODUCT ( 'Micro_SPD-500-082', 'Micro_SPD-500-082', '', ( #92 ) ) ;
#107 = CARTESIAN_POINT ( 'NONE',  ( 0.0000000000000000000, 0.0000000000000000000, 0.0000000000000000000 ) ) ;
#108 = AXIS2_PLACEMENT_3D ( 'NONE', #342, #149, #98 ) ;
#109 = DIRECTION ( 'NONE',  ( -0.0000000000000000000, -0.0000000000000000000, -1.000000000000000000 ) ) ;
#110 = APPLICATION_CONTEXT ( 'automotive_design' ) ;
#111 = DIRECTION ( 'NONE',  ( -1.000000000000000000, 0.0000000000000000000, 0.0000000000000000000 ) ) ;
#112 = AXIS2_PLACEMENT_3D ( 'NONE', #38, #145, #253 ) ;
#113 = LENGTH_MEASURE_WITH_UNIT ( LENGTH_MEASURE( 0.02539999999999999897 ), #190 );
#114 = AXIS2_PLACEMENT_3D ( 'NONE', #187, #133, #160 ) ;
#115 = ORIENTED_EDGE ( 'NONE', *, *, #283, .T. ) ;
#116 = DIRECTION ( 'NONE',  ( -0.0000000000000000000, -0.0000000000000000000, -1.000000000000000000 ) ) ;
#117 = ORIENTED_EDGE ( 'NONE', *, *, #7, .T. ) ;
#118 = EDGE_LOOP ( 'NONE', ( #195, #252, #307, #303 ) ) ;
#119 = DIRECTION ( 'NONE',  ( 1.000000000000000000, 0.0000000000000000000, -0.0000000000000000000 ) ) ;
#120 = AXIS2_PLACEMENT_3D ( 'NONE', #1, #348, #347 ) ;
#121 = ORIENTED_EDGE ( 'NONE', *, *, #256, .T. ) ;
#122 = CARTESIAN_POINT ( 'NONE',  ( 0.0000000000000000000, 0.0000000000000000000, 1.000000000000000000 ) ) ;
#123 = AXIS2_PLACEMENT_3D ( 'NONE', #107, #25, #209 ) ;
#124 = FILL_AREA_STYLE_COLOUR ( '', #269 ) ;
#125 = DIRECTION ( 'NONE',  ( -1.000000000000000000, 0.0000000000000000000, 0.0000000000000000000 ) ) ;
#126 = CARTESIAN_POINT ( 'NONE',  ( 0.0000000000000000000, 0.0000000000000000000, 1.000000000000000000 ) ) ;
#127 = LINE ( 'NONE', #312, #24 ) ;
#128 = EDGE_CURVE ( 'NONE', #169, #39, #236, .T. ) ;
#129 = CLOSED_SHELL ( 'NONE', ( #282, #262, #101, #8, #191, #216, #266, #162, #69, #179, #18, #306 ) ) ;
#130 =( GEOMETRIC_REPRESENTATION_CONTEXT ( 3 ) GLOBAL_UNCERTAINTY_ASSIGNED_CONTEXT ( ( #177 ) ) GLOBAL_UNIT_ASSIGNED_CONTEXT ( ( #148, #336, #289 ) ) REPRESENTATION_CONTEXT ( 'NONE', 'WORKASPACE' ) );
#131 = DIRECTION ( 'NONE',  ( -0.0000000000000000000, -0.0000000000000000000, -1.000000000000000000 ) ) ;
#132 = ADVANCED_BREP_SHAPE_REPRESENTATION ( 'Micro_SPD-500-082', ( #288, #89 ), #130 ) ;
#133 = DIRECTION ( 'NONE',  ( 0.0000000000000000000, 0.0000000000000000000, -1.000000000000000000 ) ) ;
#134 = CARTESIAN_POINT ( 'NONE',  ( -0.03749999999999999861, 4.592425496802573602E-18, 0.0000000000000000000 ) ) ;
#135 = DIRECTION ( 'NONE',  ( 0.7071067811865330288, 8.659560562354755364E-17, -0.7071067811865618946 ) ) ;
#136 = CARTESIAN_POINT ( 'NONE',  ( 0.2350000000000003753, 2.877919977996284141E-17, 2.500000000000000000 ) ) ;
#137 = VERTEX_POINT ( 'NONE', #48 ) ;
#138 = CONICAL_SURFACE ( 'NONE', #108, 0.03749999999999999861, 0.7155849933176771094 ) ;
#139 = CARTESIAN_POINT ( 'NONE',  ( 0.2500000000000000000, 3.061616997868383018E-17, 2.500000000000000000 ) ) ;
#140 = STYLED_ITEM ( 'NONE', ( #304 ), #288 ) ;
#141 = CARTESIAN_POINT ( 'NONE',  ( 0.0000000000000000000, 0.0000000000000000000, 0.0000000000000000000 ) ) ;
#142 =( NAMED_UNIT ( * ) SI_UNIT ( $, .STERADIAN. ) SOLID_ANGLE_UNIT ( ) );
#143 = FILL_AREA_STYLE ('',( #331 ) ) ;
#144 = AXIS2_PLACEMENT_3D ( 'NONE', #73, #16, #125 ) ;
#145 = DIRECTION ( 'NONE',  ( 0.0000000000000000000, 0.0000000000000000000, -1.000000000000000000 ) ) ;
#146 = EDGE_CURVE ( 'NONE', #62, #137, #240, .T. ) ;
#147 = ORIENTED_EDGE ( 'NONE', *, *, #79, .F. ) ;
#148 =( CONVERSION_BASED_UNIT ( 'INCH', #225 ) LENGTH_UNIT ( ) NAMED_UNIT ( #316 ) );
#149 = DIRECTION ( 'NONE',  ( 0.0000000000000000000, 0.0000000000000000000, 1.000000000000000000 ) ) ;
#150 = ORIENTED_EDGE ( 'NONE', *, *, #220, .F. ) ;
#151 = DIRECTION ( 'NONE',  ( -0.0000000000000000000, -0.0000000000000000000, -1.000000000000000000 ) ) ;
#152 = CYLINDRICAL_SURFACE ( 'NONE', #123, 0.2499500000000000888 ) ;
#153 = AXIS2_PLACEMENT_3D ( 'NONE', #81, #9, #5 ) ;
#154 = DIRECTION ( 'NONE',  ( 0.6560590289905088301, 0.0000000000000000000, 0.7547095802227706818 ) ) ;
#155 = EDGE_CURVE ( 'NONE', #341, #88, #298, .T. ) ;
#156 = FACE_OUTER_BOUND ( 'NONE', #224, .T. ) ;
#157 = DIRECTION ( 'NONE',  ( 0.0000000000000000000, 0.0000000000000000000, -1.000000000000000000 ) ) ;
#158 = VECTOR ( 'NONE', #109, 39.37007874015748143 ) ;
#159 = CIRCLE ( 'NONE', #328, 0.2500000000000000000 ) ;
#160 = DIRECTION ( 'NONE',  ( 1.000000000000000000, 0.0000000000000000000, 0.0000000000000000000 ) ) ;
#161 = DIRECTION ( 'NONE',  ( -1.000000000000000000, 0.0000000000000000000, 0.0000000000000000000 ) ) ;
#162 = ADVANCED_FACE ( 'NONE', ( #241 ), #230, .T. ) ;
#163 = ORIENTED_EDGE ( 'NONE', *, *, #79, .T. ) ;
#164 = DIRECTION ( 'NONE',  ( -0.7071067811865490160, 8.659560562354951347E-17, 0.7071067811865460184 ) ) ;
#165 = CONICAL_SURFACE ( 'NONE', #278, 0.2499500000000001165, 0.7853981633974503884 ) ;
#166 = FACE_OUTER_BOUND ( 'NONE', #178, .T. ) ;
#167 = EDGE_LOOP ( 'NONE', ( #204, #121, #93, #147 ) ) ;
#168 = DIRECTION ( 'NONE',  ( -0.0000000000000000000, -0.0000000000000000000, -1.000000000000000000 ) ) ;
#169 = VERTEX_POINT ( 'NONE', #319 ) ;
#170 = DIRECTION ( 'NONE',  ( -1.000000000000000000, 0.0000000000000000000, 0.0000000000000000000 ) ) ;
#171 = ORIENTED_EDGE ( 'NONE', *, *, #189, .F. ) ;
#172 = VECTOR ( 'NONE', #154, 39.37007874015748143 ) ;
#173 = CARTESIAN_POINT ( 'NONE',  ( 0.0000000000000000000, 0.0000000000000000000, 0.0000000000000000000 ) ) ;
#174 = CIRCLE ( 'NONE', #247, 0.2499500000000000333 ) ;
#175 = APPLICATION_PROTOCOL_DEFINITION ( 'draft international standard', 'automotive_design', 1998, #210 ) ;
#176 = DIRECTION ( 'NONE',  ( 0.0000000000000000000, 0.0000000000000000000, -1.000000000000000000 ) ) ;
#177 = UNCERTAINTY_MEASURE_WITH_UNIT (LENGTH_MEASURE( 1.000000000000000082E-05 ), #148, 'distance_accuracy_value', 'NONE');
#178 = EDGE_LOOP ( 'NONE', ( #42, #287 ) ) ;
#179 = ADVANCED_FACE ( 'NONE', ( #211 ), #152, .T. ) ;
#180 = SURFACE_SIDE_STYLE ('',( #203 ) ) ;
#181 = CARTESIAN_POINT ( 'NONE',  ( 0.0000000000000000000, 0.0000000000000000000, 2.500000000000000000 ) ) ;
#182 = CARTESIAN_POINT ( 'NONE',  ( -0.2350000000000003753, 0.0000000000000000000, 2.500000000000000000 ) ) ;
#183 = DIRECTION ( 'NONE',  ( 1.000000000000000000, 0.0000000000000000000, 0.0000000000000000000 ) ) ;
#184 = CONICAL_SURFACE ( 'NONE', #40, 0.2350000000000003753, 0.7853981633974278509 ) ;
#185 = CARTESIAN_POINT ( 'NONE',  ( 0.2500000000000000000, 3.061616997868383018E-17, 2.484999999999999876 ) ) ;
#186 = DIRECTION ( 'NONE',  ( 0.0000000000000000000, 0.0000000000000000000, 1.000000000000000000 ) ) ;
#187 = CARTESIAN_POINT ( 'NONE',  ( 0.0000000000000000000, 0.0000000000000000000, 2.484999999999999876 ) ) ;
#188 = AXIS2_PLACEMENT_3D ( 'NONE', #55, #30, #161 ) ;
#189 = EDGE_CURVE ( 'NONE', #39, #34, #324, .T. ) ;
#190 =( LENGTH_UNIT ( ) NAMED_UNIT ( * ) SI_UNIT ( $, .METRE. ) );
#191 = ADVANCED_FACE ( 'NONE', ( #156 ), #321, .T. ) ;
#192 = CIRCLE ( 'NONE', #144, 0.03749999999999999861 ) ;
#193 = AXIS2_PLACEMENT_3D ( 'NONE', #296, #53, #51 ) ;
#194 = SURFACE_STYLE_FILL_AREA ( #143 ) ;
#195 = ORIENTED_EDGE ( 'NONE', *, *, #257, .F. ) ;
#196 = EDGE_LOOP ( 'NONE', ( #221, #36, #314, #277 ) ) ;
#197 = LINE ( 'NONE', #265, #172 ) ;
#198 =( CONVERSION_BASED_UNIT ( 'INCH', #96 ) LENGTH_UNIT ( ) NAMED_UNIT ( #104 ) );
#199 = ORIENTED_EDGE ( 'NONE', *, *, #239, .F. ) ;
#200 = CARTESIAN_POINT ( 'NONE',  ( 0.0000000000000000000, 0.0000000000000000000, 0.0000000000000000000 ) ) ;
#201 = CARTESIAN_POINT ( 'NONE',  ( -0.03749999999999999861, 1.760123612074533598E-17, 0.0000000000000000000 ) ) ;
#202 = UNCERTAINTY_MEASURE_WITH_UNIT (LENGTH_MEASURE( 1.000000000000000082E-05 ), #56, 'distance_accuracy_value', 'NONE');
#203 = SURFACE_STYLE_FILL_AREA ( #280 ) ;
#204 = ORIENTED_EDGE ( 'NONE', *, *, #50, .F. ) ;
#205 = VECTOR ( 'NONE', #135, 39.37007874015748854 ) ;
#206 = DIRECTION ( 'NONE',  ( -0.6560590289905088301, 8.034405899049472288E-17, 0.7547095802227706818 ) ) ;
#207 = CARTESIAN_POINT ( 'NONE',  ( 0.0000000000000000000, 0.0000000000000000000, 2.500000000000000000 ) ) ;
#208 = CARTESIAN_POINT ( 'NONE',  ( -0.2500000000000000000, 0.0000000000000000000, 1.000049999999999883 ) ) ;
#209 = DIRECTION ( 'NONE',  ( -1.000000000000000000, 0.0000000000000000000, 0.0000000000000000000 ) ) ;
#210 = APPLICATION_CONTEXT ( 'automotive_design' ) ;
#211 = FACE_OUTER_BOUND ( 'NONE', #346, .T. ) ;
#212 = CARTESIAN_POINT ( 'NONE',  ( 0.2500000000000000000, 3.061616997868383018E-17, 1.000049999999999883 ) ) ;
#213 = CARTESIAN_POINT ( 'NONE',  ( 0.2499500000000001165, 0.0000000000000000000, 1.000000000000000000 ) ) ;
#214 = ORIENTED_EDGE ( 'NONE', *, *, #189, .T. ) ;
#215 = EDGE_CURVE ( 'NONE', #337, #271, #77, .T. ) ;
#216 = ADVANCED_FACE ( 'NONE', ( #238 ), #80, .T. ) ;
#217 = DIRECTION ( 'NONE',  ( 1.000000000000000000, 0.0000000000000000000, 0.0000000000000000000 ) ) ;
#218 = EDGE_LOOP ( 'NONE', ( #10, #330, #163, #273 ) ) ;
#219 = LINE ( 'NONE', #86, #317 ) ;
#220 = EDGE_CURVE ( 'NONE', #88, #341, #159, .T. ) ;
#221 = ORIENTED_EDGE ( 'NONE', *, *, #58, .T. ) ;
#222 = CIRCLE ( 'NONE', #264, 0.2499500000000001165 ) ;
#223 = CARTESIAN_POINT ( 'NONE',  ( 0.0000000000000000000, 0.0000000000000000000, 0.2443957681141024907 ) ) ;
#224 = EDGE_LOOP ( 'NONE', ( #274, #60, #150, #231 ) ) ;
#225 = LENGTH_MEASURE_WITH_UNIT ( LENGTH_MEASURE( 0.02539999999999999897 ), #61 );
#226 = EDGE_CURVE ( 'NONE', #39, #169, #237, .T. ) ;
#227 =( NAMED_UNIT ( * ) SI_UNIT ( $, .STERADIAN. ) SOLID_ANGLE_UNIT ( ) );
#228 = DIRECTION ( 'NONE',  ( 0.0000000000000000000, 0.0000000000000000000, 1.000000000000000000 ) ) ;
#229 = PRESENTATION_STYLE_ASSIGNMENT (( #232 ) ) ;
#230 = CONICAL_SURFACE ( 'NONE', #76, 0.2350000000000003753, 0.7853981633974278509 ) ;
#231 = ORIENTED_EDGE ( 'NONE', *, *, #22, .F. ) ;
#232 = SURFACE_STYLE_USAGE ( .BOTH. , #180 ) ;
#233 = FACE_OUTER_BOUND ( 'NONE', #218, .T. ) ;
#234 = EDGE_LOOP ( 'NONE', ( #250, #97, #318, #259 ) ) ;
#235 = DIRECTION ( 'NONE',  ( -1.000000000000000000, 0.0000000000000000000, 0.0000000000000000000 ) ) ;
#236 = CIRCLE ( 'NONE', #32, 0.2350000000000003753 ) ;
#237 = CIRCLE ( 'NONE', #340, 0.2350000000000003753 ) ;
#238 = FACE_OUTER_BOUND ( 'NONE', #118, .T. ) ;
#239 = EDGE_CURVE ( 'NONE', #169, #255, #267, .T. ) ;
#240 = LINE ( 'NONE', #243, #158 ) ;
#241 = FACE_OUTER_BOUND ( 'NONE', #91, .T. ) ;
#242 = AXIS2_PLACEMENT_3D ( 'NONE', #141, #2, #217 ) ;
#243 = CARTESIAN_POINT ( 'NONE',  ( -0.2499500000000000888, 0.0000000000000000000, 0.0000000000000000000 ) ) ;
#244 = CARTESIAN_POINT ( 'NONE',  ( 0.0000000000000000000, 0.0000000000000000000, 2.500000000000000000 ) ) ;
#245 = FACE_OUTER_BOUND ( 'NONE', #196, .T. ) ;
#246 = CONICAL_SURFACE ( 'NONE', #120, 0.2499500000000001165, 0.7853981633974503884 ) ;
#247 = AXIS2_PLACEMENT_3D ( 'NONE', #223, #59, #170 ) ;
#248 = PLANE ( 'NONE',  #153 ) ;
#249 = ORIENTED_EDGE ( 'NONE', *, *, #128, .F. ) ;
#250 = ORIENTED_EDGE ( 'NONE', *, *, #58, .F. ) ;
#251 = AXIS2_PLACEMENT_3D ( 'NONE', #326, #168, #90 ) ;
#252 = ORIENTED_EDGE ( 'NONE', *, *, #254, .T. ) ;
#253 = DIRECTION ( 'NONE',  ( 1.000000000000000000, 0.0000000000000000000, 0.0000000000000000000 ) ) ;
#254 = EDGE_CURVE ( 'NONE', #255, #34, #72, .T. ) ;
#255 = VERTEX_POINT ( 'NONE', #185 ) ;
#256 = EDGE_CURVE ( 'NONE', #19, #137, #103, .T. ) ;
#257 = EDGE_CURVE ( 'NONE', #255, #341, #74, .T. ) ;
#258 = VECTOR ( 'NONE', #292, 39.37007874015748854 ) ;
#259 = ORIENTED_EDGE ( 'NONE', *, *, #283, .F. ) ;
#260 = DIRECTION ( 'NONE',  ( -1.000000000000000000, 0.0000000000000000000, 0.0000000000000000000 ) ) ;
#261 = DIRECTION ( 'NONE',  ( -0.0000000000000000000, -0.0000000000000000000, -1.000000000000000000 ) ) ;
#262 = ADVANCED_FACE ( 'NONE', ( #245 ), #3, .T. ) ;
#263 = CARTESIAN_POINT ( 'NONE',  ( 0.2499500000000000888, 3.061004674468810760E-17, 0.0000000000000000000 ) ) ;
#264 = AXIS2_PLACEMENT_3D ( 'NONE', #310, #151, #260 ) ;
#265 = CARTESIAN_POINT ( 'NONE',  ( 0.03749999999999999861, 0.0000000000000000000, 0.0000000000000000000 ) ) ;
#266 = ADVANCED_FACE ( 'NONE', ( #166 ), #248, .T. ) ;
#267 = LINE ( 'NONE', #136, #205 ) ;
#268 = CIRCLE ( 'NONE', #112, 0.2500000000000000000 ) ;
#269 = COLOUR_RGB ( '',0.7921568627450980005, 0.8196078431372548767, 0.9333333333333333481 ) ;
#270 = FACE_OUTER_BOUND ( 'NONE', #234, .T. ) ;
#271 = VERTEX_POINT ( 'NONE', #275 ) ;
#272 = PLANE ( 'NONE',  #64 ) ;
#273 = ORIENTED_EDGE ( 'NONE', *, *, #323, .T. ) ;
#274 = ORIENTED_EDGE ( 'NONE', *, *, #66, .T. ) ;
#275 = CARTESIAN_POINT ( 'NONE',  ( 0.2499500000000000333, 3.061004674468810144E-17, 0.2443957681141024907 ) ) ;
#276 = CARTESIAN_POINT ( 'NONE',  ( 0.2499500000000001165, 0.0000000000000000000, 1.000000000000000000 ) ) ;
#277 = ORIENTED_EDGE ( 'NONE', *, *, #146, .F. ) ;
#278 = AXIS2_PLACEMENT_3D ( 'NONE', #122, #228, #338 ) ;
#279 = CARTESIAN_POINT ( 'NONE',  ( -0.2499500000000001165, 3.061310836168596889E-17, 1.000000000000000000 ) ) ;
#280 = FILL_AREA_STYLE ('',( #124 ) ) ;
#281 = DIRECTION ( 'NONE',  ( -0.0000000000000000000, -0.0000000000000000000, -1.000000000000000000 ) ) ;
#282 = ADVANCED_FACE ( 'NONE', ( #35 ), #333, .T. ) ;
#283 = EDGE_CURVE ( 'NONE', #337, #341, #300, .T. ) ;
#284 =( LENGTH_UNIT ( ) NAMED_UNIT ( * ) SI_UNIT ( $, .METRE. ) );
#285 = ORIENTED_EDGE ( 'NONE', *, *, #239, .T. ) ;
#286 = PRODUCT_DEFINITION_FORMATION_WITH_SPECIFIED_SOURCE ( 'ANY', '', #106, .NOT_KNOWN. ) ;
#287 = ORIENTED_EDGE ( 'NONE', *, *, #128, .T. ) ;
#288 = MANIFOLD_SOLID_BREP ( 'Cut-Revolve2', #129 ) ;
#289 =( NAMED_UNIT ( * ) SI_UNIT ( $, .STERADIAN. ) SOLID_ANGLE_UNIT ( ) );
#290 = DIRECTION ( 'NONE',  ( -1.000000000000000000, 0.0000000000000000000, 0.0000000000000000000 ) ) ;
#291 = CARTESIAN_POINT ( 'NONE',  ( 0.0000000000000000000, 0.0000000000000000000, 1.000049999999999883 ) ) ;
#292 = DIRECTION ( 'NONE',  ( -0.7071067811865330288, 0.0000000000000000000, -0.7071067811865618946 ) ) ;
#293 =( GEOMETRIC_REPRESENTATION_CONTEXT ( 3 ) GLOBAL_UNCERTAINTY_ASSIGNED_CONTEXT ( ( #339 ) ) GLOBAL_UNIT_ASSIGNED_CONTEXT ( ( #198, #311, #227 ) ) REPRESENTATION_CONTEXT ( 'NONE', 'WORKASPACE' ) );
#294 = CARTESIAN_POINT ( 'NONE',  ( 0.03749999999999999861, 0.0000000000000000000, 0.0000000000000000000 ) ) ;
#295 = EDGE_CURVE ( 'NONE', #62, #88, #219, .T. ) ;
#296 = CARTESIAN_POINT ( 'NONE',  ( 0.0000000000000000000, 0.0000000000000000000, 2.500000000000000000 ) ) ;
#297 = DIRECTION ( 'NONE',  ( 1.000000000000000000, 0.0000000000000000000, 0.0000000000000000000 ) ) ;
#298 = CIRCLE ( 'NONE', #12, 0.2500000000000000000 ) ;
#299 = CIRCLE ( 'NONE', #188, 0.2499500000000000333 ) ;
#300 = LINE ( 'NONE', #213, #82 ) ;
#301 = ORIENTED_EDGE ( 'NONE', *, *, #50, .T. ) ;
#302 = DIRECTION ( 'NONE',  ( 0.0000000000000000000, 0.0000000000000000000, 1.000000000000000000 ) ) ;
#303 = ORIENTED_EDGE ( 'NONE', *, *, #155, .F. ) ;
#304 = PRESENTATION_STYLE_ASSIGNMENT (( #329 ) ) ;
#305 = AXIS2_PLACEMENT_3D ( 'NONE', #207, #131, #23 ) ;
#306 = ADVANCED_FACE ( 'NONE', ( #57 ), #272, .F. ) ;
#307 = ORIENTED_EDGE ( 'NONE', *, *, #22, .T. ) ;
#308 = PRODUCT_RELATED_PRODUCT_CATEGORY ( 'part', '', ( #106 ) ) ;
#309 = EDGE_LOOP ( 'NONE', ( #332, #70, #115, #15 ) ) ;
#310 = CARTESIAN_POINT ( 'NONE',  ( 0.0000000000000000000, 0.0000000000000000000, 1.000000000000000000 ) ) ;
#311 =( NAMED_UNIT ( * ) PLANE_ANGLE_UNIT ( ) SI_UNIT ( $, .RADIAN. ) );
#312 = CARTESIAN_POINT ( 'NONE',  ( -0.2500000000000000000, 0.0000000000000000000, 2.500000000000000000 ) ) ;
#313 = DIRECTION ( 'NONE',  ( 1.000000000000000000, 0.0000000000000000000, 0.0000000000000000000 ) ) ;
#314 = ORIENTED_EDGE ( 'NONE', *, *, #344, .F. ) ;
#315 = CARTESIAN_POINT ( 'NONE',  ( -0.2350000000000003753, 0.0000000000000000000, 2.500000000000000000 ) ) ;
#316 = DIMENSIONAL_EXPONENTS ( 1.000000000000000000, 0.0000000000000000000, 0.0000000000000000000, 0.0000000000000000000, 0.0000000000000000000, 0.0000000000000000000, 0.0000000000000000000 ) ;
#317 = VECTOR ( 'NONE', #164, 39.37007874015748143 ) ;
#318 = ORIENTED_EDGE ( 'NONE', *, *, #220, .T. ) ;
#319 = CARTESIAN_POINT ( 'NONE',  ( 0.2350000000000003753, 2.969768487932332963E-17, 2.500000000000000000 ) ) ;
#320 = DIRECTION ( 'NONE',  ( 1.000000000000000000, 0.0000000000000000000, 0.0000000000000000000 ) ) ;
#321 = CYLINDRICAL_SURFACE ( 'NONE', #305, 0.2500000000000000000 ) ;
#322 = AXIS2_PLACEMENT_3D ( 'NONE', #173, #281, #235 ) ;
#323 = EDGE_CURVE ( 'NONE', #271, #137, #174, .T. ) ;
#324 = LINE ( 'NONE', #182, #258 ) ;
#325 = DIRECTION ( 'NONE',  ( 1.000000000000000000, 0.0000000000000000000, 0.0000000000000000000 ) ) ;
#326 = CARTESIAN_POINT ( 'NONE',  ( 0.0000000000000000000, 0.0000000000000000000, 0.0000000000000000000 ) ) ;
#327 = VECTOR ( 'NONE', #27, 39.37007874015748143 ) ;
#328 = AXIS2_PLACEMENT_3D ( 'NONE', #21, #105, #320 ) ;
#329 = SURFACE_STYLE_USAGE ( .BOTH. , #85 ) ;
#330 = ORIENTED_EDGE ( 'NONE', *, *, #7, .F. ) ;
#331 = FILL_AREA_STYLE_COLOUR ( '', #349 ) ;
#332 = ORIENTED_EDGE ( 'NONE', *, *, #295, .F. ) ;
#333 = CONICAL_SURFACE ( 'NONE', #242, 0.03749999999999999861, 0.7155849933176771094 ) ;
#334 = EDGE_LOOP ( 'NONE', ( #249, #285, #31, #171 ) ) ;
#335 = PRODUCT_DEFINITION_CONTEXT ( 'detailed design', #210, 'design' ) ;
#336 =( NAMED_UNIT ( * ) PLANE_ANGLE_UNIT ( ) SI_UNIT ( $, .RADIAN. ) );
#337 = VERTEX_POINT ( 'NONE', #276 ) ;
#338 = DIRECTION ( 'NONE',  ( 1.000000000000000000, 0.0000000000000000000, 0.0000000000000000000 ) ) ;
#339 = UNCERTAINTY_MEASURE_WITH_UNIT (LENGTH_MEASURE( 1.000000000000000082E-05 ), #198, 'distance_accuracy_value', 'NONE');
#340 = AXIS2_PLACEMENT_3D ( 'NONE', #244, #75, #183 ) ;
#341 = VERTEX_POINT ( 'NONE', #212 ) ;
#342 = CARTESIAN_POINT ( 'NONE',  ( 0.0000000000000000000, 0.0000000000000000000, 0.0000000000000000000 ) ) ;
#343 = ORIENTED_EDGE ( 'NONE', *, *, #146, .T. ) ;
#344 = EDGE_CURVE ( 'NONE', #137, #271, #299, .T. ) ;
#345 = DIMENSIONAL_EXPONENTS ( 1.000000000000000000, 0.0000000000000000000, 0.0000000000000000000, 0.0000000000000000000, 0.0000000000000000000, 0.0000000000000000000, 0.0000000000000000000 ) ;
#346 = EDGE_LOOP ( 'NONE', ( #11, #84, #343, #6 ) ) ;
#347 = DIRECTION ( 'NONE',  ( 1.000000000000000000, 0.0000000000000000000, 0.0000000000000000000 ) ) ;
#348 = DIRECTION ( 'NONE',  ( 0.0000000000000000000, 0.0000000000000000000, 1.000000000000000000 ) ) ;
#349 = COLOUR_RGB ( '',0.7921568627450980005, 0.8196078431372548767, 0.9333333333333333481 ) ;
ENDSEC;
END-ISO-10303-21;
