ISO-10303-21;
HEADER;
FILE_DESCRIPTION (( 'STEP AP214' ),
    '1' );
FILE_NAME ('Micro_AEMM-015-2.STEP',
    '2022-03-15T14:22:39',
    ( '' ),
    ( '' ),
    'SwSTEP 2.0',
    'SolidWorks 2022',
    '' );
FILE_SCHEMA (( 'AUTOMOTIVE_DESIGN' ));
ENDSEC;

DATA;
#1 = ORIENTED_EDGE ( 'NONE', *, *, #152, .F. ) ;
#2 = DIRECTION ( 'NONE',  ( -1.000000000000000000, 0.000000000000000000, 0.000000000000000000 ) ) ;
#3 = AXIS2_PLACEMENT_3D ( 'NONE', #220, #144, #2 ) ;
#4 = SURFACE_SIDE_STYLE ('',( #238 ) ) ;
#5 = MECHANICAL_DESIGN_GEOMETRIC_PRESENTATION_REPRESENTATION (  '', ( #134 ), #91 ) ;
#6 = DIRECTION ( 'NONE',  ( 1.000000000000000000, 0.000000000000000000, 0.000000000000000000 ) ) ;
#7 = DIRECTION ( 'NONE',  ( -1.224646799147353207E-16, -0.000000000000000000, -1.000000000000000000 ) ) ;
#8 = CARTESIAN_POINT ( 'NONE',  ( 1.928573779297251702E-17, 0.000000000000000000, 0.1574800000000000089 ) ) ;
#9 = AXIS2_PLACEMENT_3D ( 'NONE', #73, #97, #6 ) ;
#10 = CARTESIAN_POINT ( 'NONE',  ( 0.000000000000000000, 0.000000000000000000, 1.968503999999999809 ) ) ;
#11 = DIRECTION ( 'NONE',  ( -1.000000000000000000, 0.000000000000000000, 0.000000000000000000 ) ) ;
#12 = FACE_OUTER_BOUND ( 'NONE', #111, .T. ) ;
#13 = CONICAL_SURFACE ( 'NONE', #50, 0.06374000000000018540, 0.7853981633974522758 ) ;
#14 = DIRECTION ( 'NONE',  ( 0.000000000000000000, 0.000000000000000000, -1.000000000000000000 ) ) ;
#15 = ADVANCED_FACE ( 'NONE', ( #191 ), #76, .T. ) ;
#16 = DIRECTION ( 'NONE',  ( -0.000000000000000000, -0.000000000000000000, -1.000000000000000000 ) ) ;
#17 = CIRCLE ( 'NONE', #264, 0.06374000000000018540 ) ;
#18 = PRODUCT_DEFINITION ( 'UNKNOWN', '', #82, #95 ) ;
#19 = AXIS2_PLACEMENT_3D ( 'NONE', #84, #248, #197 ) ;
#20 = FILL_AREA_STYLE ('',( #274 ) ) ;
#21 = EDGE_LOOP ( 'NONE', ( #296, #70, #135, #295 ) ) ;
#22 = VERTEX_POINT ( 'NONE', #282 ) ;
#23 = VERTEX_POINT ( 'NONE', #27 ) ;
#24 = CIRCLE ( 'NONE', #190, 0.02949797250000000398 ) ;
#25 = ORIENTED_EDGE ( 'NONE', *, *, #142, .T. ) ;
#26 = DIRECTION ( 'NONE',  ( 1.000000000000000000, 0.000000000000000000, 0.000000000000000000 ) ) ;
#27 = CARTESIAN_POINT ( 'NONE',  ( -0.02949797250000000398, 0.000000000000000000, 7.224919520692329689E-18 ) ) ;
#28 = CARTESIAN_POINT ( 'NONE',  ( 0.000000000000000000, 0.000000000000000000, 1.968503999999999809 ) ) ;
#29 = VECTOR ( 'NONE', #112, 39.37007874015748143 ) ;
#30 = DIRECTION ( 'NONE',  ( 0.000000000000000000, 0.000000000000000000, 1.000000000000000000 ) ) ;
#31 = CARTESIAN_POINT ( 'NONE',  ( 5.348588749162019150E-17, 0.000000000000000000, 0.4367454153218638391 ) ) ;
#32 = LINE ( 'NONE', #223, #291 ) ;
#33 = AXIS2_PLACEMENT_3D ( 'NONE', #199, #127, #11 ) ;
#34 = CARTESIAN_POINT ( 'NONE',  ( 0.06374000000000018540, 8.724383797125754882E-18, 1.968503999999999809 ) ) ;
#35 = EDGE_CURVE ( 'NONE', #161, #133, #278, .T. ) ;
#36 = DIRECTION ( 'NONE',  ( -1.000000000000000000, 0.000000000000000000, 1.224646799147352961E-16 ) ) ;
#37 = VECTOR ( 'NONE', #217, 39.37007874015748854 ) ;
#38 = DIRECTION ( 'NONE',  ( -1.000000000000000000, 0.000000000000000000, 1.224646799147353207E-16 ) ) ;
#39 = LINE ( 'NONE', #204, #29 ) ;
#40 = EDGE_LOOP ( 'NONE', ( #66, #188, #90, #273 ) ) ;
#41 = EDGE_CURVE ( 'NONE', #156, #276, #17, .T. ) ;
#42 = DIRECTION ( 'NONE',  ( 1.000000000000000000, 0.000000000000000000, 0.000000000000000000 ) ) ;
#43 = ORIENTED_EDGE ( 'NONE', *, *, #169, .F. ) ;
#44 = EDGE_LOOP ( 'NONE', ( #184, #113, #214, #131 ) ) ;
#45 = SURFACE_STYLE_USAGE ( .BOTH. , #67 ) ;
#46 = ORIENTED_EDGE ( 'NONE', *, *, #290, .F. ) ;
#47 = ADVANCED_FACE ( 'NONE', ( #280 ), #241, .T. ) ;
#48 = LENGTH_MEASURE_WITH_UNIT ( LENGTH_MEASURE( 0.02539999999999999897 ), #271 );
#49 = VERTEX_POINT ( 'NONE', #279 ) ;
#50 = AXIS2_PLACEMENT_3D ( 'NONE', #80, #103, #246 ) ;
#51 = FILL_AREA_STYLE_COLOUR ( '', #283 ) ;
#52 = CARTESIAN_POINT ( 'NONE',  ( 1.928573779297251702E-17, 0.000000000000000000, 0.1574800000000000089 ) ) ;
#53 =( NAMED_UNIT ( * ) PLANE_ANGLE_UNIT ( ) SI_UNIT ( $, .RADIAN. ) );
#54 = CIRCLE ( 'NONE', #149, 0.02949797249999999010 ) ;
#55 = CARTESIAN_POINT ( 'NONE',  ( 0.000000000000000000, 0.000000000000000000, 1.968503999999999809 ) ) ;
#56 = DIRECTION ( 'NONE',  ( -1.000000000000000000, 0.000000000000000000, 0.000000000000000000 ) ) ;
#57 = CARTESIAN_POINT ( 'NONE',  ( 4.423987282556545948E-34, 0.000000000000000000, 3.612459760346164844E-18 ) ) ;
#58 = VECTOR ( 'NONE', #79, 39.37007874015748143 ) ;
#59 = FACE_OUTER_BOUND ( 'NONE', #21, .T. ) ;
#60 = EDGE_CURVE ( 'NONE', #49, #187, #172, .T. ) ;
#61 = CARTESIAN_POINT ( 'NONE',  ( -0.07873999999999994892, 0.000000000000000000, 0.4367454153218638391 ) ) ;
#62 = DIRECTION ( 'NONE',  ( -1.000000000000000000, 0.000000000000000000, 1.224646799147353207E-16 ) ) ;
#63 = CIRCLE ( 'NONE', #235, 0.02949797249999999010 ) ;
#64 = CARTESIAN_POINT ( 'NONE',  ( 0.000000000000000000, 0.000000000000000000, 0.000000000000000000 ) ) ;
#65 = ORIENTED_EDGE ( 'NONE', *, *, #203, .F. ) ;
#66 = ORIENTED_EDGE ( 'NONE', *, *, #72, .F. ) ;
#67 = SURFACE_SIDE_STYLE ('',( #155 ) ) ;
#68 = ORIENTED_EDGE ( 'NONE', *, *, #200, .T. ) ;
#69 =( LENGTH_UNIT ( ) NAMED_UNIT ( * ) SI_UNIT ( $, .METRE. ) );
#70 = ORIENTED_EDGE ( 'NONE', *, *, #225, .T. ) ;
#71 = CARTESIAN_POINT ( 'NONE',  ( 4.423987282556545948E-34, 0.000000000000000000, 3.612459760346164844E-18 ) ) ;
#72 = EDGE_CURVE ( 'NONE', #156, #22, #118, .T. ) ;
#73 = CARTESIAN_POINT ( 'NONE',  ( 0.000000000000000000, 0.000000000000000000, 1.968503999999999809 ) ) ;
#74 = FACE_OUTER_BOUND ( 'NONE', #209, .T. ) ;
#75 = LENGTH_MEASURE_WITH_UNIT ( LENGTH_MEASURE( 0.02539999999999999897 ), #239 );
#76 = PLANE ( 'NONE',  #150 ) ;
#77 = MECHANICAL_DESIGN_GEOMETRIC_PRESENTATION_REPRESENTATION (  '', ( #213 ), #114 ) ;
#78 =( NAMED_UNIT ( * ) SI_UNIT ( $, .STERADIAN. ) SOLID_ANGLE_UNIT ( ) );
#79 = DIRECTION ( 'NONE',  ( -0.000000000000000000, -0.000000000000000000, -1.000000000000000000 ) ) ;
#80 = CARTESIAN_POINT ( 'NONE',  ( 0.000000000000000000, 0.000000000000000000, 1.968503999999999809 ) ) ;
#81 = ADVANCED_FACE ( 'NONE', ( #192 ), #298, .T. ) ;
#82 = PRODUCT_DEFINITION_FORMATION_WITH_SPECIFIED_SOURCE ( 'ANY', '', #104, .NOT_KNOWN. ) ;
#83 = DIRECTION ( 'NONE',  ( -1.224646799147353207E-16, -0.000000000000000000, -1.000000000000000000 ) ) ;
#84 = CARTESIAN_POINT ( 'NONE',  ( 0.000000000000000000, 0.000000000000000000, 1.953504000000000129 ) ) ;
#85 = UNCERTAINTY_MEASURE_WITH_UNIT (LENGTH_MEASURE( 1.000000000000000082E-05 ), #136, 'distance_accuracy_value', 'NONE');
#86 = PRESENTATION_LAYER_ASSIGNMENT (  '', '', ( #213 ) ) ;
#87 = APPLICATION_CONTEXT ( 'automotive_design' ) ;
#88 = ORIENTED_EDGE ( 'NONE', *, *, #281, .T. ) ;
#89 = PLANE ( 'NONE',  #227 ) ;
#90 = ORIENTED_EDGE ( 'NONE', *, *, #100, .T. ) ;
#91 =( GEOMETRIC_REPRESENTATION_CONTEXT ( 3 ) GLOBAL_UNCERTAINTY_ASSIGNED_CONTEXT ( ( #85 ) ) GLOBAL_UNIT_ASSIGNED_CONTEXT ( ( #136, #272, #137 ) ) REPRESENTATION_CONTEXT ( 'NONE', 'WORKASPACE' ) );
#92 = DIMENSIONAL_EXPONENTS ( 1.000000000000000000, 0.000000000000000000, 0.000000000000000000, 0.000000000000000000, 0.000000000000000000, 0.000000000000000000, 0.000000000000000000 ) ;
#93 = DIRECTION ( 'NONE',  ( 1.224646799147353207E-16, 0.000000000000000000, 1.000000000000000000 ) ) ;
#94 = LINE ( 'NONE', #258, #162 ) ;
#95 = PRODUCT_DEFINITION_CONTEXT ( 'detailed design', #196, 'design' ) ;
#96 = DIRECTION ( 'NONE',  ( 1.000000000000000000, 0.000000000000000000, 0.000000000000000000 ) ) ;
#97 = DIRECTION ( 'NONE',  ( 0.000000000000000000, 0.000000000000000000, 1.000000000000000000 ) ) ;
#98 = AXIS2_PLACEMENT_3D ( 'NONE', #151, #14, #101 ) ;
#99 = CARTESIAN_POINT ( 'NONE',  ( -0.02949797249999999357, 0.000000000000000000, 3.612459760346164074E-18 ) ) ;
#100 = EDGE_CURVE ( 'NONE', #276, #158, #94, .T. ) ;
#101 = DIRECTION ( 'NONE',  ( 1.000000000000000000, 0.000000000000000000, 0.000000000000000000 ) ) ;
#102 = CARTESIAN_POINT ( 'NONE',  ( 0.000000000000000000, 0.000000000000000000, 0.000000000000000000 ) ) ;
#103 = DIRECTION ( 'NONE',  ( 0.000000000000000000, 0.000000000000000000, -1.000000000000000000 ) ) ;
#104 = PRODUCT ( 'Micro_AEMM-015-2', 'Micro_AEMM-015-2', '', ( #132 ) ) ;
#105 = DIRECTION ( 'NONE',  ( -1.000000000000000000, 0.000000000000000000, 0.000000000000000000 ) ) ;
#106 =( NAMED_UNIT ( * ) PLANE_ANGLE_UNIT ( ) SI_UNIT ( $, .RADIAN. ) );
#107 = CIRCLE ( 'NONE', #19, 0.07874000000000000443 ) ;
#108 = DIRECTION ( 'NONE',  ( -1.224646799147353207E-16, -0.000000000000000000, -1.000000000000000000 ) ) ;
#109 = EDGE_LOOP ( 'NONE', ( #253, #207 ) ) ;
#110 = CARTESIAN_POINT ( 'NONE',  ( 0.000000000000000000, 0.000000000000000000, 0.000000000000000000 ) ) ;
#111 = EDGE_LOOP ( 'NONE', ( #211, #25 ) ) ;
#112 = DIRECTION ( 'NONE',  ( -0.000000000000000000, -0.000000000000000000, -1.000000000000000000 ) ) ;
#113 = ORIENTED_EDGE ( 'NONE', *, *, #294, .T. ) ;
#114 =( GEOMETRIC_REPRESENTATION_CONTEXT ( 3 ) GLOBAL_UNCERTAINTY_ASSIGNED_CONTEXT ( ( #183 ) ) GLOBAL_UNIT_ASSIGNED_CONTEXT ( ( #170, #53, #78 ) ) REPRESENTATION_CONTEXT ( 'NONE', 'WORKASPACE' ) );
#115 = VERTEX_POINT ( 'NONE', #122 ) ;
#116 = DIMENSIONAL_EXPONENTS ( 1.000000000000000000, 0.000000000000000000, 0.000000000000000000, 0.000000000000000000, 0.000000000000000000, 0.000000000000000000, 0.000000000000000000 ) ;
#117 = CARTESIAN_POINT ( 'NONE',  ( 0.06374000000000018540, 7.805898697765251255E-18, 1.968503999999999809 ) ) ;
#118 = LINE ( 'NONE', #117, #37 ) ;
#119 = VECTOR ( 'NONE', #146, 39.37007874015747433 ) ;
#120 = DIRECTION ( 'NONE',  ( 1.000000000000000000, 0.000000000000000000, 0.000000000000000000 ) ) ;
#121 = ADVANCED_FACE ( 'NONE', ( #74 ), #139, .T. ) ;
#122 = CARTESIAN_POINT ( 'NONE',  ( -0.02949797249999996929, 6.627664328416210521E-18, 0.1574800000000000089 ) ) ;
#123 = CARTESIAN_POINT ( 'NONE',  ( 5.348588749162019150E-17, 0.000000000000000000, 0.4367454153218638391 ) ) ;
#124 = EDGE_CURVE ( 'NONE', #276, #156, #193, .T. ) ;
#125 = CARTESIAN_POINT ( 'NONE',  ( 0.02949797250000001092, 0.000000000000000000, 0.1574800000000000089 ) ) ;
#126 = ADVANCED_BREP_SHAPE_REPRESENTATION ( 'Micro_AEMM-015-2', ( #130, #261 ), #205 ) ;
#127 = DIRECTION ( 'NONE',  ( 0.000000000000000000, 0.000000000000000000, -1.000000000000000000 ) ) ;
#128 = DIRECTION ( 'NONE',  ( -1.224646799147353207E-16, -0.000000000000000000, -1.000000000000000000 ) ) ;
#129 = DIRECTION ( 'NONE',  ( -1.224646799147353207E-16, -0.000000000000000000, -1.000000000000000000 ) ) ;
#130 = MANIFOLD_SOLID_BREP ( 'Cut-Revolve1', #206 ) ;
#131 = ORIENTED_EDGE ( 'NONE', *, *, #266, .F. ) ;
#132 = PRODUCT_CONTEXT ( 'NONE', #87, 'mechanical' ) ;
#133 = VERTEX_POINT ( 'NONE', #269 ) ;
#134 = STYLED_ITEM ( 'NONE', ( #157 ), #126 ) ;
#135 = ORIENTED_EDGE ( 'NONE', *, *, #266, .T. ) ;
#136 =( CONVERSION_BASED_UNIT ( 'INCH', #252 ) LENGTH_UNIT ( ) NAMED_UNIT ( #116 ) );
#137 =( NAMED_UNIT ( * ) SI_UNIT ( $, .STERADIAN. ) SOLID_ANGLE_UNIT ( ) );
#138 = EDGE_LOOP ( 'NONE', ( #256, #167, #231, #277 ) ) ;
#139 = CONICAL_SURFACE ( 'NONE', #247, 0.02949797249999999010, 0.1745329251994338915 ) ;
#140 = DIRECTION ( 'NONE',  ( 1.224646799147353207E-16, 0.000000000000000000, 1.000000000000000000 ) ) ;
#141 = FILL_AREA_STYLE ('',( #51 ) ) ;
#142 = EDGE_CURVE ( 'NONE', #133, #23, #154, .T. ) ;
#143 = VECTOR ( 'NONE', #128, 39.37007874015748143 ) ;
#144 = DIRECTION ( 'NONE',  ( -0.000000000000000000, -0.000000000000000000, -1.000000000000000000 ) ) ;
#145 = DIRECTION ( 'NONE',  ( 0.000000000000000000, 0.000000000000000000, 1.000000000000000000 ) ) ;
#146 = DIRECTION ( 'NONE',  ( -0.1736481776669311916, 2.126576849575783316E-17, 0.9848077530122080203 ) ) ;
#147 = ADVANCED_FACE ( 'NONE', ( #265 ), #13, .T. ) ;
#148 = FACE_OUTER_BOUND ( 'NONE', #185, .T. ) ;
#149 = AXIS2_PLACEMENT_3D ( 'NONE', #292, #108, #210 ) ;
#150 = AXIS2_PLACEMENT_3D ( 'NONE', #28, #30, #218 ) ;
#151 = CARTESIAN_POINT ( 'NONE',  ( 0.000000000000000000, 0.000000000000000000, 1.953504000000000129 ) ) ;
#152 = EDGE_CURVE ( 'NONE', #115, #23, #178, .T. ) ;
#153 = CYLINDRICAL_SURFACE ( 'NONE', #222, 0.02949797249999999357 ) ;
#154 = CIRCLE ( 'NONE', #275, 0.02949797250000000398 ) ;
#155 = SURFACE_STYLE_FILL_AREA ( #20 ) ;
#156 = VERTEX_POINT ( 'NONE', #34 ) ;
#157 = PRESENTATION_STYLE_ASSIGNMENT (( #45 ) ) ;
#158 = VERTEX_POINT ( 'NONE', #284 ) ;
#159 = PRODUCT_RELATED_PRODUCT_CATEGORY ( 'part', '', ( #104 ) ) ;
#160 =( CONVERSION_BASED_UNIT ( 'INCH', #48 ) LENGTH_UNIT ( ) NAMED_UNIT ( #92 ) );
#161 = VERTEX_POINT ( 'NONE', #125 ) ;
#162 = VECTOR ( 'NONE', #221, 39.37007874015748854 ) ;
#163 = VECTOR ( 'NONE', #215, 39.37007874015748143 ) ;
#164 = ORIENTED_EDGE ( 'NONE', *, *, #200, .F. ) ;
#165 = ORIENTED_EDGE ( 'NONE', *, *, #60, .T. ) ;
#166 = COLOUR_RGB ( '',0.7921568627450980005, 0.8196078431372548767, 0.9333333333333333481 ) ;
#167 = ORIENTED_EDGE ( 'NONE', *, *, #290, .T. ) ;
#168 = SURFACE_STYLE_USAGE ( .BOTH. , #4 ) ;
#169 = EDGE_CURVE ( 'NONE', #23, #133, #24, .T. ) ;
#170 =( CONVERSION_BASED_UNIT ( 'INCH', #75 ) LENGTH_UNIT ( ) NAMED_UNIT ( #244 ) );
#171 = AXIS2_PLACEMENT_3D ( 'NONE', #52, #93, #189 ) ;
#172 = CIRCLE ( 'NONE', #250, 0.07874000000000000443 ) ;
#173 = ORIENTED_EDGE ( 'NONE', *, *, #41, .F. ) ;
#174 = LINE ( 'NONE', #263, #58 ) ;
#175 = CARTESIAN_POINT ( 'NONE',  ( -0.06374000000000018540, 0.000000000000000000, 1.968503999999999809 ) ) ;
#176 = CIRCLE ( 'NONE', #98, 0.07874000000000000443 ) ;
#177 = CYLINDRICAL_SURFACE ( 'NONE', #186, 0.07874000000000000443 ) ;
#178 = LINE ( 'NONE', #99, #143 ) ;
#179 = FACE_OUTER_BOUND ( 'NONE', #138, .T. ) ;
#180 =( NAMED_UNIT ( * ) SI_UNIT ( $, .STERADIAN. ) SOLID_ANGLE_UNIT ( ) );
#181 = CONICAL_SURFACE ( 'NONE', #33, 0.06374000000000018540, 0.7853981633974522758 ) ;
#182 = EDGE_CURVE ( 'NONE', #115, #161, #63, .T. ) ;
#183 = UNCERTAINTY_MEASURE_WITH_UNIT (LENGTH_MEASURE( 1.000000000000000082E-05 ), #170, 'distance_accuracy_value', 'NONE');
#184 = ORIENTED_EDGE ( 'NONE', *, *, #203, .T. ) ;
#185 = EDGE_LOOP ( 'NONE', ( #173, #299, #65, #194 ) ) ;
#186 = AXIS2_PLACEMENT_3D ( 'NONE', #10, #16, #105 ) ;
#187 = VERTEX_POINT ( 'NONE', #61 ) ;
#188 = ORIENTED_EDGE ( 'NONE', *, *, #124, .F. ) ;
#189 = DIRECTION ( 'NONE',  ( 1.000000000000000000, 0.000000000000000000, 0.000000000000000000 ) ) ;
#190 = AXIS2_PLACEMENT_3D ( 'NONE', #57, #226, #289 ) ;
#191 = FACE_OUTER_BOUND ( 'NONE', #109, .T. ) ;
#192 = FACE_OUTER_BOUND ( 'NONE', #234, .T. ) ;
#193 = CIRCLE ( 'NONE', #9, 0.06374000000000018540 ) ;
#194 = ORIENTED_EDGE ( 'NONE', *, *, #100, .F. ) ;
#195 = DIRECTION ( 'NONE',  ( 0.1736481776669313859, 0.000000000000000000, 0.9848077530122077983 ) ) ;
#196 = APPLICATION_CONTEXT ( 'automotive_design' ) ;
#197 = DIRECTION ( 'NONE',  ( 1.000000000000000000, 0.000000000000000000, 0.000000000000000000 ) ) ;
#198 = AXIS2_PLACEMENT_3D ( 'NONE', #287, #129, #62 ) ;
#199 = CARTESIAN_POINT ( 'NONE',  ( 0.000000000000000000, 0.000000000000000000, 1.968503999999999809 ) ) ;
#200 = EDGE_CURVE ( 'NONE', #115, #187, #268, .T. ) ;
#201 = DIRECTION ( 'NONE',  ( 1.000000000000000000, 0.000000000000000000, 0.000000000000000000 ) ) ;
#202 = UNCERTAINTY_MEASURE_WITH_UNIT (LENGTH_MEASURE( 1.000000000000000082E-05 ), #160, 'distance_accuracy_value', 'NONE');
#203 = EDGE_CURVE ( 'NONE', #158, #22, #176, .T. ) ;
#204 = CARTESIAN_POINT ( 'NONE',  ( 0.07874000000000000443, 9.642868896486258509E-18, 1.968503999999999809 ) ) ;
#205 =( GEOMETRIC_REPRESENTATION_CONTEXT ( 3 ) GLOBAL_UNCERTAINTY_ASSIGNED_CONTEXT ( ( #202 ) ) GLOBAL_UNIT_ASSIGNED_CONTEXT ( ( #160, #106, #180 ) ) REPRESENTATION_CONTEXT ( 'NONE', 'WORKASPACE' ) );
#206 = CLOSED_SHELL ( 'NONE', ( #240, #121, #216, #47, #257, #15, #147, #81, #237, #285 ) ) ;
#207 = ORIENTED_EDGE ( 'NONE', *, *, #41, .T. ) ;
#208 = DIRECTION ( 'NONE',  ( 0.000000000000000000, 0.000000000000000000, 1.000000000000000000 ) ) ;
#209 = EDGE_LOOP ( 'NONE', ( #293, #68, #233, #259 ) ) ;
#210 = DIRECTION ( 'NONE',  ( -1.000000000000000000, 0.000000000000000000, 0.000000000000000000 ) ) ;
#211 = ORIENTED_EDGE ( 'NONE', *, *, #169, .T. ) ;
#212 = EDGE_CURVE ( 'NONE', #187, #49, #267, .T. ) ;
#213 = STYLED_ITEM ( 'NONE', ( #260 ), #130 ) ;
#214 = ORIENTED_EDGE ( 'NONE', *, *, #212, .F. ) ;
#215 = DIRECTION ( 'NONE',  ( -1.224646799147353207E-16, -0.000000000000000000, -1.000000000000000000 ) ) ;
#216 = ADVANCED_FACE ( 'NONE', ( #148 ), #181, .T. ) ;
#217 = DIRECTION ( 'NONE',  ( 0.7071067811865502373, 8.659560562354966138E-17, -0.7071067811865446862 ) ) ;
#218 = DIRECTION ( 'NONE',  ( 1.000000000000000000, 0.000000000000000000, -0.000000000000000000 ) ) ;
#219 = PRODUCT_DEFINITION_SHAPE ( 'NONE', 'NONE',  #18 ) ;
#220 = CARTESIAN_POINT ( 'NONE',  ( 0.000000000000000000, 0.000000000000000000, 1.968503999999999809 ) ) ;
#221 = DIRECTION ( 'NONE',  ( -0.7071067811865502373, 0.000000000000000000, -0.7071067811865446862 ) ) ;
#222 = AXIS2_PLACEMENT_3D ( 'NONE', #102, #242, #38 ) ;
#223 = CARTESIAN_POINT ( 'NONE',  ( 0.02949797250000001092, 0.000000000000000000, 0.1574800000000000089 ) ) ;
#224 = DIRECTION ( 'NONE',  ( -1.224646799147353207E-16, -0.000000000000000000, -1.000000000000000000 ) ) ;
#225 = EDGE_CURVE ( 'NONE', #22, #158, #107, .T. ) ;
#226 = DIRECTION ( 'NONE',  ( -1.224646799147353207E-16, -0.000000000000000000, -1.000000000000000000 ) ) ;
#227 = AXIS2_PLACEMENT_3D ( 'NONE', #110, #208, #255 ) ;
#228 = CARTESIAN_POINT ( 'NONE',  ( -0.02949797249999996929, 3.612459760346163304E-18, 0.1574800000000000089 ) ) ;
#229 = FACE_OUTER_BOUND ( 'NONE', #254, .T. ) ;
#230 = APPLICATION_PROTOCOL_DEFINITION ( 'draft international standard', 'automotive_design', 1998, #196 ) ;
#231 = ORIENTED_EDGE ( 'NONE', *, *, #152, .T. ) ;
#232 = APPLICATION_PROTOCOL_DEFINITION ( 'draft international standard', 'automotive_design', 1998, #87 ) ;
#233 = ORIENTED_EDGE ( 'NONE', *, *, #212, .T. ) ;
#234 = EDGE_LOOP ( 'NONE', ( #164, #46, #88, #165 ) ) ;
#235 = AXIS2_PLACEMENT_3D ( 'NONE', #286, #224, #56 ) ;
#236 = ORIENTED_EDGE ( 'NONE', *, *, #35, .T. ) ;
#237 = ADVANCED_FACE ( 'NONE', ( #179 ), #270, .T. ) ;
#238 = SURFACE_STYLE_FILL_AREA ( #141 ) ;
#239 =( LENGTH_UNIT ( ) NAMED_UNIT ( * ) SI_UNIT ( $, .METRE. ) );
#240 = ADVANCED_FACE ( 'NONE', ( #229 ), #153, .T. ) ;
#241 = CYLINDRICAL_SURFACE ( 'NONE', #3, 0.07874000000000000443 ) ;
#242 = DIRECTION ( 'NONE',  ( -1.224646799147353207E-16, -0.000000000000000000, -1.000000000000000000 ) ) ;
#243 = AXIS2_PLACEMENT_3D ( 'NONE', #123, #245, #201 ) ;
#244 = DIMENSIONAL_EXPONENTS ( 1.000000000000000000, 0.000000000000000000, 0.000000000000000000, 0.000000000000000000, 0.000000000000000000, 0.000000000000000000, 0.000000000000000000 ) ;
#245 = DIRECTION ( 'NONE',  ( -1.224646799147353207E-16, -0.000000000000000000, -1.000000000000000000 ) ) ;
#246 = DIRECTION ( 'NONE',  ( -1.000000000000000000, 0.000000000000000000, 0.000000000000000000 ) ) ;
#247 = AXIS2_PLACEMENT_3D ( 'NONE', #8, #140, #26 ) ;
#248 = DIRECTION ( 'NONE',  ( 0.000000000000000000, 0.000000000000000000, -1.000000000000000000 ) ) ;
#249 = DIRECTION ( 'NONE',  ( 0.000000000000000000, 0.000000000000000000, 1.000000000000000000 ) ) ;
#250 = AXIS2_PLACEMENT_3D ( 'NONE', #31, #7, #96 ) ;
#251 = ORIENTED_EDGE ( 'NONE', *, *, #182, .T. ) ;
#252 = LENGTH_MEASURE_WITH_UNIT ( LENGTH_MEASURE( 0.02539999999999999897 ), #69 );
#253 = ORIENTED_EDGE ( 'NONE', *, *, #124, .T. ) ;
#254 = EDGE_LOOP ( 'NONE', ( #251, #236, #43, #1 ) ) ;
#255 = DIRECTION ( 'NONE',  ( 1.000000000000000000, 0.000000000000000000, -0.000000000000000000 ) ) ;
#256 = ORIENTED_EDGE ( 'NONE', *, *, #35, .F. ) ;
#257 = ADVANCED_FACE ( 'NONE', ( #59 ), #177, .T. ) ;
#258 = CARTESIAN_POINT ( 'NONE',  ( -0.06374000000000018540, 0.000000000000000000, 1.968503999999999809 ) ) ;
#259 = ORIENTED_EDGE ( 'NONE', *, *, #281, .F. ) ;
#260 = PRESENTATION_STYLE_ASSIGNMENT (( #168 ) ) ;
#261 = AXIS2_PLACEMENT_3D ( 'NONE', #64, #249, #42 ) ;
#262 = CARTESIAN_POINT ( 'NONE',  ( 0.02949797249999999357, 3.612459760346164074E-18, -3.612459760346164074E-18 ) ) ;
#263 = CARTESIAN_POINT ( 'NONE',  ( -0.07874000000000000443, 0.000000000000000000, 1.968503999999999809 ) ) ;
#264 = AXIS2_PLACEMENT_3D ( 'NONE', #55, #145, #120 ) ;
#265 = FACE_OUTER_BOUND ( 'NONE', #40, .T. ) ;
#266 = EDGE_CURVE ( 'NONE', #158, #187, #174, .T. ) ;
#267 = CIRCLE ( 'NONE', #243, 0.07874000000000000443 ) ;
#268 = LINE ( 'NONE', #228, #119 ) ;
#269 = CARTESIAN_POINT ( 'NONE',  ( 0.02949797250000000745, 3.612459760346164844E-18, -9.478001694819074349E-34 ) ) ;
#270 = CYLINDRICAL_SURFACE ( 'NONE', #198, 0.02949797249999999357 ) ;
#271 =( LENGTH_UNIT ( ) NAMED_UNIT ( * ) SI_UNIT ( $, .METRE. ) );
#272 =( NAMED_UNIT ( * ) PLANE_ANGLE_UNIT ( ) SI_UNIT ( $, .RADIAN. ) );
#273 = ORIENTED_EDGE ( 'NONE', *, *, #225, .F. ) ;
#274 = FILL_AREA_STYLE_COLOUR ( '', #166 ) ;
#275 = AXIS2_PLACEMENT_3D ( 'NONE', #71, #83, #36 ) ;
#276 = VERTEX_POINT ( 'NONE', #175 ) ;
#277 = ORIENTED_EDGE ( 'NONE', *, *, #142, .F. ) ;
#278 = LINE ( 'NONE', #262, #163 ) ;
#279 = CARTESIAN_POINT ( 'NONE',  ( 0.07874000000000004607, 9.642868896486264672E-18, 0.4367454153218638391 ) ) ;
#280 = FACE_OUTER_BOUND ( 'NONE', #44, .T. ) ;
#281 = EDGE_CURVE ( 'NONE', #161, #49, #32, .T. ) ;
#282 = CARTESIAN_POINT ( 'NONE',  ( 0.07874000000000000443, 9.642868896486258509E-18, 1.953504000000000129 ) ) ;
#283 = COLOUR_RGB ( '',0.7921568627450980005, 0.8196078431372548767, 0.9333333333333333481 ) ;
#284 = CARTESIAN_POINT ( 'NONE',  ( -0.07874000000000000443, 0.000000000000000000, 1.953504000000000129 ) ) ;
#285 = ADVANCED_FACE ( 'NONE', ( #12 ), #89, .F. ) ;
#286 = CARTESIAN_POINT ( 'NONE',  ( 1.928573779297251702E-17, 0.000000000000000000, 0.1574800000000000089 ) ) ;
#287 = CARTESIAN_POINT ( 'NONE',  ( 0.000000000000000000, 0.000000000000000000, 0.000000000000000000 ) ) ;
#288 = PRESENTATION_LAYER_ASSIGNMENT (  '', '', ( #134 ) ) ;
#289 = DIRECTION ( 'NONE',  ( -1.000000000000000000, 0.000000000000000000, 1.224646799147352961E-16 ) ) ;
#290 = EDGE_CURVE ( 'NONE', #161, #115, #54, .T. ) ;
#291 = VECTOR ( 'NONE', #195, 39.37007874015748143 ) ;
#292 = CARTESIAN_POINT ( 'NONE',  ( 1.928573779297251702E-17, 0.000000000000000000, 0.1574800000000000089 ) ) ;
#293 = ORIENTED_EDGE ( 'NONE', *, *, #182, .F. ) ;
#294 = EDGE_CURVE ( 'NONE', #22, #49, #39, .T. ) ;
#295 = ORIENTED_EDGE ( 'NONE', *, *, #60, .F. ) ;
#296 = ORIENTED_EDGE ( 'NONE', *, *, #294, .F. ) ;
#297 = SHAPE_DEFINITION_REPRESENTATION ( #219, #126 ) ;
#298 = CONICAL_SURFACE ( 'NONE', #171, 0.02949797249999999010, 0.1745329251994338915 ) ;
#299 = ORIENTED_EDGE ( 'NONE', *, *, #72, .T. ) ;
ENDSEC;
END-ISO-10303-21;
