ISO-10303-21;
HEADER;
FILE_DESCRIPTION (( 'STEP AP214' ),
    '1' );
FILE_NAME ('Micro_AEMM-140-4X.STEP',
    '2022-03-15T14:32:43',
    ( '' ),
    ( '' ),
    'SwSTEP 2.0',
    'SolidWorks 2022',
    '' );
FILE_SCHEMA (( 'AUTOMOTIVE_DESIGN' ));
ENDSEC;

DATA;
#1 = ORIENTED_EDGE ( 'NONE', *, *, #298, .T. ) ;
#2 = ORIENTED_EDGE ( 'NONE', *, *, #77, .T. ) ;
#3 = DIRECTION ( 'NONE',  ( -1.224646799147353454E-16, -0.000000000000000000, -1.000000000000000000 ) ) ;
#4 = EDGE_LOOP ( 'NONE', ( #75, #255, #239, #101 ) ) ;
#5 = CARTESIAN_POINT ( 'NONE',  ( -0.2605905000000014460, 0.000000000000000000, 3.267717000000000649 ) ) ;
#6 = ORIENTED_EDGE ( 'NONE', *, *, #70, .F. ) ;
#7 = DIRECTION ( 'NONE',  ( -1.224646799147353454E-16, -0.000000000000000000, -1.000000000000000000 ) ) ;
#8 =( NAMED_UNIT ( * ) SI_UNIT ( $, .STERADIAN. ) SOLID_ANGLE_UNIT ( ) );
#9 = EDGE_CURVE ( 'NONE', #53, #280, #63, .T. ) ;
#10 = PLANE ( 'NONE',  #179 ) ;
#11 = CARTESIAN_POINT ( 'NONE',  ( 1.687505730825493004E-16, 0.000000000000000000, 1.377952999999999983 ) ) ;
#12 = DIRECTION ( 'NONE',  ( 1.000000000000000000, 0.000000000000000000, 0.000000000000000000 ) ) ;
#13 = LENGTH_MEASURE_WITH_UNIT ( LENGTH_MEASURE( 0.02539999999999999897 ), #265 );
#14 = DIRECTION ( 'NONE',  ( 0.000000000000000000, 0.000000000000000000, -1.000000000000000000 ) ) ;
#15 = AXIS2_PLACEMENT_3D ( 'NONE', #236, #27, #114 ) ;
#16 = CIRCLE ( 'NONE', #275, 0.2753149094999999824 ) ;
#17 = ADVANCED_FACE ( 'NONE', ( #209 ), #299, .T. ) ;
#18 = CARTESIAN_POINT ( 'NONE',  ( -0.2755904999999998495, 0.000000000000000000, 1.379515951392309425 ) ) ;
#19 = DIMENSIONAL_EXPONENTS ( 1.000000000000000000, 0.000000000000000000, 0.000000000000000000, 0.000000000000000000, 0.000000000000000000, 0.000000000000000000, 0.000000000000000000 ) ;
#20 = PLANE ( 'NONE',  #69 ) ;
#21 = DIMENSIONAL_EXPONENTS ( 1.000000000000000000, 0.000000000000000000, 0.000000000000000000, 0.000000000000000000, 0.000000000000000000, 0.000000000000000000, 0.000000000000000000 ) ;
#22 = CLOSED_SHELL ( 'NONE', ( #17, #43, #93, #82, #182, #111, #267, #47, #254, #249 ) ) ;
#23 = CIRCLE ( 'NONE', #230, 0.2755905000000000715 ) ;
#24 = EDGE_CURVE ( 'NONE', #52, #53, #261, .T. ) ;
#25 = DIRECTION ( 'NONE',  ( -0.000000000000000000, -0.000000000000000000, -1.000000000000000000 ) ) ;
#26 = CIRCLE ( 'NONE', #208, 0.2753149095000000379 ) ;
#27 = DIRECTION ( 'NONE',  ( -1.224646799147353454E-16, -0.000000000000000000, -1.000000000000000000 ) ) ;
#28 = ORIENTED_EDGE ( 'NONE', *, *, #272, .F. ) ;
#29 = ORIENTED_EDGE ( 'NONE', *, *, #129, .F. ) ;
#30 = APPLICATION_PROTOCOL_DEFINITION ( 'draft international standard', 'automotive_design', 1998, #258 ) ;
#31 = CARTESIAN_POINT ( 'NONE',  ( 0.000000000000000000, 0.000000000000000000, 3.267717000000000649 ) ) ;
#32 = ORIENTED_EDGE ( 'NONE', *, *, #185, .T. ) ;
#33 = CARTESIAN_POINT ( 'NONE',  ( -0.2753149094999999824, 0.000000000000000000, 6.743270453534364513E-17 ) ) ;
#34 = ORIENTED_EDGE ( 'NONE', *, *, #199, .F. ) ;
#35 = LINE ( 'NONE', #60, #38 ) ;
#36 = PRODUCT_RELATED_PRODUCT_CATEGORY ( 'part', '', ( #76 ) ) ;
#37 = CARTESIAN_POINT ( 'NONE',  ( 4.129062288352891690E-33, 0.000000000000000000, 3.371635226767182256E-17 ) ) ;
#38 = VECTOR ( 'NONE', #152, 39.37007874015748143 ) ;
#39 = FACE_OUTER_BOUND ( 'NONE', #80, .T. ) ;
#40 = DIRECTION ( 'NONE',  ( -1.000000000000000000, 0.000000000000000000, 0.000000000000000000 ) ) ;
#41 = UNCERTAINTY_MEASURE_WITH_UNIT (LENGTH_MEASURE( 1.000000000000000082E-05 ), #273, 'distance_accuracy_value', 'NONE');
#42 = CARTESIAN_POINT ( 'NONE',  ( 0.2605905000000014460, 3.283161727068144454E-17, 3.267717000000000649 ) ) ;
#43 = ADVANCED_FACE ( 'NONE', ( #61 ), #125, .T. ) ;
#44 = CARTESIAN_POINT ( 'NONE',  ( 0.000000000000000000, 0.000000000000000000, 3.267717000000000649 ) ) ;
#45 = DIRECTION ( 'NONE',  ( -1.000000000000000000, 0.000000000000000000, 1.224646799147353207E-16 ) ) ;
#46 = PRODUCT_DEFINITION_FORMATION_WITH_SPECIFIED_SOURCE ( 'ANY', '', #76, .NOT_KNOWN. ) ;
#47 = ADVANCED_FACE ( 'NONE', ( #268 ), #226, .T. ) ;
#48 = AXIS2_PLACEMENT_3D ( 'NONE', #126, #154, #294 ) ;
#49 = FILL_AREA_STYLE ('',( #295 ) ) ;
#50 = ADVANCED_BREP_SHAPE_REPRESENTATION ( 'Micro_AEMM-140-4X', ( #187, #120 ), #108 ) ;
#51 = VERTEX_POINT ( 'NONE', #42 ) ;
#52 = VERTEX_POINT ( 'NONE', #222 ) ;
#53 = VERTEX_POINT ( 'NONE', #18 ) ;
#54 = ORIENTED_EDGE ( 'NONE', *, *, #24, .T. ) ;
#55 = COLOUR_RGB ( '',0.7921568627450980005, 0.8196078431372548767, 0.9333333333333333481 ) ;
#56 = ORIENTED_EDGE ( 'NONE', *, *, #153, .F. ) ;
#57 = PRODUCT_CONTEXT ( 'NONE', #204, 'mechanical' ) ;
#58 = EDGE_CURVE ( 'NONE', #280, #53, #188, .T. ) ;
#59 = DIRECTION ( 'NONE',  ( 1.224646799147353454E-16, 0.000000000000000000, 1.000000000000000000 ) ) ;
#60 = CARTESIAN_POINT ( 'NONE',  ( 0.2753149095000002045, 0.000000000000000000, 1.377952999999999983 ) ) ;
#61 = FACE_OUTER_BOUND ( 'NONE', #4, .T. ) ;
#62 = SHAPE_DEFINITION_REPRESENTATION ( #200, #50 ) ;
#63 = CIRCLE ( 'NONE', #15, 0.2755905000000000715 ) ;
#64 = AXIS2_PLACEMENT_3D ( 'NONE', #201, #25, #164 ) ;
#65 = CARTESIAN_POINT ( 'NONE',  ( 1.689419794245307801E-16, 0.000000000000000000, 1.379515951392309425 ) ) ;
#66 = MECHANICAL_DESIGN_GEOMETRIC_PRESENTATION_REPRESENTATION (  '', ( #274 ), #135 ) ;
#67 = FACE_OUTER_BOUND ( 'NONE', #234, .T. ) ;
#68 = LINE ( 'NONE', #177, #228 ) ;
#69 = AXIS2_PLACEMENT_3D ( 'NONE', #178, #293, #227 ) ;
#70 = EDGE_CURVE ( 'NONE', #99, #196, #157, .T. ) ;
#71 =( NAMED_UNIT ( * ) SI_UNIT ( $, .STERADIAN. ) SOLID_ANGLE_UNIT ( ) );
#72 = AXIS2_PLACEMENT_3D ( 'NONE', #31, #145, #256 ) ;
#73 = CYLINDRICAL_SURFACE ( 'NONE', #74, 0.2753149094999999824 ) ;
#74 = AXIS2_PLACEMENT_3D ( 'NONE', #166, #233, #170 ) ;
#75 = ORIENTED_EDGE ( 'NONE', *, *, #77, .F. ) ;
#76 = PRODUCT ( 'Micro_AEMM-140-4X', 'Micro_AEMM-140-4X', '', ( #57 ) ) ;
#77 = EDGE_CURVE ( 'NONE', #171, #99, #26, .T. ) ;
#78 = ORIENTED_EDGE ( 'NONE', *, *, #272, .T. ) ;
#79 = ORIENTED_EDGE ( 'NONE', *, *, #58, .T. ) ;
#80 = EDGE_LOOP ( 'NONE', ( #235, #83 ) ) ;
#81 = SURFACE_STYLE_FILL_AREA ( #144 ) ;
#82 = ADVANCED_FACE ( 'NONE', ( #67 ), #89, .T. ) ;
#83 = ORIENTED_EDGE ( 'NONE', *, *, #134, .T. ) ;
#84 = DIRECTION ( 'NONE',  ( -1.224646799147353454E-16, -0.000000000000000000, -1.000000000000000000 ) ) ;
#85 = FILL_AREA_STYLE_COLOUR ( '', #260 ) ;
#86 = CARTESIAN_POINT ( 'NONE',  ( 0.000000000000000000, 0.000000000000000000, 3.267717000000000649 ) ) ;
#87 = CIRCLE ( 'NONE', #138, 0.2605905000000014460 ) ;
#88 = DIRECTION ( 'NONE',  ( 0.000000000000000000, 0.000000000000000000, 1.000000000000000000 ) ) ;
#89 = CYLINDRICAL_SURFACE ( 'NONE', #197, 0.2755905000000000715 ) ;
#90 = DIRECTION ( 'NONE',  ( -0.1736481776669311083, 2.126576849575782084E-17, 0.9848077530122080203 ) ) ;
#91 = DIRECTION ( 'NONE',  ( 0.000000000000000000, 0.000000000000000000, 1.000000000000000000 ) ) ;
#92 = FACE_OUTER_BOUND ( 'NONE', #194, .T. ) ;
#93 = ADVANCED_FACE ( 'NONE', ( #289 ), #231, .T. ) ;
#94 = PRESENTATION_STYLE_ASSIGNMENT (( #186 ) ) ;
#95 = AXIS2_PLACEMENT_3D ( 'NONE', #11, #59, #181 ) ;
#96 = STYLED_ITEM ( 'NONE', ( #94 ), #187 ) ;
#97 = PRESENTATION_LAYER_ASSIGNMENT (  '', '', ( #96 ) ) ;
#98 = ORIENTED_EDGE ( 'NONE', *, *, #211, .F. ) ;
#99 = VERTEX_POINT ( 'NONE', #128 ) ;
#100 = DIRECTION ( 'NONE',  ( -1.000000000000000000, 0.000000000000000000, 0.000000000000000000 ) ) ;
#101 = ORIENTED_EDGE ( 'NONE', *, *, #217, .F. ) ;
#102 = ORIENTED_EDGE ( 'NONE', *, *, #165, .F. ) ;
#103 = DIRECTION ( 'NONE',  ( 0.000000000000000000, 0.000000000000000000, 1.000000000000000000 ) ) ;
#104 = CARTESIAN_POINT ( 'NONE',  ( 0.000000000000000000, 0.000000000000000000, 3.267717000000000649 ) ) ;
#105 = CARTESIAN_POINT ( 'NONE',  ( 0.2753149094999999824, 3.371635226767182256E-17, -3.371635226767182256E-17 ) ) ;
#106 =( CONVERSION_BASED_UNIT ( 'INCH', #13 ) LENGTH_UNIT ( ) NAMED_UNIT ( #180 ) );
#107 = DIRECTION ( 'NONE',  ( -1.000000000000000000, 0.000000000000000000, 1.224646799147353207E-16 ) ) ;
#108 =( GEOMETRIC_REPRESENTATION_CONTEXT ( 3 ) GLOBAL_UNCERTAINTY_ASSIGNED_CONTEXT ( ( #238 ) ) GLOBAL_UNIT_ASSIGNED_CONTEXT ( ( #106, #269, #241 ) ) REPRESENTATION_CONTEXT ( 'NONE', 'WORKASPACE' ) );
#109 = DIRECTION ( 'NONE',  ( -1.224646799147353454E-16, -0.000000000000000000, -1.000000000000000000 ) ) ;
#110 = CARTESIAN_POINT ( 'NONE',  ( 0.2755905000000000715, 3.375010237004186497E-17, 3.252717000000001857 ) ) ;
#111 = ADVANCED_FACE ( 'NONE', ( #220 ), #20, .T. ) ;
#112 = VECTOR ( 'NONE', #130, 39.37007874015748143 ) ;
#113 = LINE ( 'NONE', #263, #173 ) ;
#114 = DIRECTION ( 'NONE',  ( 1.000000000000000000, 0.000000000000000000, 0.000000000000000000 ) ) ;
#115 = EDGE_CURVE ( 'NONE', #141, #52, #23, .T. ) ;
#116 = ORIENTED_EDGE ( 'NONE', *, *, #211, .T. ) ;
#117 = VECTOR ( 'NONE', #224, 39.37007874015748143 ) ;
#118 = ORIENTED_EDGE ( 'NONE', *, *, #153, .T. ) ;
#119 = CARTESIAN_POINT ( 'NONE',  ( 1.687505730825493004E-16, 0.000000000000000000, 1.377952999999999983 ) ) ;
#120 = AXIS2_PLACEMENT_3D ( 'NONE', #122, #195, #12 ) ;
#121 = ORIENTED_EDGE ( 'NONE', *, *, #58, .F. ) ;
#122 = CARTESIAN_POINT ( 'NONE',  ( 0.000000000000000000, 0.000000000000000000, 0.000000000000000000 ) ) ;
#123 = CARTESIAN_POINT ( 'NONE',  ( 0.2753149094999999824, 3.371635226767182256E-17, 0.000000000000000000 ) ) ;
#124 = ORIENTED_EDGE ( 'NONE', *, *, #115, .T. ) ;
#125 = CONICAL_SURFACE ( 'NONE', #48, 0.2753149095000000379, 0.1745329251994338082 ) ;
#126 = CARTESIAN_POINT ( 'NONE',  ( 1.687505730825493004E-16, 0.000000000000000000, 1.377952999999999983 ) ) ;
#127 = CARTESIAN_POINT ( 'NONE',  ( 0.000000000000000000, 0.000000000000000000, 0.000000000000000000 ) ) ;
#128 = CARTESIAN_POINT ( 'NONE',  ( 0.2753149095000002045, 0.000000000000000000, 1.377952999999999983 ) ) ;
#129 = EDGE_CURVE ( 'NONE', #51, #141, #136, .T. ) ;
#130 = DIRECTION ( 'NONE',  ( 0.7071067811865466846, 8.659560562354922997E-17, -0.7071067811865483499 ) ) ;
#131 = CARTESIAN_POINT ( 'NONE',  ( 0.2755905000000002381, 3.375010237004188345E-17, 1.379515951392309425 ) ) ;
#132 = DIRECTION ( 'NONE',  ( 1.000000000000000000, 0.000000000000000000, 0.000000000000000000 ) ) ;
#133 = VECTOR ( 'NONE', #84, 39.37007874015748143 ) ;
#134 = EDGE_CURVE ( 'NONE', #196, #193, #16, .T. ) ;
#135 =( GEOMETRIC_REPRESENTATION_CONTEXT ( 3 ) GLOBAL_UNCERTAINTY_ASSIGNED_CONTEXT ( ( #223 ) ) GLOBAL_UNIT_ASSIGNED_CONTEXT ( ( #215, #237, #8 ) ) REPRESENTATION_CONTEXT ( 'NONE', 'WORKASPACE' ) );
#136 = LINE ( 'NONE', #229, #112 ) ;
#137 =( NAMED_UNIT ( * ) PLANE_ANGLE_UNIT ( ) SI_UNIT ( $, .RADIAN. ) );
#138 = AXIS2_PLACEMENT_3D ( 'NONE', #44, #103, #132 ) ;
#139 = AXIS2_PLACEMENT_3D ( 'NONE', #86, #14, #150 ) ;
#140 = EDGE_CURVE ( 'NONE', #193, #196, #192, .T. ) ;
#141 = VERTEX_POINT ( 'NONE', #110 ) ;
#142 = ORIENTED_EDGE ( 'NONE', *, *, #281, .F. ) ;
#143 = ORIENTED_EDGE ( 'NONE', *, *, #298, .F. ) ;
#144 = FILL_AREA_STYLE ('',( #85 ) ) ;
#145 = DIRECTION ( 'NONE',  ( 0.000000000000000000, 0.000000000000000000, -1.000000000000000000 ) ) ;
#146 = AXIS2_PLACEMENT_3D ( 'NONE', #276, #161, #252 ) ;
#147 = EDGE_LOOP ( 'NONE', ( #143, #168, #278, #98 ) ) ;
#148 = EDGE_LOOP ( 'NONE', ( #118, #1 ) ) ;
#149 = LINE ( 'NONE', #5, #167 ) ;
#150 = DIRECTION ( 'NONE',  ( -1.000000000000000000, 0.000000000000000000, 0.000000000000000000 ) ) ;
#151 = LENGTH_MEASURE_WITH_UNIT ( LENGTH_MEASURE( 0.02539999999999999897 ), #244 );
#152 = DIRECTION ( 'NONE',  ( 0.1736481776669313026, 0.000000000000000000, 0.9848077530122077983 ) ) ;
#153 = EDGE_CURVE ( 'NONE', #191, #51, #87, .T. ) ;
#154 = DIRECTION ( 'NONE',  ( 1.224646799147353454E-16, 0.000000000000000000, 1.000000000000000000 ) ) ;
#155 = AXIS2_PLACEMENT_3D ( 'NONE', #119, #3, #100 ) ;
#156 = DIRECTION ( 'NONE',  ( 0.000000000000000000, 0.000000000000000000, -1.000000000000000000 ) ) ;
#157 = LINE ( 'NONE', #105, #133 ) ;
#158 = LINE ( 'NONE', #221, #117 ) ;
#159 = CYLINDRICAL_SURFACE ( 'NONE', #64, 0.2755905000000000715 ) ;
#160 =( LENGTH_UNIT ( ) NAMED_UNIT ( * ) SI_UNIT ( $, .METRE. ) );
#161 = DIRECTION ( 'NONE',  ( 0.000000000000000000, 0.000000000000000000, -1.000000000000000000 ) ) ;
#162 = PRODUCT_DEFINITION ( 'UNKNOWN', '', #46, #290 ) ;
#163 = AXIS2_PLACEMENT_3D ( 'NONE', #104, #91, #247 ) ;
#164 = DIRECTION ( 'NONE',  ( -1.000000000000000000, 0.000000000000000000, 0.000000000000000000 ) ) ;
#165 = EDGE_CURVE ( 'NONE', #171, #53, #68, .T. ) ;
#166 = CARTESIAN_POINT ( 'NONE',  ( 0.000000000000000000, 0.000000000000000000, 0.000000000000000000 ) ) ;
#167 = VECTOR ( 'NONE', #286, 39.37007874015748143 ) ;
#168 = ORIENTED_EDGE ( 'NONE', *, *, #129, .T. ) ;
#169 = ORIENTED_EDGE ( 'NONE', *, *, #24, .F. ) ;
#170 = DIRECTION ( 'NONE',  ( -1.000000000000000000, 0.000000000000000000, 1.224646799147353207E-16 ) ) ;
#171 = VERTEX_POINT ( 'NONE', #271 ) ;
#172 = AXIS2_PLACEMENT_3D ( 'NONE', #65, #264, #288 ) ;
#173 = VECTOR ( 'NONE', #216, 39.37007874015748143 ) ;
#174 = ORIENTED_EDGE ( 'NONE', *, *, #217, .T. ) ;
#175 = PRESENTATION_STYLE_ASSIGNMENT (( #285 ) ) ;
#176 = ORIENTED_EDGE ( 'NONE', *, *, #134, .F. ) ;
#177 = CARTESIAN_POINT ( 'NONE',  ( -0.2753149094999998159, 3.371635226767182256E-17, 1.377952999999999983 ) ) ;
#178 = CARTESIAN_POINT ( 'NONE',  ( 0.000000000000000000, 0.000000000000000000, 3.267717000000000649 ) ) ;
#179 = AXIS2_PLACEMENT_3D ( 'NONE', #127, #88, #190 ) ;
#180 = DIMENSIONAL_EXPONENTS ( 1.000000000000000000, 0.000000000000000000, 0.000000000000000000, 0.000000000000000000, 0.000000000000000000, 0.000000000000000000, 0.000000000000000000 ) ;
#181 = DIRECTION ( 'NONE',  ( 1.000000000000000000, 0.000000000000000000, 0.000000000000000000 ) ) ;
#182 = ADVANCED_FACE ( 'NONE', ( #92 ), #159, .T. ) ;
#183 = DIRECTION ( 'NONE',  ( -1.000000000000000000, 0.000000000000000000, 0.000000000000000000 ) ) ;
#184 = SURFACE_SIDE_STYLE ('',( #297 ) ) ;
#185 = EDGE_CURVE ( 'NONE', #52, #141, #189, .T. ) ;
#186 = SURFACE_STYLE_USAGE ( .BOTH. , #184 ) ;
#187 = MANIFOLD_SOLID_BREP ( 'Cut-Revolve1', #22 ) ;
#188 = CIRCLE ( 'NONE', #172, 0.2755905000000000715 ) ;
#189 = CIRCLE ( 'NONE', #146, 0.2755905000000000715 ) ;
#190 = DIRECTION ( 'NONE',  ( 1.000000000000000000, 0.000000000000000000, -0.000000000000000000 ) ) ;
#191 = VERTEX_POINT ( 'NONE', #213 ) ;
#192 = CIRCLE ( 'NONE', #212, 0.2753149094999999824 ) ;
#193 = VERTEX_POINT ( 'NONE', #33 ) ;
#194 = EDGE_LOOP ( 'NONE', ( #34, #124, #54, #121 ) ) ;
#195 = DIRECTION ( 'NONE',  ( 0.000000000000000000, 0.000000000000000000, 1.000000000000000000 ) ) ;
#196 = VERTEX_POINT ( 'NONE', #123 ) ;
#197 = AXIS2_PLACEMENT_3D ( 'NONE', #246, #205, #183 ) ;
#198 = ORIENTED_EDGE ( 'NONE', *, *, #199, .T. ) ;
#199 = EDGE_CURVE ( 'NONE', #141, #280, #113, .T. ) ;
#200 = PRODUCT_DEFINITION_SHAPE ( 'NONE', 'NONE',  #162 ) ;
#201 = CARTESIAN_POINT ( 'NONE',  ( 0.000000000000000000, 0.000000000000000000, 3.267717000000000649 ) ) ;
#202 = DIRECTION ( 'NONE',  ( -1.224646799147353454E-16, -0.000000000000000000, -1.000000000000000000 ) ) ;
#203 = CARTESIAN_POINT ( 'NONE',  ( 4.129062288352891690E-33, 0.000000000000000000, 3.371635226767182256E-17 ) ) ;
#204 = APPLICATION_CONTEXT ( 'automotive_design' ) ;
#205 = DIRECTION ( 'NONE',  ( -0.000000000000000000, -0.000000000000000000, -1.000000000000000000 ) ) ;
#206 = CARTESIAN_POINT ( 'NONE',  ( -0.2755905000000000715, 0.000000000000000000, 3.267717000000000649 ) ) ;
#207 = LENGTH_MEASURE_WITH_UNIT ( LENGTH_MEASURE( 0.02539999999999999897 ), #160 );
#208 = AXIS2_PLACEMENT_3D ( 'NONE', #270, #202, #40 ) ;
#209 = FACE_OUTER_BOUND ( 'NONE', #218, .T. ) ;
#210 = ORIENTED_EDGE ( 'NONE', *, *, #9, .F. ) ;
#211 = EDGE_CURVE ( 'NONE', #191, #52, #149, .T. ) ;
#212 = AXIS2_PLACEMENT_3D ( 'NONE', #203, #7, #292 ) ;
#213 = CARTESIAN_POINT ( 'NONE',  ( -0.2605905000000014460, 0.000000000000000000, 3.267717000000000649 ) ) ;
#214 = EDGE_LOOP ( 'NONE', ( #102, #28, #174, #79 ) ) ;
#215 =( CONVERSION_BASED_UNIT ( 'INCH', #151 ) LENGTH_UNIT ( ) NAMED_UNIT ( #19 ) );
#216 = DIRECTION ( 'NONE',  ( -0.000000000000000000, -0.000000000000000000, -1.000000000000000000 ) ) ;
#217 = EDGE_CURVE ( 'NONE', #99, #280, #35, .T. ) ;
#218 = EDGE_LOOP ( 'NONE', ( #2, #284, #259, #142 ) ) ;
#219 = APPLICATION_PROTOCOL_DEFINITION ( 'draft international standard', 'automotive_design', 1998, #204 ) ;
#220 = FACE_OUTER_BOUND ( 'NONE', #148, .T. ) ;
#221 = CARTESIAN_POINT ( 'NONE',  ( -0.2753149094999999824, 0.000000000000000000, 3.371635226767182256E-17 ) ) ;
#222 = CARTESIAN_POINT ( 'NONE',  ( -0.2755905000000000715, 0.000000000000000000, 3.252717000000001857 ) ) ;
#223 = UNCERTAINTY_MEASURE_WITH_UNIT (LENGTH_MEASURE( 1.000000000000000082E-05 ), #215, 'distance_accuracy_value', 'NONE');
#224 = DIRECTION ( 'NONE',  ( -1.224646799147353454E-16, -0.000000000000000000, -1.000000000000000000 ) ) ;
#225 = DIRECTION ( 'NONE',  ( -1.224646799147353454E-16, -0.000000000000000000, -1.000000000000000000 ) ) ;
#226 = CONICAL_SURFACE ( 'NONE', #95, 0.2753149095000000379, 0.1745329251994338082 ) ;
#227 = DIRECTION ( 'NONE',  ( 1.000000000000000000, 0.000000000000000000, -0.000000000000000000 ) ) ;
#228 = VECTOR ( 'NONE', #90, 39.37007874015747433 ) ;
#229 = CARTESIAN_POINT ( 'NONE',  ( 0.2605905000000014460, 3.191313217132101795E-17, 3.267717000000000649 ) ) ;
#230 = AXIS2_PLACEMENT_3D ( 'NONE', #240, #156, #245 ) ;
#231 = CONICAL_SURFACE ( 'NONE', #139, 0.2605905000000014460, 0.7853981633974471688 ) ;
#232 = ORIENTED_EDGE ( 'NONE', *, *, #115, .F. ) ;
#233 = DIRECTION ( 'NONE',  ( -1.224646799147353454E-16, -0.000000000000000000, -1.000000000000000000 ) ) ;
#234 = EDGE_LOOP ( 'NONE', ( #32, #198, #210, #169 ) ) ;
#235 = ORIENTED_EDGE ( 'NONE', *, *, #140, .T. ) ;
#236 = CARTESIAN_POINT ( 'NONE',  ( 1.689419794245307801E-16, 0.000000000000000000, 1.379515951392309425 ) ) ;
#237 =( NAMED_UNIT ( * ) PLANE_ANGLE_UNIT ( ) SI_UNIT ( $, .RADIAN. ) );
#238 = UNCERTAINTY_MEASURE_WITH_UNIT (LENGTH_MEASURE( 1.000000000000000082E-05 ), #106, 'distance_accuracy_value', 'NONE');
#239 = ORIENTED_EDGE ( 'NONE', *, *, #9, .T. ) ;
#240 = CARTESIAN_POINT ( 'NONE',  ( 0.000000000000000000, 0.000000000000000000, 3.252717000000001857 ) ) ;
#241 =( NAMED_UNIT ( * ) SI_UNIT ( $, .STERADIAN. ) SOLID_ANGLE_UNIT ( ) );
#242 = CONICAL_SURFACE ( 'NONE', #72, 0.2605905000000014460, 0.7853981633974471688 ) ;
#243 = DIRECTION ( 'NONE',  ( -0.000000000000000000, -0.000000000000000000, -1.000000000000000000 ) ) ;
#244 =( LENGTH_UNIT ( ) NAMED_UNIT ( * ) SI_UNIT ( $, .METRE. ) );
#245 = DIRECTION ( 'NONE',  ( 1.000000000000000000, 0.000000000000000000, 0.000000000000000000 ) ) ;
#246 = CARTESIAN_POINT ( 'NONE',  ( 0.000000000000000000, 0.000000000000000000, 3.267717000000000649 ) ) ;
#247 = DIRECTION ( 'NONE',  ( 1.000000000000000000, 0.000000000000000000, 0.000000000000000000 ) ) ;
#248 = CARTESIAN_POINT ( 'NONE',  ( 0.000000000000000000, 0.000000000000000000, 0.000000000000000000 ) ) ;
#249 = ADVANCED_FACE ( 'NONE', ( #39 ), #10, .F. ) ;
#250 = CIRCLE ( 'NONE', #155, 0.2753149095000000379 ) ;
#251 = PRESENTATION_LAYER_ASSIGNMENT (  '', '', ( #274 ) ) ;
#252 = DIRECTION ( 'NONE',  ( 1.000000000000000000, 0.000000000000000000, 0.000000000000000000 ) ) ;
#253 = VECTOR ( 'NONE', #243, 39.37007874015748143 ) ;
#254 = ADVANCED_FACE ( 'NONE', ( #277 ), #73, .T. ) ;
#255 = ORIENTED_EDGE ( 'NONE', *, *, #165, .T. ) ;
#256 = DIRECTION ( 'NONE',  ( -1.000000000000000000, 0.000000000000000000, 0.000000000000000000 ) ) ;
#257 = ORIENTED_EDGE ( 'NONE', *, *, #281, .T. ) ;
#258 = APPLICATION_CONTEXT ( 'automotive_design' ) ;
#259 = ORIENTED_EDGE ( 'NONE', *, *, #140, .F. ) ;
#260 = COLOUR_RGB ( '',0.7921568627450980005, 0.8196078431372548767, 0.9333333333333333481 ) ;
#261 = LINE ( 'NONE', #206, #253 ) ;
#262 = SURFACE_SIDE_STYLE ('',( #81 ) ) ;
#263 = CARTESIAN_POINT ( 'NONE',  ( 0.2755905000000000715, 3.375010237004186497E-17, 3.267717000000000649 ) ) ;
#264 = DIRECTION ( 'NONE',  ( -1.224646799147353454E-16, -0.000000000000000000, -1.000000000000000000 ) ) ;
#265 =( LENGTH_UNIT ( ) NAMED_UNIT ( * ) SI_UNIT ( $, .METRE. ) );
#266 = MECHANICAL_DESIGN_GEOMETRIC_PRESENTATION_REPRESENTATION (  '', ( #96 ), #296 ) ;
#267 = ADVANCED_FACE ( 'NONE', ( #283 ), #242, .T. ) ;
#268 = FACE_OUTER_BOUND ( 'NONE', #214, .T. ) ;
#269 =( NAMED_UNIT ( * ) PLANE_ANGLE_UNIT ( ) SI_UNIT ( $, .RADIAN. ) );
#270 = CARTESIAN_POINT ( 'NONE',  ( 1.687505730825493004E-16, 0.000000000000000000, 1.377952999999999983 ) ) ;
#271 = CARTESIAN_POINT ( 'NONE',  ( -0.2753149094999998159, 3.373322731885684685E-17, 1.377952999999999983 ) ) ;
#272 = EDGE_CURVE ( 'NONE', #99, #171, #250, .T. ) ;
#273 =( CONVERSION_BASED_UNIT ( 'INCH', #207 ) LENGTH_UNIT ( ) NAMED_UNIT ( #21 ) );
#274 = STYLED_ITEM ( 'NONE', ( #175 ), #50 ) ;
#275 = AXIS2_PLACEMENT_3D ( 'NONE', #37, #225, #107 ) ;
#276 = CARTESIAN_POINT ( 'NONE',  ( 0.000000000000000000, 0.000000000000000000, 3.252717000000001857 ) ) ;
#277 = FACE_OUTER_BOUND ( 'NONE', #282, .T. ) ;
#278 = ORIENTED_EDGE ( 'NONE', *, *, #185, .F. ) ;
#279 = AXIS2_PLACEMENT_3D ( 'NONE', #248, #109, #45 ) ;
#280 = VERTEX_POINT ( 'NONE', #131 ) ;
#281 = EDGE_CURVE ( 'NONE', #171, #193, #158, .T. ) ;
#282 = EDGE_LOOP ( 'NONE', ( #6, #78, #257, #176 ) ) ;
#283 = FACE_OUTER_BOUND ( 'NONE', #287, .T. ) ;
#284 = ORIENTED_EDGE ( 'NONE', *, *, #70, .T. ) ;
#285 = SURFACE_STYLE_USAGE ( .BOTH. , #262 ) ;
#286 = DIRECTION ( 'NONE',  ( -0.7071067811865466846, 0.000000000000000000, -0.7071067811865483499 ) ) ;
#287 = EDGE_LOOP ( 'NONE', ( #29, #56, #116, #232 ) ) ;
#288 = DIRECTION ( 'NONE',  ( 1.000000000000000000, 0.000000000000000000, 0.000000000000000000 ) ) ;
#289 = FACE_OUTER_BOUND ( 'NONE', #147, .T. ) ;
#290 = PRODUCT_DEFINITION_CONTEXT ( 'detailed design', #258, 'design' ) ;
#291 = CIRCLE ( 'NONE', #163, 0.2605905000000014460 ) ;
#292 = DIRECTION ( 'NONE',  ( -1.000000000000000000, 0.000000000000000000, 1.224646799147353207E-16 ) ) ;
#293 = DIRECTION ( 'NONE',  ( 0.000000000000000000, 0.000000000000000000, 1.000000000000000000 ) ) ;
#294 = DIRECTION ( 'NONE',  ( 1.000000000000000000, 0.000000000000000000, 0.000000000000000000 ) ) ;
#295 = FILL_AREA_STYLE_COLOUR ( '', #55 ) ;
#296 =( GEOMETRIC_REPRESENTATION_CONTEXT ( 3 ) GLOBAL_UNCERTAINTY_ASSIGNED_CONTEXT ( ( #41 ) ) GLOBAL_UNIT_ASSIGNED_CONTEXT ( ( #273, #137, #71 ) ) REPRESENTATION_CONTEXT ( 'NONE', 'WORKASPACE' ) );
#297 = SURFACE_STYLE_FILL_AREA ( #49 ) ;
#298 = EDGE_CURVE ( 'NONE', #51, #191, #291, .T. ) ;
#299 = CYLINDRICAL_SURFACE ( 'NONE', #279, 0.2753149094999999824 ) ;
ENDSEC;
END-ISO-10303-21;
