ISO-10303-21;
HEADER;
FILE_DESCRIPTION (( 'STEP AP214' ),
    '1' );
FILE_NAME ('84595.STEP',
    '2023-07-12T13:09:38',
    ( '' ),
    ( '' ),
    'SwSTEP 2.0',
    'SolidWorks 2023',
    '' );
FILE_SCHEMA (( 'AUTOMOTIVE_DESIGN' ));
ENDSEC;

DATA;
#1 = DIRECTION ( 'NONE',  ( -1.000000000000000000, 0.000000000000000000, 0.000000000000000000 ) ) ;
#2 = LENGTH_MEASURE_WITH_UNIT ( LENGTH_MEASURE( 0.02539999999999999897 ), #61 );
#3 = EDGE_CURVE ( 'NONE', #36, #158, #250, .T. ) ;
#4 = DIRECTION ( 'NONE',  ( 1.000000000000000000, 0.000000000000000000, 0.000000000000000000 ) ) ;
#5 = FILL_AREA_STYLE_COLOUR ( '', #251 ) ;
#6 = DIRECTION ( 'NONE',  ( 1.000000000000000000, 0.000000000000000000, 0.000000000000000000 ) ) ;
#7 = AXIS2_PLACEMENT_3D ( 'NONE', #60, #41, #266 ) ;
#8 = CIRCLE ( 'NONE', #168, 0.02000000000000000042 ) ;
#9 = DIRECTION ( 'NONE',  ( 4.846530102532920424E-33, -1.000000000000000000, -0.000000000000000000 ) ) ;
#10 = APPLICATION_CONTEXT ( 'automotive_design' ) ;
#11 = FILL_AREA_STYLE_COLOUR ( '', #113 ) ;
#12 = EDGE_LOOP ( 'NONE', ( #140, #207, #52, #284 ) ) ;
#13 = CIRCLE ( 'NONE', #101, 0.06249999999999975714 ) ;
#14 = FILL_AREA_STYLE ('',( #11 ) ) ;
#15 = EDGE_LOOP ( 'NONE', ( #107, #296, #104, #204 ) ) ;
#16 = ORIENTED_EDGE ( 'NONE', *, *, #123, .F. ) ;
#17 = CARTESIAN_POINT ( 'NONE',  ( 2.374688160355991503E-16, 0.04889065730689284156, 0.000000000000000000 ) ) ;
#18 = PRESENTATION_STYLE_ASSIGNMENT (( #306 ) ) ;
#19 = PRODUCT_DEFINITION_SHAPE ( 'NONE', 'NONE',  #105 ) ;
#20 = STYLED_ITEM ( 'NONE', ( #40 ), #54 ) ;
#21 = CYLINDRICAL_SURFACE ( 'NONE', #274, 0.06249999999999984734 ) ;
#22 = AXIS2_PLACEMENT_3D ( 'NONE', #216, #63, #1 ) ;
#23 = DIRECTION ( 'NONE',  ( -1.000000000000000000, -1.365923996832137033E-16, 0.000000000000000000 ) ) ;
#24 = CYLINDRICAL_SURFACE ( 'NONE', #22, 0.06249999999999984734 ) ;
#25 =( NAMED_UNIT ( * ) SI_UNIT ( $, .STERADIAN. ) SOLID_ANGLE_UNIT ( ) );
#26 = PLANE ( 'NONE',  #55 ) ;
#27 =( GEOMETRIC_REPRESENTATION_CONTEXT ( 3 ) GLOBAL_UNCERTAINTY_ASSIGNED_CONTEXT ( ( #181 ) ) GLOBAL_UNIT_ASSIGNED_CONTEXT ( ( #102, #99, #127 ) ) REPRESENTATION_CONTEXT ( 'NONE', 'WORKASPACE' ) );
#28 = FACE_OUTER_BOUND ( 'NONE', #299, .T. ) ;
#29 = MECHANICAL_DESIGN_GEOMETRIC_PRESENTATION_REPRESENTATION (  '', ( #201 ), #265 ) ;
#30 = COLOUR_RGB ( '',1.000000000000000000, 0.000000000000000000, 0.000000000000000000 ) ;
#31 = AXIS2_PLACEMENT_3D ( 'NONE', #200, #125, #155 ) ;
#32 = LINE ( 'NONE', #275, #71 ) ;
#33 = EDGE_LOOP ( 'NONE', ( #187, #211 ) ) ;
#34 =( NAMED_UNIT ( * ) PLANE_ANGLE_UNIT ( ) SI_UNIT ( $, .RADIAN. ) );
#35 =( NAMED_UNIT ( * ) PLANE_ANGLE_UNIT ( ) SI_UNIT ( $, .RADIAN. ) );
#36 = VERTEX_POINT ( 'NONE', #122 ) ;
#37 = ORIENTED_EDGE ( 'NONE', *, *, #192, .T. ) ;
#38 = VECTOR ( 'NONE', #142, 39.37007874015748143 ) ;
#39 = DIRECTION ( 'NONE',  ( -1.214494806787991809E-16, 1.000000000000000000, -0.000000000000000000 ) ) ;
#40 = PRESENTATION_STYLE_ASSIGNMENT (( #116 ) ) ;
#41 = DIRECTION ( 'NONE',  ( -4.846530102532920424E-33, 1.000000000000000000, 0.000000000000000000 ) ) ;
#42 =( NAMED_UNIT ( * ) SI_UNIT ( $, .STERADIAN. ) SOLID_ANGLE_UNIT ( ) );
#43 = CONICAL_SURFACE ( 'NONE', #232, 0.02000000000000000042, 0.7155849933176765543 ) ;
#44 = LENGTH_MEASURE_WITH_UNIT ( LENGTH_MEASURE( 0.02539999999999999897 ), #149 );
#45 = UNCERTAINTY_MEASURE_WITH_UNIT (LENGTH_MEASURE( 1.000000000000000082E-05 ), #119, 'distance_accuracy_value', 'NONE');
#46 = LENGTH_MEASURE_WITH_UNIT ( LENGTH_MEASURE( 0.02539999999999999897 ), #205 );
#47 = EDGE_CURVE ( 'NONE', #301, #159, #194, .T. ) ;
#48 = APPLICATION_PROTOCOL_DEFINITION ( 'draft international standard', 'automotive_design', 1998, #154 ) ;
#49 = CARTESIAN_POINT ( 'NONE',  ( 6.123233995736763571E-17, 1.500000000000000222, 0.000000000000000000 ) ) ;
#50 = MECHANICAL_DESIGN_GEOMETRIC_PRESENTATION_REPRESENTATION (  '', ( #20 ), #145 ) ;
#51 = CONICAL_SURFACE ( 'NONE', #293, 0.02000000000000000042, 0.7155849933176765543 ) ;
#52 = ORIENTED_EDGE ( 'NONE', *, *, #123, .T. ) ;
#53 = ORIENTED_EDGE ( 'NONE', *, *, #292, .F. ) ;
#54 = ADVANCED_FACE ( 'NONE', ( #277 ), #43, .T. ) ;
#55 = AXIS2_PLACEMENT_3D ( 'NONE', #98, #124, #294 ) ;
#56 = EDGE_CURVE ( 'NONE', #133, #159, #219, .T. ) ;
#57 = CARTESIAN_POINT ( 'NONE',  ( -0.06249999999999999306, 0.04889065730689275829, 0.000000000000000000 ) ) ;
#58 = FILL_AREA_STYLE_COLOUR ( '', #139 ) ;
#59 = DIRECTION ( 'NONE',  ( -1.214494806787991809E-16, 1.000000000000000000, -0.000000000000000000 ) ) ;
#60 = CARTESIAN_POINT ( 'NONE',  ( -2.369500423704768160E-34, 0.04889065730689275829, 0.000000000000000000 ) ) ;
#61 =( LENGTH_UNIT ( ) NAMED_UNIT ( * ) SI_UNIT ( $, .METRE. ) );
#62 = CIRCLE ( 'NONE', #246, 0.06250000000000000000 ) ;
#63 = DIRECTION ( 'NONE',  ( -1.214494806787991809E-16, 1.000000000000000000, -0.000000000000000000 ) ) ;
#64 =( CONVERSION_BASED_UNIT ( 'INCH', #281 ) LENGTH_UNIT ( ) NAMED_UNIT ( #136 ) );
#65 = PRESENTATION_STYLE_ASSIGNMENT (( #196 ) ) ;
#66 = PRODUCT ( '84595', '84595', '', ( #128 ) ) ;
#67 = EDGE_LOOP ( 'NONE', ( #220, #120 ) ) ;
#68 = DIRECTION ( 'NONE',  ( -1.000000000000000000, -4.846530102532920424E-33, 0.000000000000000000 ) ) ;
#69 = CARTESIAN_POINT ( 'NONE',  ( -0.06249999999999986816, 1.500000000000000222, 0.000000000000000000 ) ) ;
#70 = ADVANCED_FACE ( 'NONE', ( #28 ), #51, .T. ) ;
#71 = VECTOR ( 'NONE', #193, 39.37007874015748143 ) ;
#72 =( CONVERSION_BASED_UNIT ( 'INCH', #46 ) LENGTH_UNIT ( ) NAMED_UNIT ( #134 ) );
#73 = ADVANCED_FACE ( 'NONE', ( #197 ), #267, .T. ) ;
#74 = UNCERTAINTY_MEASURE_WITH_UNIT (LENGTH_MEASURE( 1.000000000000000082E-05 ), #64, 'distance_accuracy_value', 'NONE');
#75 = FILL_AREA_STYLE_COLOUR ( '', #189 ) ;
#76 = CARTESIAN_POINT ( 'NONE',  ( 6.123233995736763571E-17, 1.500000000000000222, 0.000000000000000000 ) ) ;
#77 = DIRECTION ( 'NONE',  ( -1.214494806787991809E-16, 1.000000000000000000, -0.000000000000000000 ) ) ;
#78 = UNCERTAINTY_MEASURE_WITH_UNIT (LENGTH_MEASURE( 1.000000000000000082E-05 ), #72, 'distance_accuracy_value', 'NONE');
#79 = VERTEX_POINT ( 'NONE', #210 ) ;
#80 = ORIENTED_EDGE ( 'NONE', *, *, #279, .T. ) ;
#81 = FILL_AREA_STYLE ('',( #137 ) ) ;
#82 =( GEOMETRIC_REPRESENTATION_CONTEXT ( 3 ) GLOBAL_UNCERTAINTY_ASSIGNED_CONTEXT ( ( #270 ) ) GLOBAL_UNIT_ASSIGNED_CONTEXT ( ( #150, #261, #25 ) ) REPRESENTATION_CONTEXT ( 'NONE', 'WORKASPACE' ) );
#83 = DIRECTION ( 'NONE',  ( 4.846530102532920424E-33, -1.000000000000000000, -0.000000000000000000 ) ) ;
#84 = DIMENSIONAL_EXPONENTS ( 1.000000000000000000, 0.000000000000000000, 0.000000000000000000, 0.000000000000000000, 0.000000000000000000, 0.000000000000000000, 0.000000000000000000 ) ;
#85 = SURFACE_STYLE_FILL_AREA ( #81 ) ;
#86 = CARTESIAN_POINT ( 'NONE',  ( 2.348885403475775820E-67, -4.846530102532920338E-35, 0.000000000000000000 ) ) ;
#87 =( GEOMETRIC_REPRESENTATION_CONTEXT ( 3 ) GLOBAL_UNCERTAINTY_ASSIGNED_CONTEXT ( ( #78 ) ) GLOBAL_UNIT_ASSIGNED_CONTEXT ( ( #72, #183, #263 ) ) REPRESENTATION_CONTEXT ( 'NONE', 'WORKASPACE' ) );
#88 =( LENGTH_UNIT ( ) NAMED_UNIT ( * ) SI_UNIT ( $, .METRE. ) );
#89 = ADVANCED_BREP_SHAPE_REPRESENTATION ( '84595', ( #165, #254, #103 ), #82 ) ;
#90 =( CONVERSION_BASED_UNIT ( 'INCH', #2 ) LENGTH_UNIT ( ) NAMED_UNIT ( #190 ) );
#91 = DIRECTION ( 'NONE',  ( -1.000000000000000000, 0.000000000000000000, 0.000000000000000000 ) ) ;
#92 = DIRECTION ( 'NONE',  ( -1.214494806787991809E-16, 1.000000000000000000, -0.000000000000000000 ) ) ;
#93 = FILL_AREA_STYLE ('',( #5 ) ) ;
#94 = APPLICATION_PROTOCOL_DEFINITION ( 'draft international standard', 'automotive_design', 1998, #10 ) ;
#95 = MECHANICAL_DESIGN_GEOMETRIC_PRESENTATION_REPRESENTATION (  '', ( #213 ), #286 ) ;
#96 = PRODUCT_DEFINITION_FORMATION_WITH_SPECIFIED_SOURCE ( 'ANY', '', #66, .NOT_KNOWN. ) ;
#97 = DIRECTION ( 'NONE',  ( -4.846530102532920424E-33, 1.000000000000000000, 0.000000000000000000 ) ) ;
#98 = CARTESIAN_POINT ( 'NONE',  ( 0.06249999999999999306, 1.500000000000000222, 0.000000000000000000 ) ) ;
#99 =( NAMED_UNIT ( * ) PLANE_ANGLE_UNIT ( ) SI_UNIT ( $, .RADIAN. ) );
#100 = DIRECTION ( 'NONE',  ( -4.846530102532920424E-33, 1.000000000000000000, 0.000000000000000000 ) ) ;
#101 = AXIS2_PLACEMENT_3D ( 'NONE', #237, #39, #240 ) ;
#102 =( CONVERSION_BASED_UNIT ( 'INCH', #247 ) LENGTH_UNIT ( ) NAMED_UNIT ( #84 ) );
#103 = AXIS2_PLACEMENT_3D ( 'NONE', #245, #226, #6 ) ;
#104 = ORIENTED_EDGE ( 'NONE', *, *, #228, .T. ) ;
#105 = PRODUCT_DEFINITION ( 'UNKNOWN', '', #96, #264 ) ;
#106 = PRESENTATION_LAYER_ASSIGNMENT (  '', '', ( #186 ) ) ;
#107 = ORIENTED_EDGE ( 'NONE', *, *, #279, .F. ) ;
#108 = SURFACE_STYLE_FILL_AREA ( #14 ) ;
#109 = EDGE_LOOP ( 'NONE', ( #37, #283 ) ) ;
#110 = PRESENTATION_STYLE_ASSIGNMENT (( #188 ) ) ;
#111 = DIRECTION ( 'NONE',  ( -1.000000000000000000, -1.214494806787991809E-16, 0.000000000000000000 ) ) ;
#112 = CLOSED_SHELL ( 'NONE', ( #70, #271, #54, #73 ) ) ;
#113 = COLOUR_RGB ( '',1.000000000000000000, 0.000000000000000000, 0.000000000000000000 ) ;
#114 = DIMENSIONAL_EXPONENTS ( 1.000000000000000000, 0.000000000000000000, 0.000000000000000000, 0.000000000000000000, 0.000000000000000000, 0.000000000000000000, 0.000000000000000000 ) ;
#115 = FACE_OUTER_BOUND ( 'NONE', #164, .T. ) ;
#116 = SURFACE_STYLE_USAGE ( .BOTH. , #170 ) ;
#117 =( CONVERSION_BASED_UNIT ( 'INCH', #253 ) LENGTH_UNIT ( ) NAMED_UNIT ( #300 ) );
#118 = EDGE_CURVE ( 'NONE', #242, #301, #8, .T. ) ;
#119 =( CONVERSION_BASED_UNIT ( 'INCH', #169 ) LENGTH_UNIT ( ) NAMED_UNIT ( #114 ) );
#120 = ORIENTED_EDGE ( 'NONE', *, *, #292, .T. ) ;
#121 = PRESENTATION_LAYER_ASSIGNMENT (  '', '', ( #20 ) ) ;
#122 = CARTESIAN_POINT ( 'NONE',  ( 0.06250000000000001388, 0.04889065730689284850, 7.654042494670945219E-18 ) ) ;
#123 = EDGE_CURVE ( 'NONE', #242, #133, #32, .T. ) ;
#124 = DIRECTION ( 'NONE',  ( 1.214494806787991809E-16, -1.000000000000000000, 0.000000000000000000 ) ) ;
#125 = DIRECTION ( 'NONE',  ( 4.846530102532920424E-33, -1.000000000000000000, -0.000000000000000000 ) ) ;
#126 = CARTESIAN_POINT ( 'NONE',  ( 0.06249999999999990286, 1.500000000000000222, 7.654042494670939056E-18 ) ) ;
#127 =( NAMED_UNIT ( * ) SI_UNIT ( $, .STERADIAN. ) SOLID_ANGLE_UNIT ( ) );
#128 = PRODUCT_CONTEXT ( 'NONE', #154, 'mechanical' ) ;
#129 = PRESENTATION_LAYER_ASSIGNMENT (  '', '', ( #156 ) ) ;
#130 = PRESENTATION_STYLE_ASSIGNMENT (( #209 ) ) ;
#131 = LINE ( 'NONE', #244, #173 ) ;
#132 = VECTOR ( 'NONE', #92, 39.37007874015748143 ) ;
#133 = VERTEX_POINT ( 'NONE', #57 ) ;
#134 = DIMENSIONAL_EXPONENTS ( 1.000000000000000000, 0.000000000000000000, 0.000000000000000000, 0.000000000000000000, 0.000000000000000000, 0.000000000000000000, 0.000000000000000000 ) ;
#135 = DIRECTION ( 'NONE',  ( -1.214494806787991809E-16, 1.000000000000000000, 0.000000000000000000 ) ) ;
#136 = DIMENSIONAL_EXPONENTS ( 1.000000000000000000, 0.000000000000000000, 0.000000000000000000, 0.000000000000000000, 0.000000000000000000, 0.000000000000000000, 0.000000000000000000 ) ;
#137 = FILL_AREA_STYLE_COLOUR ( '', #297 ) ;
#138 = PLANE ( 'NONE',  #7 ) ;
#139 = COLOUR_RGB ( '',1.000000000000000000, 0.000000000000000000, 0.000000000000000000 ) ;
#140 = ORIENTED_EDGE ( 'NONE', *, *, #47, .F. ) ;
#141 = CARTESIAN_POINT ( 'NONE',  ( -0.06249999999999952122, 0.04889065730689283462, 0.000000000000000000 ) ) ;
#142 = DIRECTION ( 'NONE',  ( 0.6560590289905083861, 0.7547095802227710148, 8.034405899049467357E-17 ) ) ;
#143 =( NAMED_UNIT ( * ) SI_UNIT ( $, .STERADIAN. ) SOLID_ANGLE_UNIT ( ) );
#144 = ORIENTED_EDGE ( 'NONE', *, *, #166, .F. ) ;
#145 =( GEOMETRIC_REPRESENTATION_CONTEXT ( 3 ) GLOBAL_UNCERTAINTY_ASSIGNED_CONTEXT ( ( #160 ) ) GLOBAL_UNIT_ASSIGNED_CONTEXT ( ( #90, #305, #307 ) ) REPRESENTATION_CONTEXT ( 'NONE', 'WORKASPACE' ) );
#146 = FACE_OUTER_BOUND ( 'NONE', #15, .T. ) ;
#147 = ADVANCED_FACE ( 'NONE', ( #115 ), #214, .F. ) ;
#148 =( NAMED_UNIT ( * ) PLANE_ANGLE_UNIT ( ) SI_UNIT ( $, .RADIAN. ) );
#149 =( LENGTH_UNIT ( ) NAMED_UNIT ( * ) SI_UNIT ( $, .METRE. ) );
#150 =( CONVERSION_BASED_UNIT ( 'INCH', #44 ) LENGTH_UNIT ( ) NAMED_UNIT ( #252 ) );
#151 = FILL_AREA_STYLE ('',( #75 ) ) ;
#152 = PRESENTATION_LAYER_ASSIGNMENT (  '', '', ( #201 ) ) ;
#153 =( LENGTH_UNIT ( ) NAMED_UNIT ( * ) SI_UNIT ( $, .METRE. ) );
#154 = APPLICATION_CONTEXT ( 'automotive_design' ) ;
#155 = DIRECTION ( 'NONE',  ( 1.000000000000000000, 4.846530102532920424E-33, 0.000000000000000000 ) ) ;
#156 = STYLED_ITEM ( 'NONE', ( #291 ), #70 ) ;
#157 = SURFACE_SIDE_STYLE ('',( #108 ) ) ;
#158 = VERTEX_POINT ( 'NONE', #141 ) ;
#159 = VERTEX_POINT ( 'NONE', #162 ) ;
#160 = UNCERTAINTY_MEASURE_WITH_UNIT (LENGTH_MEASURE( 1.000000000000000082E-05 ), #90, 'distance_accuracy_value', 'NONE');
#161 = PRESENTATION_LAYER_ASSIGNMENT (  '', '', ( #213 ) ) ;
#162 = CARTESIAN_POINT ( 'NONE',  ( 0.06249999999999999306, 0.04889065730689275829, 7.654042494670957545E-18 ) ) ;
#163 = SURFACE_STYLE_FILL_AREA ( #235 ) ;
#164 = EDGE_LOOP ( 'NONE', ( #144, #195 ) ) ;
#165 = MANIFOLD_SOLID_BREP ( 'Revolve - Cutting Edge', #112 ) ;
#166 = EDGE_CURVE ( 'NONE', #158, #36, #13, .T. ) ;
#167 = CIRCLE ( 'NONE', #206, 0.06249999999999993061 ) ;
#168 = AXIS2_PLACEMENT_3D ( 'NONE', #278, #83, #212 ) ;
#169 = LENGTH_MEASURE_WITH_UNIT ( LENGTH_MEASURE( 0.02539999999999999897 ), #295 );
#170 = SURFACE_SIDE_STYLE ('',( #257 ) ) ;
#171 = ORIENTED_EDGE ( 'NONE', *, *, #47, .T. ) ;
#172 = MECHANICAL_DESIGN_GEOMETRIC_PRESENTATION_REPRESENTATION (  '', ( #156 ), #27 ) ;
#173 = VECTOR ( 'NONE', #258, 39.37007874015748143 ) ;
#174 = SHAPE_DEFINITION_REPRESENTATION ( #19, #89 ) ;
#175 = SURFACE_SIDE_STYLE ('',( #287 ) ) ;
#176 = CARTESIAN_POINT ( 'NONE',  ( 0.02000000000000000042, 0.000000000000000000, 5.051668046482830809E-18 ) ) ;
#177 = DIRECTION ( 'NONE',  ( -1.000000000000000000, -4.846530102532920424E-33, 0.000000000000000000 ) ) ;
#178 = SURFACE_SIDE_STYLE ('',( #289 ) ) ;
#179 = CARTESIAN_POINT ( 'NONE',  ( 4.697770806951551639E-67, -9.693060205065840677E-35, 0.000000000000000000 ) ) ;
#180 = CIRCLE ( 'NONE', #31, 0.02000000000000000042 ) ;
#181 = UNCERTAINTY_MEASURE_WITH_UNIT (LENGTH_MEASURE( 1.000000000000000082E-05 ), #102, 'distance_accuracy_value', 'NONE');
#182 = DIRECTION ( 'NONE',  ( 1.000000000000000000, 0.000000000000000000, 0.000000000000000000 ) ) ;
#183 =( NAMED_UNIT ( * ) PLANE_ANGLE_UNIT ( ) SI_UNIT ( $, .RADIAN. ) );
#184 = DIRECTION ( 'NONE',  ( -1.214494806787991809E-16, 1.000000000000000000, -0.000000000000000000 ) ) ;
#185 = ORIENTED_EDGE ( 'NONE', *, *, #166, .T. ) ;
#186 = STYLED_ITEM ( 'NONE', ( #110 ), #254 ) ;
#187 = ORIENTED_EDGE ( 'NONE', *, *, #56, .F. ) ;
#188 = SURFACE_STYLE_USAGE ( .BOTH. , #175 ) ;
#189 = COLOUR_RGB ( '',1.000000000000000000, 0.000000000000000000, 0.000000000000000000 ) ;
#190 = DIMENSIONAL_EXPONENTS ( 1.000000000000000000, 0.000000000000000000, 0.000000000000000000, 0.000000000000000000, 0.000000000000000000, 0.000000000000000000, 0.000000000000000000 ) ;
#191 =( NAMED_UNIT ( * ) SI_UNIT ( $, .STERADIAN. ) SOLID_ANGLE_UNIT ( ) );
#192 = EDGE_CURVE ( 'NONE', #272, #79, #167, .T. ) ;
#193 = DIRECTION ( 'NONE',  ( -0.6560590289905083861, 0.7547095802227710148, 0.000000000000000000 ) ) ;
#194 = LINE ( 'NONE', #234, #38 ) ;
#195 = ORIENTED_EDGE ( 'NONE', *, *, #3, .F. ) ;
#196 = SURFACE_STYLE_USAGE ( .BOTH. , #308 ) ;
#197 = FACE_OUTER_BOUND ( 'NONE', #67, .T. ) ;
#198 = AXIS2_PLACEMENT_3D ( 'NONE', #304, #135, #111 ) ;
#199 = CARTESIAN_POINT ( 'NONE',  ( -0.02000000000000000042, -1.938612041013168135E-34, 0.000000000000000000 ) ) ;
#200 = CARTESIAN_POINT ( 'NONE',  ( 4.697770806951551639E-67, -9.693060205065840677E-35, 0.000000000000000000 ) ) ;
#201 = STYLED_ITEM ( 'NONE', ( #65 ), #271 ) ;
#202 = ADVANCED_FACE ( 'NONE', ( #224 ), #26, .F. ) ;
#203 = CARTESIAN_POINT ( 'NONE',  ( 6.123233995736763571E-17, 1.500000000000000222, 0.000000000000000000 ) ) ;
#204 = ORIENTED_EDGE ( 'NONE', *, *, #239, .F. ) ;
#205 =( LENGTH_UNIT ( ) NAMED_UNIT ( * ) SI_UNIT ( $, .METRE. ) );
#206 = AXIS2_PLACEMENT_3D ( 'NONE', #49, #184, #222 ) ;
#207 = ORIENTED_EDGE ( 'NONE', *, *, #118, .F. ) ;
#208 = ADVANCED_FACE ( 'NONE', ( #146 ), #21, .T. ) ;
#209 = SURFACE_STYLE_USAGE ( .BOTH. , #157 ) ;
#210 = CARTESIAN_POINT ( 'NONE',  ( 0.06249999999999999306, 1.500000000000000222, 7.654042494670943678E-18 ) ) ;
#211 = ORIENTED_EDGE ( 'NONE', *, *, #231, .F. ) ;
#212 = DIRECTION ( 'NONE',  ( 1.000000000000000000, 4.846530102532920424E-33, 0.000000000000000000 ) ) ;
#213 = STYLED_ITEM ( 'NONE', ( #18 ), #165 ) ;
#214 = PLANE ( 'NONE',  #198 ) ;
#215 = DIRECTION ( 'NONE',  ( 4.846530102532920424E-33, -1.000000000000000000, -0.000000000000000000 ) ) ;
#216 = CARTESIAN_POINT ( 'NONE',  ( 6.123233995736763571E-17, 1.500000000000000222, 0.000000000000000000 ) ) ;
#217 = CARTESIAN_POINT ( 'NONE',  ( 4.697770806951551639E-67, -9.693060205065840677E-35, 0.000000000000000000 ) ) ;
#218 =( LENGTH_UNIT ( ) NAMED_UNIT ( * ) SI_UNIT ( $, .METRE. ) );
#219 = CIRCLE ( 'NONE', #241, 0.06250000000000000000 ) ;
#220 = ORIENTED_EDGE ( 'NONE', *, *, #118, .T. ) ;
#221 = PRESENTATION_LAYER_ASSIGNMENT (  '', '', ( #255 ) ) ;
#222 = DIRECTION ( 'NONE',  ( -1.000000000000000000, 0.000000000000000000, 0.000000000000000000 ) ) ;
#223 = FILL_AREA_STYLE ('',( #280 ) ) ;
#224 = FACE_OUTER_BOUND ( 'NONE', #109, .T. ) ;
#225 = DIRECTION ( 'NONE',  ( -1.214494806787991809E-16, 1.000000000000000000, -0.000000000000000000 ) ) ;
#226 = DIRECTION ( 'NONE',  ( 0.000000000000000000, 0.000000000000000000, 1.000000000000000000 ) ) ;
#227 = UNCERTAINTY_MEASURE_WITH_UNIT (LENGTH_MEASURE( 1.000000000000000082E-05 ), #117, 'distance_accuracy_value', 'NONE');
#228 = EDGE_CURVE ( 'NONE', #158, #272, #131, .T. ) ;
#229 = AXIS2_PLACEMENT_3D ( 'NONE', #17, #59, #23 ) ;
#230 = CARTESIAN_POINT ( 'NONE',  ( -2.369500423704768160E-34, 0.04889065730689275829, 0.000000000000000000 ) ) ;
#231 = EDGE_CURVE ( 'NONE', #159, #133, #62, .T. ) ;
#232 = AXIS2_PLACEMENT_3D ( 'NONE', #217, #97, #68 ) ;
#233 =( GEOMETRIC_REPRESENTATION_CONTEXT ( 3 ) GLOBAL_UNCERTAINTY_ASSIGNED_CONTEXT ( ( #45 ) ) GLOBAL_UNIT_ASSIGNED_CONTEXT ( ( #119, #34, #191 ) ) REPRESENTATION_CONTEXT ( 'NONE', 'WORKASPACE' ) );
#234 = CARTESIAN_POINT ( 'NONE',  ( 0.02000000000000000042, 0.000000000000000000, 2.449293598294706769E-18 ) ) ;
#235 = FILL_AREA_STYLE ('',( #58 ) ) ;
#236 = ORIENTED_EDGE ( 'NONE', *, *, #192, .F. ) ;
#237 = CARTESIAN_POINT ( 'NONE',  ( 2.374688160355991503E-16, 0.04889065730689284156, 0.000000000000000000 ) ) ;
#238 = EDGE_LOOP ( 'NONE', ( #185, #80, #236, #268 ) ) ;
#239 = EDGE_CURVE ( 'NONE', #79, #272, #302, .T. ) ;
#240 = DIRECTION ( 'NONE',  ( -1.000000000000000000, -1.365923996832137033E-16, 0.000000000000000000 ) ) ;
#241 = AXIS2_PLACEMENT_3D ( 'NONE', #260, #290, #182 ) ;
#242 = VERTEX_POINT ( 'NONE', #199 ) ;
#243 = AXIS2_PLACEMENT_3D ( 'NONE', #203, #225, #91 ) ;
#244 = CARTESIAN_POINT ( 'NONE',  ( -0.06249999999999978489, 1.500000000000000222, 0.000000000000000000 ) ) ;
#245 = CARTESIAN_POINT ( 'NONE',  ( 0.000000000000000000, 0.000000000000000000, 0.000000000000000000 ) ) ;
#246 = AXIS2_PLACEMENT_3D ( 'NONE', #230, #9, #4 ) ;
#247 = LENGTH_MEASURE_WITH_UNIT ( LENGTH_MEASURE( 0.02539999999999999897 ), #153 );
#248 = DIRECTION ( 'NONE',  ( -1.000000000000000000, 0.000000000000000000, 0.000000000000000000 ) ) ;
#249 = PRODUCT_RELATED_PRODUCT_CATEGORY ( 'part', '', ( #66 ) ) ;
#250 = CIRCLE ( 'NONE', #229, 0.06249999999999975714 ) ;
#251 = COLOUR_RGB ( '',0.7921568627450980005, 0.8196078431372548767, 0.9333333333333333481 ) ;
#252 = DIMENSIONAL_EXPONENTS ( 1.000000000000000000, 0.000000000000000000, 0.000000000000000000, 0.000000000000000000, 0.000000000000000000, 0.000000000000000000, 0.000000000000000000 ) ;
#253 = LENGTH_MEASURE_WITH_UNIT ( LENGTH_MEASURE( 0.02539999999999999897 ), #88 );
#254 = MANIFOLD_SOLID_BREP ( 'Revolve - Tool Body (Tipped Off)', #285 ) ;
#255 = STYLED_ITEM ( 'NONE', ( #130 ), #73 ) ;
#256 = FACE_OUTER_BOUND ( 'NONE', #33, .T. ) ;
#257 = SURFACE_STYLE_FILL_AREA ( #223 ) ;
#258 = DIRECTION ( 'NONE',  ( -1.214494806787991809E-16, 1.000000000000000000, -0.000000000000000000 ) ) ;
#259 = ADVANCED_FACE ( 'NONE', ( #282 ), #24, .T. ) ;
#260 = CARTESIAN_POINT ( 'NONE',  ( -2.369500423704768160E-34, 0.04889065730689275829, 0.000000000000000000 ) ) ;
#261 =( NAMED_UNIT ( * ) PLANE_ANGLE_UNIT ( ) SI_UNIT ( $, .RADIAN. ) );
#262 = SURFACE_STYLE_USAGE ( .BOTH. , #178 ) ;
#263 =( NAMED_UNIT ( * ) SI_UNIT ( $, .STERADIAN. ) SOLID_ANGLE_UNIT ( ) );
#264 = PRODUCT_DEFINITION_CONTEXT ( 'detailed design', #10, 'design' ) ;
#265 =( GEOMETRIC_REPRESENTATION_CONTEXT ( 3 ) GLOBAL_UNCERTAINTY_ASSIGNED_CONTEXT ( ( #227 ) ) GLOBAL_UNIT_ASSIGNED_CONTEXT ( ( #117, #35, #143 ) ) REPRESENTATION_CONTEXT ( 'NONE', 'WORKASPACE' ) );
#266 = DIRECTION ( 'NONE',  ( -1.000000000000000000, -4.846530102532920424E-33, 0.000000000000000000 ) ) ;
#267 = PLANE ( 'NONE',  #309 ) ;
#268 = ORIENTED_EDGE ( 'NONE', *, *, #228, .F. ) ;
#269 = MECHANICAL_DESIGN_GEOMETRIC_PRESENTATION_REPRESENTATION (  '', ( #186 ), #87 ) ;
#270 = UNCERTAINTY_MEASURE_WITH_UNIT (LENGTH_MEASURE( 1.000000000000000082E-05 ), #150, 'distance_accuracy_value', 'NONE');
#271 = ADVANCED_FACE ( 'NONE', ( #256 ), #138, .T. ) ;
#272 = VERTEX_POINT ( 'NONE', #69 ) ;
#273 = ORIENTED_EDGE ( 'NONE', *, *, #231, .T. ) ;
#274 = AXIS2_PLACEMENT_3D ( 'NONE', #76, #77, #248 ) ;
#275 = CARTESIAN_POINT ( 'NONE',  ( -0.02000000000000000042, -1.938612041013168135E-34, 0.000000000000000000 ) ) ;
#276 = SURFACE_SIDE_STYLE ('',( #85 ) ) ;
#277 = FACE_OUTER_BOUND ( 'NONE', #12, .T. ) ;
#278 = CARTESIAN_POINT ( 'NONE',  ( 4.697770806951551639E-67, -9.693060205065840677E-35, 0.000000000000000000 ) ) ;
#279 = EDGE_CURVE ( 'NONE', #36, #79, #288, .T. ) ;
#280 = FILL_AREA_STYLE_COLOUR ( '', #30 ) ;
#281 = LENGTH_MEASURE_WITH_UNIT ( LENGTH_MEASURE( 0.02539999999999999897 ), #218 );
#282 = FACE_OUTER_BOUND ( 'NONE', #238, .T. ) ;
#283 = ORIENTED_EDGE ( 'NONE', *, *, #239, .T. ) ;
#284 = ORIENTED_EDGE ( 'NONE', *, *, #56, .T. ) ;
#285 = CLOSED_SHELL ( 'NONE', ( #259, #147, #208, #202 ) ) ;
#286 =( GEOMETRIC_REPRESENTATION_CONTEXT ( 3 ) GLOBAL_UNCERTAINTY_ASSIGNED_CONTEXT ( ( #74 ) ) GLOBAL_UNIT_ASSIGNED_CONTEXT ( ( #64, #148, #42 ) ) REPRESENTATION_CONTEXT ( 'NONE', 'WORKASPACE' ) );
#287 = SURFACE_STYLE_FILL_AREA ( #93 ) ;
#288 = LINE ( 'NONE', #126, #132 ) ;
#289 = SURFACE_STYLE_FILL_AREA ( #151 ) ;
#290 = DIRECTION ( 'NONE',  ( 4.846530102532920424E-33, -1.000000000000000000, -0.000000000000000000 ) ) ;
#291 = PRESENTATION_STYLE_ASSIGNMENT (( #262 ) ) ;
#292 = EDGE_CURVE ( 'NONE', #301, #242, #180, .T. ) ;
#293 = AXIS2_PLACEMENT_3D ( 'NONE', #179, #100, #177 ) ;
#294 = DIRECTION ( 'NONE',  ( 1.000000000000000000, 1.214494806787991809E-16, 0.000000000000000000 ) ) ;
#295 =( LENGTH_UNIT ( ) NAMED_UNIT ( * ) SI_UNIT ( $, .METRE. ) );
#296 = ORIENTED_EDGE ( 'NONE', *, *, #3, .T. ) ;
#297 = COLOUR_RGB ( '',0.7921568627450980005, 0.8196078431372548767, 0.9333333333333333481 ) ;
#298 = MECHANICAL_DESIGN_GEOMETRIC_PRESENTATION_REPRESENTATION (  '', ( #255 ), #233 ) ;
#299 = EDGE_LOOP ( 'NONE', ( #53, #171, #273, #16 ) ) ;
#300 = DIMENSIONAL_EXPONENTS ( 1.000000000000000000, 0.000000000000000000, 0.000000000000000000, 0.000000000000000000, 0.000000000000000000, 0.000000000000000000, 0.000000000000000000 ) ;
#301 = VERTEX_POINT ( 'NONE', #176 ) ;
#302 = CIRCLE ( 'NONE', #243, 0.06249999999999993061 ) ;
#303 = DIRECTION ( 'NONE',  ( 1.000000000000000000, 4.846530102532920424E-33, 0.000000000000000000 ) ) ;
#304 = CARTESIAN_POINT ( 'NONE',  ( 2.374688160355991010E-16, 0.04889065730689275829, 0.000000000000000000 ) ) ;
#305 =( NAMED_UNIT ( * ) PLANE_ANGLE_UNIT ( ) SI_UNIT ( $, .RADIAN. ) );
#306 = SURFACE_STYLE_USAGE ( .BOTH. , #276 ) ;
#307 =( NAMED_UNIT ( * ) SI_UNIT ( $, .STERADIAN. ) SOLID_ANGLE_UNIT ( ) );
#308 = SURFACE_SIDE_STYLE ('',( #163 ) ) ;
#309 = AXIS2_PLACEMENT_3D ( 'NONE', #86, #215, #303 ) ;
ENDSEC;
END-ISO-10303-21;
