ISO-10303-21;
HEADER;
FILE_DESCRIPTION (( 'STEP AP214' ),
    '1' );
FILE_NAME ('Micro_RMEM-009-2.STEP',
    '2021-09-01T23:48:06',
    ( '' ),
    ( '' ),
    'SwSTEP 2.0',
    'SolidWorks 2020',
    '' );
FILE_SCHEMA (( 'AUTOMOTIVE_DESIGN' ));
ENDSEC;

DATA;
#1 = EDGE_CURVE ( 'NONE', #262, #141, #153, .T. ) ;
#2 = ADVANCED_BREP_SHAPE_REPRESENTATION ( 'Micro_RMEM-009-2', ( #108, #30 ), #191 ) ;
#3 = CYLINDRICAL_SURFACE ( 'NONE', #299, 0.05905500000000000332 ) ;
#4 = DIMENSIONAL_EXPONENTS ( 1.000000000000000000, 0.0000000000000000000, 0.0000000000000000000, 0.0000000000000000000, 0.0000000000000000000, 0.0000000000000000000, 0.0000000000000000000 ) ;
#5 = APPLICATION_PROTOCOL_DEFINITION ( 'draft international standard', 'automotive_design', 1998, #37 ) ;
#6 = CARTESIAN_POINT ( 'NONE',  ( 0.0000000000000000000, 0.0000000000000000000, 1.496062999999999921 ) ) ;
#7 = EDGE_LOOP ( 'NONE', ( #171, #68, #235, #25 ) ) ;
#8 = AXIS2_PLACEMENT_3D ( 'NONE', #243, #53, #147 ) ;
#9 = ORIENTED_EDGE ( 'NONE', *, *, #23, .F. ) ;
#10 = ORIENTED_EDGE ( 'NONE', *, *, #200, .T. ) ;
#11 = CARTESIAN_POINT ( 'NONE',  ( 0.0000000000000000000, 0.0000000000000000000, 1.481062999999999574 ) ) ;
#12 = CIRCLE ( 'NONE', #161, 0.01769878349999999892 ) ;
#13 = DIRECTION ( 'NONE',  ( -1.224646799147353207E-16, -0.0000000000000000000, -1.000000000000000000 ) ) ;
#14 = CARTESIAN_POINT ( 'NONE',  ( 0.0000000000000000000, 0.0000000000000000000, 0.0000000000000000000 ) ) ;
#15 = ADVANCED_FACE ( 'NONE', ( #121 ), #283, .T. ) ;
#16 = CARTESIAN_POINT ( 'NONE',  ( 1.301787301025644899E-17, 0.0000000000000000000, 0.1062990000000000046 ) ) ;
#17 = APPLICATION_PROTOCOL_DEFINITION ( 'draft international standard', 'automotive_design', 1998, #242 ) ;
#18 = SURFACE_STYLE_FILL_AREA ( #273 ) ;
#19 = EDGE_CURVE ( 'NONE', #136, #187, #182, .T. ) ;
#20 = DIRECTION ( 'NONE',  ( -0.0000000000000000000, -0.0000000000000000000, -1.000000000000000000 ) ) ;
#21 = EDGE_LOOP ( 'NONE', ( #74, #117, #160, #181 ) ) ;
#22 = ORIENTED_EDGE ( 'NONE', *, *, #42, .F. ) ;
#23 = EDGE_CURVE ( 'NONE', #111, #150, #62, .T. ) ;
#24 = CIRCLE ( 'NONE', #197, 0.04405499999999973326 ) ;
#25 = ORIENTED_EDGE ( 'NONE', *, *, #295, .F. ) ;
#26 =( NAMED_UNIT ( * ) PLANE_ANGLE_UNIT ( ) SI_UNIT ( $, .RADIAN. ) );
#27 = ORIENTED_EDGE ( 'NONE', *, *, #33, .F. ) ;
#28 = ORIENTED_EDGE ( 'NONE', *, *, #23, .T. ) ;
#29 = CLOSED_SHELL ( 'NONE', ( #82, #184, #79, #15, #116, #86, #107, #60, #143, #123 ) ) ;
#30 = AXIS2_PLACEMENT_3D ( 'NONE', #213, #46, #188 ) ;
#31 = DIRECTION ( 'NONE',  ( -1.000000000000000000, 0.0000000000000000000, 1.224646799147353207E-16 ) ) ;
#32 = ORIENTED_EDGE ( 'NONE', *, *, #42, .T. ) ;
#33 = EDGE_CURVE ( 'NONE', #150, #111, #12, .T. ) ;
#34 = EDGE_CURVE ( 'NONE', #141, #262, #207, .T. ) ;
#35 = DIRECTION ( 'NONE',  ( -1.000000000000000000, 0.0000000000000000000, 0.0000000000000000000 ) ) ;
#36 = EDGE_LOOP ( 'NONE', ( #27, #51, #265, #22 ) ) ;
#37 = APPLICATION_CONTEXT ( 'automotive_design' ) ;
#38 = CARTESIAN_POINT ( 'NONE',  ( 2.654392369533927398E-34, 0.0000000000000000000, 2.167475856207698752E-18 ) ) ;
#39 = STYLED_ITEM ( 'NONE', ( #254 ), #2 ) ;
#40 = DIRECTION ( 'NONE',  ( -1.224646799147353207E-16, -0.0000000000000000000, -1.000000000000000000 ) ) ;
#41 = DIRECTION ( 'NONE',  ( -1.224646799147353207E-16, -0.0000000000000000000, -1.000000000000000000 ) ) ;
#42 = EDGE_CURVE ( 'NONE', #111, #57, #152, .T. ) ;
#43 = LINE ( 'NONE', #179, #248 ) ;
#44 = CIRCLE ( 'NONE', #125, 0.01769878349999999892 ) ;
#45 = ORIENTED_EDGE ( 'NONE', *, *, #126, .T. ) ;
#46 = DIRECTION ( 'NONE',  ( 0.0000000000000000000, 0.0000000000000000000, 1.000000000000000000 ) ) ;
#47 = SURFACE_STYLE_FILL_AREA ( #237 ) ;
#48 = ORIENTED_EDGE ( 'NONE', *, *, #198, .T. ) ;
#49 = DIMENSIONAL_EXPONENTS ( 1.000000000000000000, 0.0000000000000000000, 0.0000000000000000000, 0.0000000000000000000, 0.0000000000000000000, 0.0000000000000000000, 0.0000000000000000000 ) ;
#50 = LENGTH_MEASURE_WITH_UNIT ( LENGTH_MEASURE( 0.02539999999999999897 ), #189 );
#51 = ORIENTED_EDGE ( 'NONE', *, *, #210, .T. ) ;
#52 = DIRECTION ( 'NONE',  ( -1.000000000000000000, 0.0000000000000000000, 0.0000000000000000000 ) ) ;
#53 = DIRECTION ( 'NONE',  ( 0.0000000000000000000, 0.0000000000000000000, -1.000000000000000000 ) ) ;
#54 = AXIS2_PLACEMENT_3D ( 'NONE', #70, #259, #163 ) ;
#55 = CARTESIAN_POINT ( 'NONE',  ( 2.654392369533927398E-34, 0.0000000000000000000, 2.167475856207698752E-18 ) ) ;
#56 = DIRECTION ( 'NONE',  ( -1.000000000000000000, 0.0000000000000000000, 0.0000000000000000000 ) ) ;
#57 = VERTEX_POINT ( 'NONE', #97 ) ;
#58 = DIRECTION ( 'NONE',  ( 1.000000000000000000, 0.0000000000000000000, 0.0000000000000000000 ) ) ;
#59 = VECTOR ( 'NONE', #294, 39.37007874015748143 ) ;
#60 = ADVANCED_FACE ( 'NONE', ( #199 ), #204, .T. ) ;
#61 = DIRECTION ( 'NONE',  ( 1.000000000000000000, 0.0000000000000000000, 0.0000000000000000000 ) ) ;
#62 = CIRCLE ( 'NONE', #165, 0.01769878349999999892 ) ;
#63 = LINE ( 'NONE', #106, #110 ) ;
#64 = DIRECTION ( 'NONE',  ( -0.0000000000000000000, -0.0000000000000000000, -1.000000000000000000 ) ) ;
#65 = CARTESIAN_POINT ( 'NONE',  ( -0.01769878349999998851, 4.699813764286196317E-18, 0.1062990000000000046 ) ) ;
#66 = DIRECTION ( 'NONE',  ( 1.000000000000000000, 0.0000000000000000000, 0.0000000000000000000 ) ) ;
#67 = AXIS2_PLACEMENT_3D ( 'NONE', #168, #170, #146 ) ;
#68 = ORIENTED_EDGE ( 'NONE', *, *, #249, .T. ) ;
#69 = FACE_OUTER_BOUND ( 'NONE', #115, .T. ) ;
#70 = CARTESIAN_POINT ( 'NONE',  ( 0.0000000000000000000, 0.0000000000000000000, 1.496062999999999921 ) ) ;
#71 = ORIENTED_EDGE ( 'NONE', *, *, #34, .T. ) ;
#72 = FILL_AREA_STYLE_COLOUR ( '', #240 ) ;
#73 = CARTESIAN_POINT ( 'NONE',  ( 0.0000000000000000000, 0.0000000000000000000, 1.496062999999999921 ) ) ;
#74 = ORIENTED_EDGE ( 'NONE', *, *, #33, .T. ) ;
#75 = CARTESIAN_POINT ( 'NONE',  ( 1.301787301025644899E-17, 0.0000000000000000000, 0.1062990000000000046 ) ) ;
#76 = AXIS2_PLACEMENT_3D ( 'NONE', #250, #124, #105 ) ;
#77 = ORIENTED_EDGE ( 'NONE', *, *, #126, .F. ) ;
#78 = CARTESIAN_POINT ( 'NONE',  ( 1.301787301025644899E-17, 0.0000000000000000000, 0.1062990000000000046 ) ) ;
#79 = ADVANCED_FACE ( 'NONE', ( #211 ), #281, .T. ) ;
#80 = COLOUR_RGB ( '',0.7921568627450980005, 0.8196078431372548767, 0.9333333333333333481 ) ;
#81 = DIRECTION ( 'NONE',  ( -1.224646799147353207E-16, -0.0000000000000000000, -1.000000000000000000 ) ) ;
#82 = ADVANCED_FACE ( 'NONE', ( #219 ), #282, .T. ) ;
#83 = AXIS2_PLACEMENT_3D ( 'NONE', #6, #90, #185 ) ;
#84 = FILL_AREA_STYLE_COLOUR ( '', #80 ) ;
#85 = CARTESIAN_POINT ( 'NONE',  ( 0.01769878349999999892, 2.167475856207698752E-18, -2.167475856207698752E-18 ) ) ;
#86 = ADVANCED_FACE ( 'NONE', ( #166 ), #88, .T. ) ;
#87 = UNCERTAINTY_MEASURE_WITH_UNIT (LENGTH_MEASURE( 1.000000000000000082E-05 ), #140, 'distance_accuracy_value', 'NONE');
#88 = PLANE ( 'NONE',  #83 ) ;
#89 = SURFACE_STYLE_USAGE ( .BOTH. , #193 ) ;
#90 = DIRECTION ( 'NONE',  ( 0.0000000000000000000, 0.0000000000000000000, 1.000000000000000000 ) ) ;
#91 = LENGTH_MEASURE_WITH_UNIT ( LENGTH_MEASURE( 0.02539999999999999897 ), #139 );
#92 = STYLED_ITEM ( 'NONE', ( #94 ), #108 ) ;
#93 = EDGE_LOOP ( 'NONE', ( #234, #28, #192, #225 ) ) ;
#94 = PRESENTATION_STYLE_ASSIGNMENT (( #277 ) ) ;
#95 = ORIENTED_EDGE ( 'NONE', *, *, #200, .F. ) ;
#96 = DIRECTION ( 'NONE',  ( -1.224646799147353207E-16, -0.0000000000000000000, -1.000000000000000000 ) ) ;
#97 = CARTESIAN_POINT ( 'NONE',  ( 0.05905500000000004496, 7.232151672364700045E-18, 0.3408417587646226932 ) ) ;
#98 = AXIS2_PLACEMENT_3D ( 'NONE', #241, #286, #35 ) ;
#99 = CARTESIAN_POINT ( 'NONE',  ( 4.174107688868495408E-17, 0.0000000000000000000, 0.3408417587646226932 ) ) ;
#100 = ORIENTED_EDGE ( 'NONE', *, *, #280, .F. ) ;
#101 = PRESENTATION_LAYER_ASSIGNMENT (  '', '', ( #92 ) ) ;
#102 =( NAMED_UNIT ( * ) PLANE_ANGLE_UNIT ( ) SI_UNIT ( $, .RADIAN. ) );
#103 = CARTESIAN_POINT ( 'NONE',  ( -0.05905499999999996169, 0.0000000000000000000, 0.3408417587646226932 ) ) ;
#104 = EDGE_CURVE ( 'NONE', #257, #141, #142, .T. ) ;
#105 = DIRECTION ( 'NONE',  ( 1.000000000000000000, 0.0000000000000000000, 0.0000000000000000000 ) ) ;
#106 = CARTESIAN_POINT ( 'NONE',  ( 0.05905500000000000332, 7.232151672364695422E-18, 1.496062999999999921 ) ) ;
#107 = ADVANCED_FACE ( 'NONE', ( #69 ), #230, .T. ) ;
#108 = MANIFOLD_SOLID_BREP ( 'Cut-Revolve1', #29 ) ;
#109 = ORIENTED_EDGE ( 'NONE', *, *, #249, .F. ) ;
#110 = VECTOR ( 'NONE', #64, 39.37007874015748143 ) ;
#111 = VERTEX_POINT ( 'NONE', #203 ) ;
#112 = ORIENTED_EDGE ( 'NONE', *, *, #104, .F. ) ;
#113 = EDGE_LOOP ( 'NONE', ( #298, #9, #32, #45 ) ) ;
#114 = AXIS2_PLACEMENT_3D ( 'NONE', #144, #270, #66 ) ;
#115 = EDGE_LOOP ( 'NONE', ( #112, #95, #239, #196 ) ) ;
#116 = ADVANCED_FACE ( 'NONE', ( #154 ), #3, .T. ) ;
#117 = ORIENTED_EDGE ( 'NONE', *, *, #261, .T. ) ;
#118 = DIRECTION ( 'NONE',  ( -0.0000000000000000000, -0.0000000000000000000, -1.000000000000000000 ) ) ;
#119 = DIRECTION ( 'NONE',  ( -1.224646799147353207E-16, -0.0000000000000000000, -1.000000000000000000 ) ) ;
#120 = DIRECTION ( 'NONE',  ( 0.0000000000000000000, 0.0000000000000000000, 1.000000000000000000 ) ) ;
#121 = FACE_OUTER_BOUND ( 'NONE', #7, .T. ) ;
#122 = AXIS2_PLACEMENT_3D ( 'NONE', #14, #120, #224 ) ;
#123 = ADVANCED_FACE ( 'NONE', ( #222 ), #285, .F. ) ;
#124 = DIRECTION ( 'NONE',  ( 0.0000000000000000000, 0.0000000000000000000, 1.000000000000000000 ) ) ;
#125 = AXIS2_PLACEMENT_3D ( 'NONE', #38, #129, #297 ) ;
#126 = EDGE_CURVE ( 'NONE', #57, #266, #253, .T. ) ;
#127 = LENGTH_MEASURE_WITH_UNIT ( LENGTH_MEASURE( 0.02539999999999999897 ), #228 );
#128 = PRODUCT_DEFINITION_CONTEXT ( 'detailed design', #37, 'design' ) ;
#129 = DIRECTION ( 'NONE',  ( -1.224646799147353207E-16, -0.0000000000000000000, -1.000000000000000000 ) ) ;
#130 = DIRECTION ( 'NONE',  ( -0.1736481776669311639, 2.126576849575783008E-17, 0.9848077530122080203 ) ) ;
#131 = AXIS2_PLACEMENT_3D ( 'NONE', #159, #41, #180 ) ;
#132 = VECTOR ( 'NONE', #20, 39.37007874015748143 ) ;
#133 = LINE ( 'NONE', #232, #59 ) ;
#134 = PRODUCT_CONTEXT ( 'NONE', #242, 'mechanical' ) ;
#135 = DIRECTION ( 'NONE',  ( 0.0000000000000000000, 0.0000000000000000000, -1.000000000000000000 ) ) ;
#136 = VERTEX_POINT ( 'NONE', #269 ) ;
#137 = EDGE_CURVE ( 'NONE', #266, #57, #263, .T. ) ;
#138 = CARTESIAN_POINT ( 'NONE',  ( 0.04405499999999973326, 5.395181473643630390E-18, 1.496062999999999921 ) ) ;
#139 =( LENGTH_UNIT ( ) NAMED_UNIT ( * ) SI_UNIT ( $, .METRE. ) );
#140 =( CONVERSION_BASED_UNIT ( 'INCH', #50 ) LENGTH_UNIT ( ) NAMED_UNIT ( #4 ) );
#141 = VERTEX_POINT ( 'NONE', #288 ) ;
#142 = LINE ( 'NONE', #138, #236 ) ;
#143 = ADVANCED_FACE ( 'NONE', ( #173 ), #244, .T. ) ;
#144 = CARTESIAN_POINT ( 'NONE',  ( 1.301787301025644899E-17, 0.0000000000000000000, 0.1062990000000000046 ) ) ;
#145 = AXIS2_PLACEMENT_3D ( 'NONE', #149, #13, #290 ) ;
#146 = DIRECTION ( 'NONE',  ( -1.000000000000000000, 0.0000000000000000000, 1.224646799147353207E-16 ) ) ;
#147 = DIRECTION ( 'NONE',  ( 1.000000000000000000, 0.0000000000000000000, 0.0000000000000000000 ) ) ;
#148 = DIRECTION ( 'NONE',  ( 0.0000000000000000000, 0.0000000000000000000, -1.000000000000000000 ) ) ;
#149 = CARTESIAN_POINT ( 'NONE',  ( 4.174107688868495408E-17, 0.0000000000000000000, 0.3408417587646226932 ) ) ;
#150 = VERTEX_POINT ( 'NONE', #65 ) ;
#151 = AXIS2_PLACEMENT_3D ( 'NONE', #11, #148, #58 ) ;
#152 = LINE ( 'NONE', #260, #177 ) ;
#153 = CIRCLE ( 'NONE', #8, 0.05905500000000000332 ) ;
#154 = FACE_OUTER_BOUND ( 'NONE', #233, .T. ) ;
#155 = DIRECTION ( 'NONE',  ( 0.0000000000000000000, 0.0000000000000000000, 1.000000000000000000 ) ) ;
#156 = AXIS2_PLACEMENT_3D ( 'NONE', #16, #247, #227 ) ;
#157 = PRODUCT ( 'Micro_RMEM-009-2', 'Micro_RMEM-009-2', '', ( #134 ) ) ;
#158 = PRODUCT_RELATED_PRODUCT_CATEGORY ( 'part', '', ( #157 ) ) ;
#159 = CARTESIAN_POINT ( 'NONE',  ( 0.0000000000000000000, 0.0000000000000000000, 0.0000000000000000000 ) ) ;
#160 = ORIENTED_EDGE ( 'NONE', *, *, #19, .F. ) ;
#161 = AXIS2_PLACEMENT_3D ( 'NONE', #75, #202, #174 ) ;
#162 =( CONVERSION_BASED_UNIT ( 'INCH', #91 ) LENGTH_UNIT ( ) NAMED_UNIT ( #49 ) );
#163 = DIRECTION ( 'NONE',  ( -1.000000000000000000, 0.0000000000000000000, 0.0000000000000000000 ) ) ;
#164 = SHAPE_DEFINITION_REPRESENTATION ( #293, #2 ) ;
#165 = AXIS2_PLACEMENT_3D ( 'NONE', #78, #96, #169 ) ;
#166 = FACE_OUTER_BOUND ( 'NONE', #195, .T. ) ;
#167 =( NAMED_UNIT ( * ) PLANE_ANGLE_UNIT ( ) SI_UNIT ( $, .RADIAN. ) );
#168 = CARTESIAN_POINT ( 'NONE',  ( 0.0000000000000000000, 0.0000000000000000000, 0.0000000000000000000 ) ) ;
#169 = DIRECTION ( 'NONE',  ( -1.000000000000000000, 0.0000000000000000000, 0.0000000000000000000 ) ) ;
#170 = DIRECTION ( 'NONE',  ( -1.224646799147353207E-16, -0.0000000000000000000, -1.000000000000000000 ) ) ;
#171 = ORIENTED_EDGE ( 'NONE', *, *, #1, .T. ) ;
#172 = VERTEX_POINT ( 'NONE', #291 ) ;
#173 = FACE_OUTER_BOUND ( 'NONE', #93, .T. ) ;
#174 = DIRECTION ( 'NONE',  ( -1.000000000000000000, 0.0000000000000000000, 0.0000000000000000000 ) ) ;
#175 = AXIS2_PLACEMENT_3D ( 'NONE', #99, #201, #61 ) ;
#176 =( GEOMETRIC_REPRESENTATION_CONTEXT ( 3 ) GLOBAL_UNCERTAINTY_ASSIGNED_CONTEXT ( ( #292 ) ) GLOBAL_UNIT_ASSIGNED_CONTEXT ( ( #162, #167, #218 ) ) REPRESENTATION_CONTEXT ( 'NONE', 'WORKASPACE' ) );
#177 = VECTOR ( 'NONE', #264, 39.37007874015748143 ) ;
#178 =( NAMED_UNIT ( * ) SI_UNIT ( $, .STERADIAN. ) SOLID_ANGLE_UNIT ( ) );
#179 = CARTESIAN_POINT ( 'NONE',  ( -0.01769878349999998851, 2.167475856207698752E-18, 0.1062990000000000046 ) ) ;
#180 = DIRECTION ( 'NONE',  ( -1.000000000000000000, 0.0000000000000000000, 1.224646799147353207E-16 ) ) ;
#181 = ORIENTED_EDGE ( 'NONE', *, *, #278, .F. ) ;
#182 = CIRCLE ( 'NONE', #272, 0.01769878349999999892 ) ;
#183 = PRODUCT_DEFINITION_FORMATION_WITH_SPECIFIED_SOURCE ( 'ANY', '', #157, .NOT_KNOWN. ) ;
#184 = ADVANCED_FACE ( 'NONE', ( #246 ), #217, .T. ) ;
#185 = DIRECTION ( 'NONE',  ( 1.000000000000000000, 0.0000000000000000000, -0.0000000000000000000 ) ) ;
#186 = DIRECTION ( 'NONE',  ( 0.7071067811865482389, 8.659560562354941486E-17, -0.7071067811865469066 ) ) ;
#187 = VERTEX_POINT ( 'NONE', #252 ) ;
#188 = DIRECTION ( 'NONE',  ( 1.000000000000000000, 0.0000000000000000000, 0.0000000000000000000 ) ) ;
#189 =( LENGTH_UNIT ( ) NAMED_UNIT ( * ) SI_UNIT ( $, .METRE. ) );
#190 = PRESENTATION_LAYER_ASSIGNMENT (  '', '', ( #39 ) ) ;
#191 =( GEOMETRIC_REPRESENTATION_CONTEXT ( 3 ) GLOBAL_UNCERTAINTY_ASSIGNED_CONTEXT ( ( #296 ) ) GLOBAL_UNIT_ASSIGNED_CONTEXT ( ( #229, #102, #178 ) ) REPRESENTATION_CONTEXT ( 'NONE', 'WORKASPACE' ) );
#192 = ORIENTED_EDGE ( 'NONE', *, *, #278, .T. ) ;
#193 = SURFACE_SIDE_STYLE ('',( #18 ) ) ;
#194 =( NAMED_UNIT ( * ) SI_UNIT ( $, .STERADIAN. ) SOLID_ANGLE_UNIT ( ) );
#195 = EDGE_LOOP ( 'NONE', ( #10, #289 ) ) ;
#196 = ORIENTED_EDGE ( 'NONE', *, *, #34, .F. ) ;
#197 = AXIS2_PLACEMENT_3D ( 'NONE', #206, #155, #226 ) ;
#198 = EDGE_CURVE ( 'NONE', #187, #136, #44, .T. ) ;
#199 = FACE_OUTER_BOUND ( 'NONE', #113, .T. ) ;
#200 = EDGE_CURVE ( 'NONE', #172, #257, #212, .T. ) ;
#201 = DIRECTION ( 'NONE',  ( -1.224646799147353207E-16, -0.0000000000000000000, -1.000000000000000000 ) ) ;
#202 = DIRECTION ( 'NONE',  ( -1.224646799147353207E-16, -0.0000000000000000000, -1.000000000000000000 ) ) ;
#203 = CARTESIAN_POINT ( 'NONE',  ( 0.01769878350000001280, 0.0000000000000000000, 0.1062990000000000046 ) ) ;
#204 = CONICAL_SURFACE ( 'NONE', #114, 0.01769878349999999892, 0.1745329251994338637 ) ;
#205 = CARTESIAN_POINT ( 'NONE',  ( 0.04405499999999973326, 6.313666573004162521E-18, 1.496062999999999921 ) ) ;
#206 = CARTESIAN_POINT ( 'NONE',  ( 0.0000000000000000000, 0.0000000000000000000, 1.496062999999999921 ) ) ;
#207 = CIRCLE ( 'NONE', #151, 0.05905500000000000332 ) ;
#208 = LINE ( 'NONE', #85, #287 ) ;
#209 = LINE ( 'NONE', #274, #231 ) ;
#210 = EDGE_CURVE ( 'NONE', #150, #266, #43, .T. ) ;
#211 = FACE_OUTER_BOUND ( 'NONE', #220, .T. ) ;
#212 = CIRCLE ( 'NONE', #76, 0.04405499999999973326 ) ;
#213 = CARTESIAN_POINT ( 'NONE',  ( 0.0000000000000000000, 0.0000000000000000000, 0.0000000000000000000 ) ) ;
#214 = SURFACE_SIDE_STYLE ('',( #47 ) ) ;
#215 = PRODUCT_DEFINITION ( 'UNKNOWN', '', #183, #128 ) ;
#216 = ORIENTED_EDGE ( 'NONE', *, *, #1, .F. ) ;
#217 = CONICAL_SURFACE ( 'NONE', #156, 0.01769878349999999892, 0.1745329251994338637 ) ;
#218 =( NAMED_UNIT ( * ) SI_UNIT ( $, .STERADIAN. ) SOLID_ANGLE_UNIT ( ) );
#219 = FACE_OUTER_BOUND ( 'NONE', #21, .T. ) ;
#220 = EDGE_LOOP ( 'NONE', ( #279, #256, #216, #100 ) ) ;
#221 = ORIENTED_EDGE ( 'NONE', *, *, #295, .T. ) ;
#222 = FACE_OUTER_BOUND ( 'NONE', #238, .T. ) ;
#223 = AXIS2_PLACEMENT_3D ( 'NONE', #73, #135, #52 ) ;
#224 = DIRECTION ( 'NONE',  ( 1.000000000000000000, 0.0000000000000000000, -0.0000000000000000000 ) ) ;
#225 = ORIENTED_EDGE ( 'NONE', *, *, #198, .F. ) ;
#226 = DIRECTION ( 'NONE',  ( 1.000000000000000000, 0.0000000000000000000, 0.0000000000000000000 ) ) ;
#227 = DIRECTION ( 'NONE',  ( 1.000000000000000000, 0.0000000000000000000, 0.0000000000000000000 ) ) ;
#228 =( LENGTH_UNIT ( ) NAMED_UNIT ( * ) SI_UNIT ( $, .METRE. ) );
#229 =( CONVERSION_BASED_UNIT ( 'INCH', #127 ) LENGTH_UNIT ( ) NAMED_UNIT ( #255 ) );
#230 = CONICAL_SURFACE ( 'NONE', #54, 0.04405499999999973326, 0.7853981633974491672 ) ;
#231 = VECTOR ( 'NONE', #81, 39.37007874015748143 ) ;
#232 = CARTESIAN_POINT ( 'NONE',  ( -0.04405499999999973326, 0.0000000000000000000, 1.496062999999999921 ) ) ;
#233 = EDGE_LOOP ( 'NONE', ( #109, #71, #221, #77 ) ) ;
#234 = ORIENTED_EDGE ( 'NONE', *, *, #261, .F. ) ;
#235 = ORIENTED_EDGE ( 'NONE', *, *, #137, .F. ) ;
#236 = VECTOR ( 'NONE', #186, 39.37007874015748143 ) ;
#237 = FILL_AREA_STYLE ('',( #72 ) ) ;
#238 = EDGE_LOOP ( 'NONE', ( #284, #48 ) ) ;
#239 = ORIENTED_EDGE ( 'NONE', *, *, #280, .T. ) ;
#240 = COLOUR_RGB ( '',0.7921568627450980005, 0.8196078431372548767, 0.9333333333333333481 ) ;
#241 = CARTESIAN_POINT ( 'NONE',  ( 0.0000000000000000000, 0.0000000000000000000, 1.496062999999999921 ) ) ;
#242 = APPLICATION_CONTEXT ( 'automotive_design' ) ;
#243 = CARTESIAN_POINT ( 'NONE',  ( 0.0000000000000000000, 0.0000000000000000000, 1.481062999999999574 ) ) ;
#244 = CYLINDRICAL_SURFACE ( 'NONE', #131, 0.01769878349999999892 ) ;
#245 = CARTESIAN_POINT ( 'NONE',  ( 0.0000000000000000000, 0.0000000000000000000, 1.496062999999999921 ) ) ;
#246 = FACE_OUTER_BOUND ( 'NONE', #36, .T. ) ;
#247 = DIRECTION ( 'NONE',  ( 1.224646799147353207E-16, 0.0000000000000000000, 1.000000000000000000 ) ) ;
#248 = VECTOR ( 'NONE', #130, 39.37007874015747433 ) ;
#249 = EDGE_CURVE ( 'NONE', #141, #57, #63, .T. ) ;
#250 = CARTESIAN_POINT ( 'NONE',  ( 0.0000000000000000000, 0.0000000000000000000, 1.496062999999999921 ) ) ;
#251 = LINE ( 'NONE', #275, #132 ) ;
#252 = CARTESIAN_POINT ( 'NONE',  ( 0.01769878349999999892, 2.167475856207698752E-18, 0.0000000000000000000 ) ) ;
#253 = CIRCLE ( 'NONE', #145, 0.05905500000000000332 ) ;
#254 = PRESENTATION_STYLE_ASSIGNMENT (( #89 ) ) ;
#255 = DIMENSIONAL_EXPONENTS ( 1.000000000000000000, 0.0000000000000000000, 0.0000000000000000000, 0.0000000000000000000, 0.0000000000000000000, 0.0000000000000000000, 0.0000000000000000000 ) ;
#256 = ORIENTED_EDGE ( 'NONE', *, *, #104, .T. ) ;
#257 = VERTEX_POINT ( 'NONE', #205 ) ;
#258 = MECHANICAL_DESIGN_GEOMETRIC_PRESENTATION_REPRESENTATION (  '', ( #39 ), #176 ) ;
#259 = DIRECTION ( 'NONE',  ( 0.0000000000000000000, 0.0000000000000000000, -1.000000000000000000 ) ) ;
#260 = CARTESIAN_POINT ( 'NONE',  ( 0.01769878350000001280, 0.0000000000000000000, 0.1062990000000000046 ) ) ;
#261 = EDGE_CURVE ( 'NONE', #111, #187, #208, .T. ) ;
#262 = VERTEX_POINT ( 'NONE', #271 ) ;
#263 = CIRCLE ( 'NONE', #175, 0.05905500000000000332 ) ;
#264 = DIRECTION ( 'NONE',  ( 0.1736481776669313581, 0.0000000000000000000, 0.9848077530122077983 ) ) ;
#265 = ORIENTED_EDGE ( 'NONE', *, *, #137, .T. ) ;
#266 = VERTEX_POINT ( 'NONE', #103 ) ;
#267 = EDGE_CURVE ( 'NONE', #257, #172, #24, .T. ) ;
#268 =( GEOMETRIC_REPRESENTATION_CONTEXT ( 3 ) GLOBAL_UNCERTAINTY_ASSIGNED_CONTEXT ( ( #87 ) ) GLOBAL_UNIT_ASSIGNED_CONTEXT ( ( #140, #26, #194 ) ) REPRESENTATION_CONTEXT ( 'NONE', 'WORKASPACE' ) );
#269 = CARTESIAN_POINT ( 'NONE',  ( -0.01769878349999999892, 0.0000000000000000000, 4.334951712415397505E-18 ) ) ;
#270 = DIRECTION ( 'NONE',  ( 1.224646799147353207E-16, 0.0000000000000000000, 1.000000000000000000 ) ) ;
#271 = CARTESIAN_POINT ( 'NONE',  ( -0.05905500000000000332, 0.0000000000000000000, 1.481062999999999574 ) ) ;
#272 = AXIS2_PLACEMENT_3D ( 'NONE', #55, #119, #31 ) ;
#273 = FILL_AREA_STYLE ('',( #84 ) ) ;
#274 = CARTESIAN_POINT ( 'NONE',  ( -0.01769878349999999892, 0.0000000000000000000, 2.167475856207698752E-18 ) ) ;
#275 = CARTESIAN_POINT ( 'NONE',  ( -0.05905500000000000332, 0.0000000000000000000, 1.496062999999999921 ) ) ;
#276 = MECHANICAL_DESIGN_GEOMETRIC_PRESENTATION_REPRESENTATION (  '', ( #92 ), #268 ) ;
#277 = SURFACE_STYLE_USAGE ( .BOTH. , #214 ) ;
#278 = EDGE_CURVE ( 'NONE', #150, #136, #209, .T. ) ;
#279 = ORIENTED_EDGE ( 'NONE', *, *, #267, .F. ) ;
#280 = EDGE_CURVE ( 'NONE', #172, #262, #133, .T. ) ;
#281 = CONICAL_SURFACE ( 'NONE', #223, 0.04405499999999973326, 0.7853981633974491672 ) ;
#282 = CYLINDRICAL_SURFACE ( 'NONE', #67, 0.01769878349999999892 ) ;
#283 = CYLINDRICAL_SURFACE ( 'NONE', #98, 0.05905500000000000332 ) ;
#284 = ORIENTED_EDGE ( 'NONE', *, *, #19, .T. ) ;
#285 = PLANE ( 'NONE',  #122 ) ;
#286 = DIRECTION ( 'NONE',  ( -0.0000000000000000000, -0.0000000000000000000, -1.000000000000000000 ) ) ;
#287 = VECTOR ( 'NONE', #40, 39.37007874015748143 ) ;
#288 = CARTESIAN_POINT ( 'NONE',  ( 0.05905500000000000332, 7.232151672364695422E-18, 1.481062999999999574 ) ) ;
#289 = ORIENTED_EDGE ( 'NONE', *, *, #267, .T. ) ;
#290 = DIRECTION ( 'NONE',  ( 1.000000000000000000, 0.0000000000000000000, 0.0000000000000000000 ) ) ;
#291 = CARTESIAN_POINT ( 'NONE',  ( -0.04405499999999973326, 0.0000000000000000000, 1.496062999999999921 ) ) ;
#292 = UNCERTAINTY_MEASURE_WITH_UNIT (LENGTH_MEASURE( 1.000000000000000082E-05 ), #162, 'distance_accuracy_value', 'NONE');
#293 = PRODUCT_DEFINITION_SHAPE ( 'NONE', 'NONE',  #215 ) ;
#294 = DIRECTION ( 'NONE',  ( -0.7071067811865482389, 0.0000000000000000000, -0.7071067811865469066 ) ) ;
#295 = EDGE_CURVE ( 'NONE', #262, #266, #251, .T. ) ;
#296 = UNCERTAINTY_MEASURE_WITH_UNIT (LENGTH_MEASURE( 1.000000000000000082E-05 ), #229, 'distance_accuracy_value', 'NONE');
#297 = DIRECTION ( 'NONE',  ( -1.000000000000000000, 0.0000000000000000000, 1.224646799147353207E-16 ) ) ;
#298 = ORIENTED_EDGE ( 'NONE', *, *, #210, .F. ) ;
#299 = AXIS2_PLACEMENT_3D ( 'NONE', #245, #118, #56 ) ;
ENDSEC;
END-ISO-10303-21;
