ISO-10303-21;
HEADER;
FILE_DESCRIPTION (( 'STEP AP214' ),
    '1' );
FILE_NAME ('Micro_EMS-312-4X.STEP',
    '2021-09-01T17:53:05',
    ( '' ),
    ( '' ),
    'SwSTEP 2.0',
    'SolidWorks 2020',
    '' );
FILE_SCHEMA (( 'AUTOMOTIVE_DESIGN' ));
ENDSEC;

DATA;
#1 = DIRECTION ( 'NONE',  ( 0.1736481776669314692, 0.0000000000000000000, 0.9848077530122077983 ) ) ;
#2 = CARTESIAN_POINT ( 'NONE',  ( 0.0000000000000000000, 0.0000000000000000000, 2.500000000000000000 ) ) ;
#3 = VERTEX_POINT ( 'NONE', #222 ) ;
#4 =( GEOMETRIC_REPRESENTATION_CONTEXT ( 3 ) GLOBAL_UNCERTAINTY_ASSIGNED_CONTEXT ( ( #92 ) ) GLOBAL_UNIT_ASSIGNED_CONTEXT ( ( #191, #81, #40 ) ) REPRESENTATION_CONTEXT ( 'NONE', 'WORKASPACE' ) );
#5 = VERTEX_POINT ( 'NONE', #243 ) ;
#6 = DIRECTION ( 'NONE',  ( 0.0000000000000000000, 0.0000000000000000000, 1.000000000000000000 ) ) ;
#7 = ORIENTED_EDGE ( 'NONE', *, *, #24, .F. ) ;
#8 = DIRECTION ( 'NONE',  ( 1.000000000000000000, 0.0000000000000000000, 0.0000000000000000000 ) ) ;
#9 = ORIENTED_EDGE ( 'NONE', *, *, #199, .F. ) ;
#10 = VECTOR ( 'NONE', #41, 39.37007874015748854 ) ;
#11 = AXIS2_PLACEMENT_3D ( 'NONE', #71, #182, #227 ) ;
#12 =( CONVERSION_BASED_UNIT ( 'INCH', #15 ) LENGTH_UNIT ( ) NAMED_UNIT ( #184 ) );
#13 =( NAMED_UNIT ( * ) PLANE_ANGLE_UNIT ( ) SI_UNIT ( $, .RADIAN. ) );
#14 = CARTESIAN_POINT ( 'NONE',  ( 0.0000000000000000000, 0.0000000000000000000, 2.484999999999999432 ) ) ;
#15 = LENGTH_MEASURE_WITH_UNIT ( LENGTH_MEASURE( 0.02539999999999999897 ), #202 );
#16 =( GEOMETRIC_REPRESENTATION_CONTEXT ( 3 ) GLOBAL_UNCERTAINTY_ASSIGNED_CONTEXT ( ( #19 ) ) GLOBAL_UNIT_ASSIGNED_CONTEXT ( ( #12, #289, #267 ) ) REPRESENTATION_CONTEXT ( 'NONE', 'WORKASPACE' ) );
#17 = SURFACE_SIDE_STYLE ('',( #109 ) ) ;
#18 = CIRCLE ( 'NONE', #219, 0.1560937499999999756 ) ;
#19 = UNCERTAINTY_MEASURE_WITH_UNIT (LENGTH_MEASURE( 1.000000000000000082E-05 ), #12, 'distance_accuracy_value', 'NONE');
#20 = DIRECTION ( 'NONE',  ( 1.000000000000000000, 0.0000000000000000000, 0.0000000000000000000 ) ) ;
#21 = CARTESIAN_POINT ( 'NONE',  ( 0.1562500000000000000, 1.913510623667739463E-17, 2.500000000000000000 ) ) ;
#22 = AXIS2_PLACEMENT_3D ( 'NONE', #14, #241, #175 ) ;
#23 = DIRECTION ( 'NONE',  ( 0.0000000000000000000, 0.0000000000000000000, 1.000000000000000000 ) ) ;
#24 = EDGE_CURVE ( 'NONE', #167, #127, #36, .T. ) ;
#25 = VERTEX_POINT ( 'NONE', #172 ) ;
#26 = DIRECTION ( 'NONE',  ( 1.000000000000000000, 0.0000000000000000000, 0.0000000000000000000 ) ) ;
#27 = ADVANCED_FACE ( 'NONE', ( #130 ), #195, .T. ) ;
#28 = MANIFOLD_SOLID_BREP ( 'Cut-Revolve1', #282 ) ;
#29 = DIRECTION ( 'NONE',  ( 1.000000000000000000, 0.0000000000000000000, 0.0000000000000000000 ) ) ;
#30 = ORIENTED_EDGE ( 'NONE', *, *, #85, .F. ) ;
#31 = ORIENTED_EDGE ( 'NONE', *, *, #89, .T. ) ;
#32 = APPLICATION_PROTOCOL_DEFINITION ( 'draft international standard', 'automotive_design', 1998, #285 ) ;
#33 = EDGE_LOOP ( 'NONE', ( #288, #80 ) ) ;
#34 = DIRECTION ( 'NONE',  ( 1.000000000000000000, 0.0000000000000000000, 0.0000000000000000000 ) ) ;
#35 = EDGE_CURVE ( 'NONE', #141, #127, #43, .T. ) ;
#36 = LINE ( 'NONE', #239, #157 ) ;
#37 = SURFACE_SIDE_STYLE ('',( #87 ) ) ;
#38 = AXIS2_PLACEMENT_3D ( 'NONE', #121, #96, #98 ) ;
#39 = CARTESIAN_POINT ( 'NONE',  ( 0.0000000000000000000, 0.0000000000000000000, 2.500000000000000000 ) ) ;
#40 =( NAMED_UNIT ( * ) SI_UNIT ( $, .STERADIAN. ) SOLID_ANGLE_UNIT ( ) );
#41 = DIRECTION ( 'NONE',  ( -0.7071067811865410224, 0.0000000000000000000, -0.7071067811865539010 ) ) ;
#42 = ORIENTED_EDGE ( 'NONE', *, *, #224, .F. ) ;
#43 = CIRCLE ( 'NONE', #22, 0.1562500000000000000 ) ;
#44 = CIRCLE ( 'NONE', #234, 0.1562500000000000000 ) ;
#45 = STYLED_ITEM ( 'NONE', ( #153 ), #57 ) ;
#46 = DIRECTION ( 'NONE',  ( 1.224646799147353207E-16, 0.0000000000000000000, 1.000000000000000000 ) ) ;
#47 = DIRECTION ( 'NONE',  ( 0.0000000000000000000, 0.0000000000000000000, 1.000000000000000000 ) ) ;
#48 = ADVANCED_FACE ( 'NONE', ( #200 ), #179, .T. ) ;
#49 = FACE_OUTER_BOUND ( 'NONE', #124, .T. ) ;
#50 = ORIENTED_EDGE ( 'NONE', *, *, #86, .T. ) ;
#51 = CIRCLE ( 'NONE', #255, 0.1562500000000000000 ) ;
#52 = LINE ( 'NONE', #277, #168 ) ;
#53 = EDGE_CURVE ( 'NONE', #141, #3, #197, .T. ) ;
#54 = PLANE ( 'NONE',  #183 ) ;
#55 = ORIENTED_EDGE ( 'NONE', *, *, #89, .F. ) ;
#56 = FILL_AREA_STYLE_COLOUR ( '', #176 ) ;
#57 = ADVANCED_BREP_SHAPE_REPRESENTATION ( 'Micro_EMS-312-4X', ( #28, #298 ), #4 ) ;
#58 = ORIENTED_EDGE ( 'NONE', *, *, #208, .F. ) ;
#59 = CONICAL_SURFACE ( 'NONE', #266, 0.1560937499999999756, 0.1745329251994339748 ) ;
#60 = ORIENTED_EDGE ( 'NONE', *, *, #53, .T. ) ;
#61 =( LENGTH_UNIT ( ) NAMED_UNIT ( * ) SI_UNIT ( $, .METRE. ) );
#62 = FILL_AREA_STYLE_COLOUR ( '', #94 ) ;
#63 = CARTESIAN_POINT ( 'NONE',  ( 0.0000000000000000000, 0.0000000000000000000, 2.500000000000000000 ) ) ;
#64 = EDGE_CURVE ( 'NONE', #120, #141, #155, .T. ) ;
#65 = DIRECTION ( 'NONE',  ( 0.0000000000000000000, 0.0000000000000000000, -1.000000000000000000 ) ) ;
#66 = DIRECTION ( 'NONE',  ( 0.7071067811865410224, 8.659560562354852739E-17, -0.7071067811865539010 ) ) ;
#67 = DIRECTION ( 'NONE',  ( 0.0000000000000000000, 0.0000000000000000000, -1.000000000000000000 ) ) ;
#68 = PRESENTATION_LAYER_ASSIGNMENT (  '', '', ( #45 ) ) ;
#69 = EDGE_CURVE ( 'NONE', #127, #141, #51, .T. ) ;
#70 = CARTESIAN_POINT ( 'NONE',  ( -0.1412499999999994871, 0.0000000000000000000, 2.500000000000000000 ) ) ;
#71 = CARTESIAN_POINT ( 'NONE',  ( 9.956378477067980482E-17, 0.0000000000000000000, 0.8129999999999999449 ) ) ;
#72 = AXIS2_PLACEMENT_3D ( 'NONE', #228, #249, #250 ) ;
#73 = CARTESIAN_POINT ( 'NONE',  ( 0.0000000000000000000, 0.0000000000000000000, 0.0000000000000000000 ) ) ;
#74 = FACE_OUTER_BOUND ( 'NONE', #281, .T. ) ;
#75 = CYLINDRICAL_SURFACE ( 'NONE', #107, 0.1560937499999999756 ) ;
#76 = VERTEX_POINT ( 'NONE', #244 ) ;
#77 = AXIS2_PLACEMENT_3D ( 'NONE', #2, #166, #254 ) ;
#78 = AXIS2_PLACEMENT_3D ( 'NONE', #132, #90, #180 ) ;
#79 = DIRECTION ( 'NONE',  ( -1.224646799147353207E-16, -0.0000000000000000000, -1.000000000000000000 ) ) ;
#80 = ORIENTED_EDGE ( 'NONE', *, *, #137, .T. ) ;
#81 =( NAMED_UNIT ( * ) PLANE_ANGLE_UNIT ( ) SI_UNIT ( $, .RADIAN. ) );
#82 = ORIENTED_EDGE ( 'NONE', *, *, #35, .F. ) ;
#83 = PRODUCT_CONTEXT ( 'NONE', #285, 'mechanical' ) ;
#84 = CONICAL_SURFACE ( 'NONE', #154, 0.1560937499999999756, 0.1745329251994339748 ) ;
#85 = EDGE_CURVE ( 'NONE', #5, #220, #212, .T. ) ;
#86 = EDGE_CURVE ( 'NONE', #25, #3, #160, .T. ) ;
#87 = SURFACE_STYLE_FILL_AREA ( #290 ) ;
#88 = SURFACE_STYLE_USAGE ( .BOTH. , #17 ) ;
#89 = EDGE_CURVE ( 'NONE', #127, #76, #138, .T. ) ;
#90 = DIRECTION ( 'NONE',  ( -1.224646799147353207E-16, -0.0000000000000000000, -1.000000000000000000 ) ) ;
#91 = CARTESIAN_POINT ( 'NONE',  ( 0.1560937500000000866, 0.0000000000000000000, 0.8129999999999999449 ) ) ;
#92 = UNCERTAINTY_MEASURE_WITH_UNIT (LENGTH_MEASURE( 1.000000000000000082E-05 ), #191, 'distance_accuracy_value', 'NONE');
#93 = DIRECTION ( 'NONE',  ( -1.000000000000000000, 0.0000000000000000000, 1.224646799147353454E-16 ) ) ;
#94 = COLOUR_RGB ( '',0.7921568627450980005, 0.8196078431372548767, 0.9333333333333333481 ) ;
#95 = CONICAL_SURFACE ( 'NONE', #162, 0.1412499999999994871, 0.7853981633974391752 ) ;
#96 = DIRECTION ( 'NONE',  ( -0.0000000000000000000, -0.0000000000000000000, -1.000000000000000000 ) ) ;
#97 = DIRECTION ( 'NONE',  ( -1.224646799147353207E-16, -0.0000000000000000000, -1.000000000000000000 ) ) ;
#98 = DIRECTION ( 'NONE',  ( -1.000000000000000000, 0.0000000000000000000, 0.0000000000000000000 ) ) ;
#99 = ORIENTED_EDGE ( 'NONE', *, *, #159, .T. ) ;
#100 = AXIS2_PLACEMENT_3D ( 'NONE', #102, #174, #108 ) ;
#101 = SURFACE_STYLE_USAGE ( .BOTH. , #37 ) ;
#102 = CARTESIAN_POINT ( 'NONE',  ( 0.0000000000000000000, 0.0000000000000000000, 2.500000000000000000 ) ) ;
#103 = EDGE_LOOP ( 'NONE', ( #235, #122, #165, #58 ) ) ;
#104 = EDGE_CURVE ( 'NONE', #25, #214, #260, .T. ) ;
#105 = EDGE_LOOP ( 'NONE', ( #261, #111, #30, #9 ) ) ;
#106 = VECTOR ( 'NONE', #265, 39.37007874015748143 ) ;
#107 = AXIS2_PLACEMENT_3D ( 'NONE', #73, #209, #274 ) ;
#108 = DIRECTION ( 'NONE',  ( 1.000000000000000000, 0.0000000000000000000, -0.0000000000000000000 ) ) ;
#109 = SURFACE_STYLE_FILL_AREA ( #198 ) ;
#110 = CIRCLE ( 'NONE', #270, 0.1562500000000000000 ) ;
#111 = ORIENTED_EDGE ( 'NONE', *, *, #246, .T. ) ;
#112 = AXIS2_PLACEMENT_3D ( 'NONE', #299, #23, #186 ) ;
#113 = CARTESIAN_POINT ( 'NONE',  ( 9.956378477067980482E-17, 0.0000000000000000000, 0.8129999999999999449 ) ) ;
#114 = LINE ( 'NONE', #273, #201 ) ;
#115 = AXIS2_PLACEMENT_3D ( 'NONE', #218, #263, #291 ) ;
#116 = DIRECTION ( 'NONE',  ( 0.0000000000000000000, 0.0000000000000000000, 1.000000000000000000 ) ) ;
#117 = EDGE_CURVE ( 'NONE', #120, #167, #158, .T. ) ;
#118 = CARTESIAN_POINT ( 'NONE',  ( 0.1412499999999994871, 1.821662113731684786E-17, 2.500000000000000000 ) ) ;
#119 = PRODUCT_DEFINITION ( 'UNKNOWN', '', #292, #268 ) ;
#120 = VERTEX_POINT ( 'NONE', #297 ) ;
#121 = CARTESIAN_POINT ( 'NONE',  ( 0.0000000000000000000, 0.0000000000000000000, 2.500000000000000000 ) ) ;
#122 = ORIENTED_EDGE ( 'NONE', *, *, #151, .T. ) ;
#123 = AXIS2_PLACEMENT_3D ( 'NONE', #169, #47, #26 ) ;
#124 = EDGE_LOOP ( 'NONE', ( #225, #216 ) ) ;
#125 = ORIENTED_EDGE ( 'NONE', *, *, #69, .F. ) ;
#126 = APPLICATION_PROTOCOL_DEFINITION ( 'draft international standard', 'automotive_design', 1998, #146 ) ;
#127 = VERTEX_POINT ( 'NONE', #256 ) ;
#128 = PLANE ( 'NONE',  #100 ) ;
#129 = MECHANICAL_DESIGN_GEOMETRIC_PRESENTATION_REPRESENTATION (  '', ( #45 ), #248 ) ;
#130 = FACE_OUTER_BOUND ( 'NONE', #103, .T. ) ;
#131 = PRESENTATION_STYLE_ASSIGNMENT (( #88 ) ) ;
#132 = CARTESIAN_POINT ( 'NONE',  ( 2.341031285748743514E-33, 0.0000000000000000000, 1.911597113044071690E-17 ) ) ;
#133 = DIRECTION ( 'NONE',  ( -0.1736481776669312471, 2.126576849575783933E-17, 0.9848077530122077983 ) ) ;
#134 = DIRECTION ( 'NONE',  ( 1.224646799147353207E-16, 0.0000000000000000000, 1.000000000000000000 ) ) ;
#135 = DIMENSIONAL_EXPONENTS ( 1.000000000000000000, 0.0000000000000000000, 0.0000000000000000000, 0.0000000000000000000, 0.0000000000000000000, 0.0000000000000000000, 0.0000000000000000000 ) ;
#136 = DIRECTION ( 'NONE',  ( -0.0000000000000000000, -0.0000000000000000000, -1.000000000000000000 ) ) ;
#137 = EDGE_CURVE ( 'NONE', #167, #120, #278, .T. ) ;
#138 = LINE ( 'NONE', #21, #287 ) ;
#139 = AXIS2_PLACEMENT_3D ( 'NONE', #39, #65, #295 ) ;
#140 = CARTESIAN_POINT ( 'NONE',  ( -0.1562500000000000000, 0.0000000000000000000, 2.484999999999999432 ) ) ;
#141 = VERTEX_POINT ( 'NONE', #140 ) ;
#142 = CARTESIAN_POINT ( 'NONE',  ( 0.0000000000000000000, 0.0000000000000000000, 0.0000000000000000000 ) ) ;
#143 = ORIENTED_EDGE ( 'NONE', *, *, #253, .F. ) ;
#144 =( LENGTH_UNIT ( ) NAMED_UNIT ( * ) SI_UNIT ( $, .METRE. ) );
#145 = ORIENTED_EDGE ( 'NONE', *, *, #24, .T. ) ;
#146 = APPLICATION_CONTEXT ( 'automotive_design' ) ;
#147 = ORIENTED_EDGE ( 'NONE', *, *, #151, .F. ) ;
#148 =( CONVERSION_BASED_UNIT ( 'INCH', #236 ) LENGTH_UNIT ( ) NAMED_UNIT ( #205 ) );
#149 = ORIENTED_EDGE ( 'NONE', *, *, #35, .T. ) ;
#150 = LENGTH_MEASURE_WITH_UNIT ( LENGTH_MEASURE( 0.02539999999999999897 ), #61 );
#151 = EDGE_CURVE ( 'NONE', #214, #25, #242, .T. ) ;
#152 = CARTESIAN_POINT ( 'NONE',  ( -0.1562500000000000000, 0.0000000000000000000, 2.500000000000000000 ) ) ;
#153 = PRESENTATION_STYLE_ASSIGNMENT (( #101 ) ) ;
#154 = AXIS2_PLACEMENT_3D ( 'NONE', #113, #46, #29 ) ;
#155 = LINE ( 'NONE', #70, #10 ) ;
#156 = DIRECTION ( 'NONE',  ( 1.000000000000000000, 0.0000000000000000000, 0.0000000000000000000 ) ) ;
#157 = VECTOR ( 'NONE', #66, 39.37007874015748854 ) ;
#158 = CIRCLE ( 'NONE', #112, 0.1412499999999994871 ) ;
#159 = EDGE_CURVE ( 'NONE', #214, #76, #114, .T. ) ;
#160 = LINE ( 'NONE', #247, #188 ) ;
#161 = FACE_OUTER_BOUND ( 'NONE', #194, .T. ) ;
#162 = AXIS2_PLACEMENT_3D ( 'NONE', #63, #211, #283 ) ;
#163 = DIRECTION ( 'NONE',  ( -1.224646799147353207E-16, -0.0000000000000000000, -1.000000000000000000 ) ) ;
#164 = FACE_OUTER_BOUND ( 'NONE', #105, .T. ) ;
#165 = ORIENTED_EDGE ( 'NONE', *, *, #199, .T. ) ;
#166 = DIRECTION ( 'NONE',  ( -0.0000000000000000000, -0.0000000000000000000, -1.000000000000000000 ) ) ;
#167 = VERTEX_POINT ( 'NONE', #118 ) ;
#168 = VECTOR ( 'NONE', #79, 39.37007874015748143 ) ;
#169 = CARTESIAN_POINT ( 'NONE',  ( 0.0000000000000000000, 0.0000000000000000000, 2.500000000000000000 ) ) ;
#170 = PRODUCT_RELATED_PRODUCT_CATEGORY ( 'part', '', ( #221 ) ) ;
#171 = EDGE_LOOP ( 'NONE', ( #7, #189, #258, #125 ) ) ;
#172 = CARTESIAN_POINT ( 'NONE',  ( -0.1560937499999998923, 1.912553868355905422E-17, 0.8129999999999999449 ) ) ;
#173 = ADVANCED_FACE ( 'NONE', ( #49 ), #54, .F. ) ;
#174 = DIRECTION ( 'NONE',  ( 0.0000000000000000000, 0.0000000000000000000, 1.000000000000000000 ) ) ;
#175 = DIRECTION ( 'NONE',  ( 1.000000000000000000, 0.0000000000000000000, 0.0000000000000000000 ) ) ;
#176 = COLOUR_RGB ( '',0.7921568627450980005, 0.8196078431372548767, 0.9333333333333333481 ) ;
#177 = PRODUCT_DEFINITION_SHAPE ( 'NONE', 'NONE',  #119 ) ;
#178 = CARTESIAN_POINT ( 'NONE',  ( 0.0000000000000000000, 0.0000000000000000000, 2.484999999999999432 ) ) ;
#179 = CONICAL_SURFACE ( 'NONE', #139, 0.1412499999999994871, 0.7853981633974391752 ) ;
#180 = DIRECTION ( 'NONE',  ( -1.000000000000000000, 0.0000000000000000000, 1.224646799147353454E-16 ) ) ;
#181 = CARTESIAN_POINT ( 'NONE',  ( -0.1560937499999999756, 0.0000000000000000000, 1.911597113044071690E-17 ) ) ;
#182 = DIRECTION ( 'NONE',  ( -1.224646799147353207E-16, -0.0000000000000000000, -1.000000000000000000 ) ) ;
#183 = AXIS2_PLACEMENT_3D ( 'NONE', #142, #116, #271 ) ;
#184 = DIMENSIONAL_EXPONENTS ( 1.000000000000000000, 0.0000000000000000000, 0.0000000000000000000, 0.0000000000000000000, 0.0000000000000000000, 0.0000000000000000000, 0.0000000000000000000 ) ;
#185 = CARTESIAN_POINT ( 'NONE',  ( 2.341031285748743514E-33, 0.0000000000000000000, 1.911597113044071690E-17 ) ) ;
#186 = DIRECTION ( 'NONE',  ( 1.000000000000000000, 0.0000000000000000000, 0.0000000000000000000 ) ) ;
#187 = CARTESIAN_POINT ( 'NONE',  ( 0.1560937499999999756, 1.911597113044071690E-17, 0.0000000000000000000 ) ) ;
#188 = VECTOR ( 'NONE', #133, 39.37007874015748143 ) ;
#189 = ORIENTED_EDGE ( 'NONE', *, *, #117, .F. ) ;
#190 = EDGE_LOOP ( 'NONE', ( #279, #147, #99, #284 ) ) ;
#191 =( CONVERSION_BASED_UNIT ( 'INCH', #150 ) LENGTH_UNIT ( ) NAMED_UNIT ( #135 ) );
#192 = FACE_OUTER_BOUND ( 'NONE', #33, .T. ) ;
#193 = ADVANCED_FACE ( 'NONE', ( #206 ), #232, .T. ) ;
#194 = EDGE_LOOP ( 'NONE', ( #257, #50, #233, #252 ) ) ;
#195 = CYLINDRICAL_SURFACE ( 'NONE', #115, 0.1560937499999999756 ) ;
#196 = ADVANCED_FACE ( 'NONE', ( #204 ), #84, .T. ) ;
#197 = LINE ( 'NONE', #152, #106 ) ;
#198 = FILL_AREA_STYLE ('',( #62 ) ) ;
#199 = EDGE_CURVE ( 'NONE', #25, #5, #296, .T. ) ;
#200 = FACE_OUTER_BOUND ( 'NONE', #210, .T. ) ;
#201 = VECTOR ( 'NONE', #1, 39.37007874015748143 ) ;
#202 =( LENGTH_UNIT ( ) NAMED_UNIT ( * ) SI_UNIT ( $, .METRE. ) );
#203 = UNCERTAINTY_MEASURE_WITH_UNIT (LENGTH_MEASURE( 1.000000000000000082E-05 ), #148, 'distance_accuracy_value', 'NONE');
#204 = FACE_OUTER_BOUND ( 'NONE', #190, .T. ) ;
#205 = DIMENSIONAL_EXPONENTS ( 1.000000000000000000, 0.0000000000000000000, 0.0000000000000000000, 0.0000000000000000000, 0.0000000000000000000, 0.0000000000000000000, 0.0000000000000000000 ) ;
#206 = FACE_OUTER_BOUND ( 'NONE', #223, .T. ) ;
#207 = DIRECTION ( 'NONE',  ( -1.224646799147353207E-16, -0.0000000000000000000, -1.000000000000000000 ) ) ;
#208 = EDGE_CURVE ( 'NONE', #220, #5, #18, .T. ) ;
#209 = DIRECTION ( 'NONE',  ( -1.224646799147353207E-16, -0.0000000000000000000, -1.000000000000000000 ) ) ;
#210 = EDGE_LOOP ( 'NONE', ( #264, #145, #82, #276 ) ) ;
#211 = DIRECTION ( 'NONE',  ( 0.0000000000000000000, 0.0000000000000000000, -1.000000000000000000 ) ) ;
#212 = CIRCLE ( 'NONE', #78, 0.1560937499999999756 ) ;
#213 = CARTESIAN_POINT ( 'NONE',  ( 0.0000000000000000000, 0.0000000000000000000, 0.0000000000000000000 ) ) ;
#214 = VERTEX_POINT ( 'NONE', #91 ) ;
#215 = CARTESIAN_POINT ( 'NONE',  ( 9.967230535079632947E-17, 0.0000000000000000000, 0.8138861377843152889 ) ) ;
#216 = ORIENTED_EDGE ( 'NONE', *, *, #208, .T. ) ;
#217 = SHAPE_DEFINITION_REPRESENTATION ( #177, #57 ) ;
#218 = CARTESIAN_POINT ( 'NONE',  ( 0.0000000000000000000, 0.0000000000000000000, 0.0000000000000000000 ) ) ;
#219 = AXIS2_PLACEMENT_3D ( 'NONE', #185, #207, #93 ) ;
#220 = VERTEX_POINT ( 'NONE', #187 ) ;
#221 = PRODUCT ( 'Micro_EMS-312-4X', 'Micro_EMS-312-4X', '', ( #83 ) ) ;
#222 = CARTESIAN_POINT ( 'NONE',  ( -0.1562499999999999167, 0.0000000000000000000, 0.8138861377843152889 ) ) ;
#223 = EDGE_LOOP ( 'NONE', ( #55, #237, #60, #42 ) ) ;
#224 = EDGE_CURVE ( 'NONE', #76, #3, #44, .T. ) ;
#225 = ORIENTED_EDGE ( 'NONE', *, *, #85, .T. ) ;
#226 = CARTESIAN_POINT ( 'NONE',  ( 9.956378477067980482E-17, 0.0000000000000000000, 0.8129999999999999449 ) ) ;
#227 = DIRECTION ( 'NONE',  ( -1.000000000000000000, 0.0000000000000000000, 0.0000000000000000000 ) ) ;
#228 = CARTESIAN_POINT ( 'NONE',  ( 9.956378477067980482E-17, 0.0000000000000000000, 0.8129999999999999449 ) ) ;
#229 = ADVANCED_FACE ( 'NONE', ( #161 ), #59, .T. ) ;
#230 = CARTESIAN_POINT ( 'NONE',  ( 9.967230535079632947E-17, 0.0000000000000000000, 0.8138861377843152889 ) ) ;
#231 = ORIENTED_EDGE ( 'NONE', *, *, #53, .F. ) ;
#232 = CYLINDRICAL_SURFACE ( 'NONE', #38, 0.1562500000000000000 ) ;
#233 = ORIENTED_EDGE ( 'NONE', *, *, #253, .T. ) ;
#234 = AXIS2_PLACEMENT_3D ( 'NONE', #230, #97, #275 ) ;
#235 = ORIENTED_EDGE ( 'NONE', *, *, #246, .F. ) ;
#236 = LENGTH_MEASURE_WITH_UNIT ( LENGTH_MEASURE( 0.02539999999999999897 ), #144 );
#237 = ORIENTED_EDGE ( 'NONE', *, *, #69, .T. ) ;
#238 = ADVANCED_FACE ( 'NONE', ( #164 ), #75, .T. ) ;
#239 = CARTESIAN_POINT ( 'NONE',  ( 0.1412499999999994871, 1.729813603795630110E-17, 2.500000000000000000 ) ) ;
#240 = ADVANCED_FACE ( 'NONE', ( #74 ), #251, .T. ) ;
#241 = DIRECTION ( 'NONE',  ( 0.0000000000000000000, 0.0000000000000000000, -1.000000000000000000 ) ) ;
#242 = CIRCLE ( 'NONE', #11, 0.1560937499999999756 ) ;
#243 = CARTESIAN_POINT ( 'NONE',  ( -0.1560937499999999756, 0.0000000000000000000, 3.823194226088143379E-17 ) ) ;
#244 = CARTESIAN_POINT ( 'NONE',  ( 0.1562500000000001110, 1.913510623667740388E-17, 0.8138861377843152889 ) ) ;
#245 = PRESENTATION_LAYER_ASSIGNMENT (  '', '', ( #259 ) ) ;
#246 = EDGE_CURVE ( 'NONE', #214, #220, #52, .T. ) ;
#247 = CARTESIAN_POINT ( 'NONE',  ( -0.1560937499999998923, 1.911597113044071690E-17, 0.8129999999999999449 ) ) ;
#248 =( GEOMETRIC_REPRESENTATION_CONTEXT ( 3 ) GLOBAL_UNCERTAINTY_ASSIGNED_CONTEXT ( ( #203 ) ) GLOBAL_UNIT_ASSIGNED_CONTEXT ( ( #148, #13, #280 ) ) REPRESENTATION_CONTEXT ( 'NONE', 'WORKASPACE' ) );
#249 = DIRECTION ( 'NONE',  ( -1.224646799147353207E-16, -0.0000000000000000000, -1.000000000000000000 ) ) ;
#250 = DIRECTION ( 'NONE',  ( -1.000000000000000000, 0.0000000000000000000, 0.0000000000000000000 ) ) ;
#251 = CYLINDRICAL_SURFACE ( 'NONE', #77, 0.1562500000000000000 ) ;
#252 = ORIENTED_EDGE ( 'NONE', *, *, #159, .F. ) ;
#253 = EDGE_CURVE ( 'NONE', #3, #76, #110, .T. ) ;
#254 = DIRECTION ( 'NONE',  ( -1.000000000000000000, 0.0000000000000000000, 0.0000000000000000000 ) ) ;
#255 = AXIS2_PLACEMENT_3D ( 'NONE', #178, #67, #156 ) ;
#256 = CARTESIAN_POINT ( 'NONE',  ( 0.1562500000000000000, 1.913510623667739463E-17, 2.484999999999999432 ) ) ;
#257 = ORIENTED_EDGE ( 'NONE', *, *, #104, .F. ) ;
#258 = ORIENTED_EDGE ( 'NONE', *, *, #64, .T. ) ;
#259 = STYLED_ITEM ( 'NONE', ( #131 ), #28 ) ;
#260 = CIRCLE ( 'NONE', #72, 0.1560937499999999756 ) ;
#261 = ORIENTED_EDGE ( 'NONE', *, *, #104, .T. ) ;
#262 = DIRECTION ( 'NONE',  ( -1.224646799147353207E-16, -0.0000000000000000000, -1.000000000000000000 ) ) ;
#263 = DIRECTION ( 'NONE',  ( -1.224646799147353207E-16, -0.0000000000000000000, -1.000000000000000000 ) ) ;
#264 = ORIENTED_EDGE ( 'NONE', *, *, #137, .F. ) ;
#265 = DIRECTION ( 'NONE',  ( -0.0000000000000000000, -0.0000000000000000000, -1.000000000000000000 ) ) ;
#266 = AXIS2_PLACEMENT_3D ( 'NONE', #226, #134, #20 ) ;
#267 =( NAMED_UNIT ( * ) SI_UNIT ( $, .STERADIAN. ) SOLID_ANGLE_UNIT ( ) );
#268 = PRODUCT_DEFINITION_CONTEXT ( 'detailed design', #146, 'design' ) ;
#269 = MECHANICAL_DESIGN_GEOMETRIC_PRESENTATION_REPRESENTATION (  '', ( #259 ), #16 ) ;
#270 = AXIS2_PLACEMENT_3D ( 'NONE', #215, #262, #8 ) ;
#271 = DIRECTION ( 'NONE',  ( 1.000000000000000000, 0.0000000000000000000, -0.0000000000000000000 ) ) ;
#272 = VECTOR ( 'NONE', #163, 39.37007874015748143 ) ;
#273 = CARTESIAN_POINT ( 'NONE',  ( 0.1560937500000000866, 0.0000000000000000000, 0.8129999999999999449 ) ) ;
#274 = DIRECTION ( 'NONE',  ( -1.000000000000000000, 0.0000000000000000000, 1.224646799147353454E-16 ) ) ;
#275 = DIRECTION ( 'NONE',  ( 1.000000000000000000, 0.0000000000000000000, 0.0000000000000000000 ) ) ;
#276 = ORIENTED_EDGE ( 'NONE', *, *, #64, .F. ) ;
#277 = CARTESIAN_POINT ( 'NONE',  ( 0.1560937499999999756, 1.911597113044071690E-17, -1.911597113044071690E-17 ) ) ;
#278 = CIRCLE ( 'NONE', #123, 0.1412499999999994871 ) ;
#279 = ORIENTED_EDGE ( 'NONE', *, *, #86, .F. ) ;
#280 =( NAMED_UNIT ( * ) SI_UNIT ( $, .STERADIAN. ) SOLID_ANGLE_UNIT ( ) );
#281 = EDGE_LOOP ( 'NONE', ( #149, #31, #143, #231 ) ) ;
#282 = CLOSED_SHELL ( 'NONE', ( #238, #229, #48, #240, #193, #294, #293, #196, #27, #173 ) ) ;
#283 = DIRECTION ( 'NONE',  ( -1.000000000000000000, 0.0000000000000000000, 0.0000000000000000000 ) ) ;
#284 = ORIENTED_EDGE ( 'NONE', *, *, #224, .T. ) ;
#285 = APPLICATION_CONTEXT ( 'automotive_design' ) ;
#286 = FACE_OUTER_BOUND ( 'NONE', #171, .T. ) ;
#287 = VECTOR ( 'NONE', #136, 39.37007874015748143 ) ;
#288 = ORIENTED_EDGE ( 'NONE', *, *, #117, .T. ) ;
#289 =( NAMED_UNIT ( * ) PLANE_ANGLE_UNIT ( ) SI_UNIT ( $, .RADIAN. ) );
#290 = FILL_AREA_STYLE ('',( #56 ) ) ;
#291 = DIRECTION ( 'NONE',  ( -1.000000000000000000, 0.0000000000000000000, 1.224646799147353454E-16 ) ) ;
#292 = PRODUCT_DEFINITION_FORMATION_WITH_SPECIFIED_SOURCE ( 'ANY', '', #221, .NOT_KNOWN. ) ;
#293 = ADVANCED_FACE ( 'NONE', ( #286 ), #95, .T. ) ;
#294 = ADVANCED_FACE ( 'NONE', ( #192 ), #128, .T. ) ;
#295 = DIRECTION ( 'NONE',  ( -1.000000000000000000, 0.0000000000000000000, 0.0000000000000000000 ) ) ;
#296 = LINE ( 'NONE', #181, #272 ) ;
#297 = CARTESIAN_POINT ( 'NONE',  ( -0.1412499999999994871, 0.0000000000000000000, 2.500000000000000000 ) ) ;
#298 = AXIS2_PLACEMENT_3D ( 'NONE', #213, #6, #34 ) ;
#299 = CARTESIAN_POINT ( 'NONE',  ( 0.0000000000000000000, 0.0000000000000000000, 2.500000000000000000 ) ) ;
ENDSEC;
END-ISO-10303-21;
