ISO-10303-21;
HEADER;
FILE_DESCRIPTION (( 'STEP AP214' ),
    '1' );
FILE_NAME ('83187.STEP',
    '2023-06-23T07:59:49',
    ( '' ),
    ( '' ),
    'SwSTEP 2.0',
    'SolidWorks 2023',
    '' );
FILE_SCHEMA (( 'AUTOMOTIVE_DESIGN' ));
ENDSEC;

DATA;
#1 = ORIENTED_EDGE ( 'NONE', *, *, #115, .F. ) ;
#2 = CARTESIAN_POINT ( 'NONE',  ( 3.825917812912900435E-35, 0.7500000000000001110, 0.000000000000000000 ) ) ;
#3 =( GEOMETRIC_REPRESENTATION_CONTEXT ( 3 ) GLOBAL_UNCERTAINTY_ASSIGNED_CONTEXT ( ( #160 ) ) GLOBAL_UNIT_ASSIGNED_CONTEXT ( ( #190, #47, #137 ) ) REPRESENTATION_CONTEXT ( 'NONE', 'WORKASPACE' ) );
#4 = APPLICATION_PROTOCOL_DEFINITION ( 'draft international standard', 'automotive_design', 1998, #61 ) ;
#5 =( GEOMETRIC_REPRESENTATION_CONTEXT ( 3 ) GLOBAL_UNCERTAINTY_ASSIGNED_CONTEXT ( ( #113 ) ) GLOBAL_UNIT_ASSIGNED_CONTEXT ( ( #255, #77, #96 ) ) REPRESENTATION_CONTEXT ( 'NONE', 'WORKASPACE' ) );
#6 = PRESENTATION_LAYER_ASSIGNMENT (  '', '', ( #218 ) ) ;
#7 = MECHANICAL_DESIGN_GEOMETRIC_PRESENTATION_REPRESENTATION (  '', ( #97 ), #59 ) ;
#8 = VECTOR ( 'NONE', #32, 39.37007874015748143 ) ;
#9 = DIRECTION ( 'NONE',  ( -3.498990854706722745E-17, 1.000000000000000000, -0.000000000000000000 ) ) ;
#10 = LINE ( 'NONE', #225, #174 ) ;
#11 = DIRECTION ( 'NONE',  ( -1.000000000000000000, 0.000000000000000000, 0.000000000000000000 ) ) ;
#12 = EDGE_CURVE ( 'NONE', #138, #260, #55, .T. ) ;
#13 = SURFACE_STYLE_USAGE ( .BOTH. , #276 ) ;
#14 = LINE ( 'NONE', #212, #295 ) ;
#15 = DIRECTION ( 'NONE',  ( 1.000000000000000000, 0.000000000000000000, 0.000000000000000000 ) ) ;
#16 = DIRECTION ( 'NONE',  ( -3.498990854706722745E-17, 1.000000000000000000, -0.000000000000000000 ) ) ;
#17 = ORIENTED_EDGE ( 'NONE', *, *, #163, .T. ) ;
#18 = SURFACE_SIDE_STYLE ('',( #185 ) ) ;
#19 = PRESENTATION_STYLE_ASSIGNMENT (( #261 ) ) ;
#20 = FILL_AREA_STYLE ('',( #237 ) ) ;
#21 = CARTESIAN_POINT ( 'NONE',  ( 0.06250000000000000000, 2.500000000000000000, 7.654042494670963708E-18 ) ) ;
#22 = STYLED_ITEM ( 'NONE', ( #186 ), #204 ) ;
#23 = ADVANCED_BREP_SHAPE_REPRESENTATION ( '83187', ( #204, #308, #200 ), #3 ) ;
#24 = ORIENTED_EDGE ( 'NONE', *, *, #227, .T. ) ;
#25 = EDGE_LOOP ( 'NONE', ( #24, #45, #134, #288 ) ) ;
#26 = UNCERTAINTY_MEASURE_WITH_UNIT (LENGTH_MEASURE( 1.000000000000000082E-05 ), #43, 'distance_accuracy_value', 'NONE');
#27 = ORIENTED_EDGE ( 'NONE', *, *, #146, .F. ) ;
#28 = ADVANCED_FACE ( 'NONE', ( #177 ), #296, .T. ) ;
#29 = SURFACE_SIDE_STYLE ('',( #243 ) ) ;
#30 = ORIENTED_EDGE ( 'NONE', *, *, #265, .T. ) ;
#31 = ORIENTED_EDGE ( 'NONE', *, *, #197, .F. ) ;
#32 = DIRECTION ( 'NONE',  ( -0.000000000000000000, -1.000000000000000000, -0.000000000000000000 ) ) ;
#33 = DIRECTION ( 'NONE',  ( -3.498990854706722745E-17, 1.000000000000000000, -0.000000000000000000 ) ) ;
#34 = DIRECTION ( 'NONE',  ( -3.498990854706722745E-17, 1.000000000000000000, -0.000000000000000000 ) ) ;
#35 = PRESENTATION_STYLE_ASSIGNMENT (( #126 ) ) ;
#36 = AXIS2_PLACEMENT_3D ( 'NONE', #250, #127, #299 ) ;
#37 = CIRCLE ( 'NONE', #188, 0.06250000000000000000 ) ;
#38 = DIRECTION ( 'NONE',  ( -0.000000000000000000, -1.000000000000000000, -0.000000000000000000 ) ) ;
#39 = DIRECTION ( 'NONE',  ( 0.000000000000000000, 0.000000000000000000, -1.000000000000000000 ) ) ;
#40 = APPLICATION_CONTEXT ( 'automotive_design' ) ;
#41 = ORIENTED_EDGE ( 'NONE', *, *, #125, .F. ) ;
#42 = ADVANCED_FACE ( 'NONE', ( #74 ), #150, .T. ) ;
#43 =( CONVERSION_BASED_UNIT ( 'INCH', #162 ) LENGTH_UNIT ( ) NAMED_UNIT ( #76 ) );
#44 = CIRCLE ( 'NONE', #73, 0.06250000000000000000 ) ;
#45 = ORIENTED_EDGE ( 'NONE', *, *, #125, .T. ) ;
#46 = FACE_OUTER_BOUND ( 'NONE', #292, .T. ) ;
#47 =( NAMED_UNIT ( * ) PLANE_ANGLE_UNIT ( ) SI_UNIT ( $, .RADIAN. ) );
#48 = EDGE_LOOP ( 'NONE', ( #172, #215, #31, #83 ) ) ;
#49 = MECHANICAL_DESIGN_GEOMETRIC_PRESENTATION_REPRESENTATION (  '', ( #218 ), #104 ) ;
#50 = PRESENTATION_LAYER_ASSIGNMENT (  '', '', ( #97 ) ) ;
#51 = ORIENTED_EDGE ( 'NONE', *, *, #232, .F. ) ;
#52 = DIRECTION ( 'NONE',  ( -3.498990854706722745E-17, 1.000000000000000000, -0.000000000000000000 ) ) ;
#53 = ADVANCED_FACE ( 'NONE', ( #94 ), #266, .T. ) ;
#54 =( NAMED_UNIT ( * ) PLANE_ANGLE_UNIT ( ) SI_UNIT ( $, .RADIAN. ) );
#55 = CIRCLE ( 'NONE', #195, 0.06250000000000000000 ) ;
#56 = FILL_AREA_STYLE_COLOUR ( '', #235 ) ;
#57 =( LENGTH_UNIT ( ) NAMED_UNIT ( * ) SI_UNIT ( $, .METRE. ) );
#58 = CARTESIAN_POINT ( 'NONE',  ( -0.06250000000000000000, 0.7499999999999998890, 0.000000000000000000 ) ) ;
#59 =( GEOMETRIC_REPRESENTATION_CONTEXT ( 3 ) GLOBAL_UNCERTAINTY_ASSIGNED_CONTEXT ( ( #191 ) ) GLOBAL_UNIT_ASSIGNED_CONTEXT ( ( #283, #176, #155 ) ) REPRESENTATION_CONTEXT ( 'NONE', 'WORKASPACE' ) );
#60 = CARTESIAN_POINT ( 'NONE',  ( 0.000000000000000000, 0.000000000000000000, 0.000000000000000000 ) ) ;
#61 = APPLICATION_CONTEXT ( 'automotive_design' ) ;
#62 =( LENGTH_UNIT ( ) NAMED_UNIT ( * ) SI_UNIT ( $, .METRE. ) );
#63 = CARTESIAN_POINT ( 'NONE',  ( 7.654042494670957545E-18, 0.000000000000000000, 0.06250000000000000000 ) ) ;
#64 = COLOUR_RGB ( '',1.000000000000000000, 0.000000000000000000, 0.000000000000000000 ) ;
#65 = VERTEX_POINT ( 'NONE', #241 ) ;
#66 =( NAMED_UNIT ( * ) SI_UNIT ( $, .STERADIAN. ) SOLID_ANGLE_UNIT ( ) );
#67 = SURFACE_SIDE_STYLE ('',( #289 ) ) ;
#68 = VERTEX_POINT ( 'NONE', #222 ) ;
#69 = AXIS2_PLACEMENT_3D ( 'NONE', #72, #33, #131 ) ;
#70 = CARTESIAN_POINT ( 'NONE',  ( 0.06250000000000000000, 0.7499999999999998890, 7.654042494670963708E-18 ) ) ;
#71 = CARTESIAN_POINT ( 'NONE',  ( 0.000000000000000000, 0.000000000000000000, 0.000000000000000000 ) ) ;
#72 = CARTESIAN_POINT ( 'NONE',  ( -6.123233995736766036E-17, 2.500000000000000000, 0.000000000000000000 ) ) ;
#73 = AXIS2_PLACEMENT_3D ( 'NONE', #123, #75, #178 ) ;
#74 = FACE_OUTER_BOUND ( 'NONE', #25, .T. ) ;
#75 = DIRECTION ( 'NONE',  ( -0.000000000000000000, -1.000000000000000000, -0.000000000000000000 ) ) ;
#76 = DIMENSIONAL_EXPONENTS ( 1.000000000000000000, 0.000000000000000000, 0.000000000000000000, 0.000000000000000000, 0.000000000000000000, 0.000000000000000000, 0.000000000000000000 ) ;
#77 =( NAMED_UNIT ( * ) PLANE_ANGLE_UNIT ( ) SI_UNIT ( $, .RADIAN. ) );
#78 = FACE_OUTER_BOUND ( 'NONE', #105, .T. ) ;
#79 = STYLED_ITEM ( 'NONE', ( #35 ), #42 ) ;
#80 = PRESENTATION_LAYER_ASSIGNMENT (  '', '', ( #79 ) ) ;
#81 = ADVANCED_FACE ( 'NONE', ( #245 ), #142, .T. ) ;
#82 =( CONVERSION_BASED_UNIT ( 'INCH', #136 ) LENGTH_UNIT ( ) NAMED_UNIT ( #205 ) );
#83 = ORIENTED_EDGE ( 'NONE', *, *, #214, .F. ) ;
#84 = UNCERTAINTY_MEASURE_WITH_UNIT (LENGTH_MEASURE( 1.000000000000000082E-05 ), #206, 'distance_accuracy_value', 'NONE');
#85 = FILL_AREA_STYLE ('',( #192 ) ) ;
#86 = ORIENTED_EDGE ( 'NONE', *, *, #270, .T. ) ;
#87 = DIRECTION ( 'NONE',  ( 3.498990854706722745E-17, -1.000000000000000000, 0.000000000000000000 ) ) ;
#88 = FACE_OUTER_BOUND ( 'NONE', #264, .T. ) ;
#89 = AXIS2_PLACEMENT_3D ( 'NONE', #90, #52, #144 ) ;
#90 = CARTESIAN_POINT ( 'NONE',  ( -6.123233995736766036E-17, 2.500000000000000000, 0.000000000000000000 ) ) ;
#91 = LENGTH_MEASURE_WITH_UNIT ( LENGTH_MEASURE( 0.02539999999999999897 ), #167 );
#92 = AXIS2_PLACEMENT_3D ( 'NONE', #253, #248, #274 ) ;
#93 = CIRCLE ( 'NONE', #118, 0.06250000000000000000 ) ;
#94 = FACE_OUTER_BOUND ( 'NONE', #133, .T. ) ;
#95 = DIRECTION ( 'NONE',  ( 0.000000000000000000, 0.000000000000000000, -1.000000000000000000 ) ) ;
#96 =( NAMED_UNIT ( * ) SI_UNIT ( $, .STERADIAN. ) SOLID_ANGLE_UNIT ( ) );
#97 = STYLED_ITEM ( 'NONE', ( #226 ), #201 ) ;
#98 = SURFACE_SIDE_STYLE ('',( #273 ) ) ;
#99 = CARTESIAN_POINT ( 'NONE',  ( 0.000000000000000000, 0.000000000000000000, -0.06250000000000000000 ) ) ;
#100 = CARTESIAN_POINT ( 'NONE',  ( -6.123233995736766036E-17, 2.500000000000000000, 0.000000000000000000 ) ) ;
#101 = LENGTH_MEASURE_WITH_UNIT ( LENGTH_MEASURE( 0.02539999999999999897 ), #57 );
#102 = EDGE_CURVE ( 'NONE', #219, #68, #173, .T. ) ;
#103 = CARTESIAN_POINT ( 'NONE',  ( 0.000000000000000000, 0.7500000000000001110, -0.06250000000000000000 ) ) ;
#104 =( GEOMETRIC_REPRESENTATION_CONTEXT ( 3 ) GLOBAL_UNCERTAINTY_ASSIGNED_CONTEXT ( ( #287 ) ) GLOBAL_UNIT_ASSIGNED_CONTEXT ( ( #82, #159, #66 ) ) REPRESENTATION_CONTEXT ( 'NONE', 'WORKASPACE' ) );
#105 = EDGE_LOOP ( 'NONE', ( #41, #164, #30, #121 ) ) ;
#106 = UNCERTAINTY_MEASURE_WITH_UNIT (LENGTH_MEASURE( 1.000000000000000082E-05 ), #259, 'distance_accuracy_value', 'NONE');
#107 = DIRECTION ( 'NONE',  ( 0.000000000000000000, -0.000000000000000000, 1.000000000000000000 ) ) ;
#108 = PRODUCT_RELATED_PRODUCT_CATEGORY ( 'part', '', ( #229 ) ) ;
#109 = PRODUCT_DEFINITION_FORMATION_WITH_SPECIFIED_SOURCE ( 'ANY', '', #229, .NOT_KNOWN. ) ;
#110 = EDGE_LOOP ( 'NONE', ( #17, #86 ) ) ;
#111 = PRODUCT_CONTEXT ( 'NONE', #61, 'mechanical' ) ;
#112 = ORIENTED_EDGE ( 'NONE', *, *, #232, .T. ) ;
#113 = UNCERTAINTY_MEASURE_WITH_UNIT (LENGTH_MEASURE( 1.000000000000000082E-05 ), #255, 'distance_accuracy_value', 'NONE');
#114 = DIRECTION ( 'NONE',  ( 0.000000000000000000, 1.000000000000000000, 0.000000000000000000 ) ) ;
#115 = EDGE_CURVE ( 'NONE', #260, #219, #211, .T. ) ;
#116 = PRESENTATION_STYLE_ASSIGNMENT (( #267 ) ) ;
#117 = AXIS2_PLACEMENT_3D ( 'NONE', #233, #258, #39 ) ;
#118 = AXIS2_PLACEMENT_3D ( 'NONE', #203, #38, #95 ) ;
#119 =( NAMED_UNIT ( * ) SI_UNIT ( $, .STERADIAN. ) SOLID_ANGLE_UNIT ( ) );
#120 = DIMENSIONAL_EXPONENTS ( 1.000000000000000000, 0.000000000000000000, 0.000000000000000000, 0.000000000000000000, 0.000000000000000000, 0.000000000000000000, 0.000000000000000000 ) ;
#121 = ORIENTED_EDGE ( 'NONE', *, *, #270, .F. ) ;
#122 = STYLED_ITEM ( 'NONE', ( #116 ), #81 ) ;
#123 = CARTESIAN_POINT ( 'NONE',  ( 0.000000000000000000, 0.000000000000000000, 0.000000000000000000 ) ) ;
#124 = LENGTH_MEASURE_WITH_UNIT ( LENGTH_MEASURE( 0.02539999999999999897 ), #305 );
#125 = EDGE_CURVE ( 'NONE', #65, #285, #14, .T. ) ;
#126 = SURFACE_STYLE_USAGE ( .BOTH. , #272 ) ;
#127 = DIRECTION ( 'NONE',  ( -0.000000000000000000, -1.000000000000000000, -0.000000000000000000 ) ) ;
#128 = COLOUR_RGB ( '',0.7921568627450980005, 0.8196078431372548767, 0.9333333333333333481 ) ;
#129 = COLOUR_RGB ( '',1.000000000000000000, 0.000000000000000000, 0.000000000000000000 ) ;
#130 = FILL_AREA_STYLE ('',( #154 ) ) ;
#131 = DIRECTION ( 'NONE',  ( -1.000000000000000000, 0.000000000000000000, 0.000000000000000000 ) ) ;
#132 = DIRECTION ( 'NONE',  ( 0.000000000000000000, 0.000000000000000000, 1.000000000000000000 ) ) ;
#133 = EDGE_LOOP ( 'NONE', ( #1, #112, #180, #156 ) ) ;
#134 = ORIENTED_EDGE ( 'NONE', *, *, #163, .F. ) ;
#135 = PLANE ( 'NONE',  #257 ) ;
#136 = LENGTH_MEASURE_WITH_UNIT ( LENGTH_MEASURE( 0.02539999999999999897 ), #161 );
#137 =( NAMED_UNIT ( * ) SI_UNIT ( $, .STERADIAN. ) SOLID_ANGLE_UNIT ( ) );
#138 = VERTEX_POINT ( 'NONE', #58 ) ;
#139 = FILL_AREA_STYLE_COLOUR ( '', #166 ) ;
#140 = STYLED_ITEM ( 'NONE', ( #151 ), #275 ) ;
#141 = DIMENSIONAL_EXPONENTS ( 1.000000000000000000, 0.000000000000000000, 0.000000000000000000, 0.000000000000000000, 0.000000000000000000, 0.000000000000000000, 0.000000000000000000 ) ;
#142 = PLANE ( 'NONE',  #158 ) ;
#143 = LENGTH_MEASURE_WITH_UNIT ( LENGTH_MEASURE( 0.02539999999999999897 ), #300 );
#144 = DIRECTION ( 'NONE',  ( -1.000000000000000000, 0.000000000000000000, 0.000000000000000000 ) ) ;
#145 = MECHANICAL_DESIGN_GEOMETRIC_PRESENTATION_REPRESENTATION (  '', ( #79 ), #223 ) ;
#146 = EDGE_CURVE ( 'NONE', #65, #184, #169, .T. ) ;
#147 = DIRECTION ( 'NONE',  ( -0.000000000000000000, -1.000000000000000000, -0.000000000000000000 ) ) ;
#148 = SURFACE_STYLE_FILL_AREA ( #171 ) ;
#149 = FILL_AREA_STYLE ('',( #279 ) ) ;
#150 = CYLINDRICAL_SURFACE ( 'NONE', #286, 0.06250000000000000000 ) ;
#151 = PRESENTATION_STYLE_ASSIGNMENT (( #13 ) ) ;
#152 = AXIS2_PLACEMENT_3D ( 'NONE', #303, #114, #107 ) ;
#153 = MECHANICAL_DESIGN_GEOMETRIC_PRESENTATION_REPRESENTATION (  '', ( #140 ), #242 ) ;
#154 = FILL_AREA_STYLE_COLOUR ( '', #129 ) ;
#155 =( NAMED_UNIT ( * ) SI_UNIT ( $, .STERADIAN. ) SOLID_ANGLE_UNIT ( ) );
#156 = ORIENTED_EDGE ( 'NONE', *, *, #102, .F. ) ;
#157 = DIRECTION ( 'NONE',  ( -1.000000000000000000, -3.498990854706722745E-17, 0.000000000000000000 ) ) ;
#158 = AXIS2_PLACEMENT_3D ( 'NONE', #71, #209, #181 ) ;
#159 =( NAMED_UNIT ( * ) PLANE_ANGLE_UNIT ( ) SI_UNIT ( $, .RADIAN. ) );
#160 = UNCERTAINTY_MEASURE_WITH_UNIT (LENGTH_MEASURE( 1.000000000000000082E-05 ), #190, 'distance_accuracy_value', 'NONE');
#161 =( LENGTH_UNIT ( ) NAMED_UNIT ( * ) SI_UNIT ( $, .METRE. ) );
#162 = LENGTH_MEASURE_WITH_UNIT ( LENGTH_MEASURE( 0.02539999999999999897 ), #62 );
#163 = EDGE_CURVE ( 'NONE', #262, #285, #187, .T. ) ;
#164 = ORIENTED_EDGE ( 'NONE', *, *, #146, .T. ) ;
#165 = CARTESIAN_POINT ( 'NONE',  ( 0.000000000000000000, 0.000000000000000000, 0.000000000000000000 ) ) ;
#166 = COLOUR_RGB ( '',1.000000000000000000, 0.000000000000000000, 0.000000000000000000 ) ;
#167 =( LENGTH_UNIT ( ) NAMED_UNIT ( * ) SI_UNIT ( $, .METRE. ) );
#168 = PRODUCT_DEFINITION ( 'UNKNOWN', '', #109, #293 ) ;
#169 = CIRCLE ( 'NONE', #117, 0.06250000000000000000 ) ;
#170 = PRESENTATION_LAYER_ASSIGNMENT (  '', '', ( #140 ) ) ;
#171 = FILL_AREA_STYLE ('',( #56 ) ) ;
#172 = ORIENTED_EDGE ( 'NONE', *, *, #12, .T. ) ;
#173 = CIRCLE ( 'NONE', #268, 0.06250000000000005551 ) ;
#174 = VECTOR ( 'NONE', #9, 39.37007874015748143 ) ;
#175 = DIRECTION ( 'NONE',  ( -0.000000000000000000, -1.000000000000000000, -0.000000000000000000 ) ) ;
#176 =( NAMED_UNIT ( * ) PLANE_ANGLE_UNIT ( ) SI_UNIT ( $, .RADIAN. ) );
#177 = FACE_OUTER_BOUND ( 'NONE', #48, .T. ) ;
#178 = DIRECTION ( 'NONE',  ( 0.000000000000000000, 0.000000000000000000, -1.000000000000000000 ) ) ;
#179 = CARTESIAN_POINT ( 'NONE',  ( 0.06249999999999997224, 2.500000000000000000, 7.654042494670960626E-18 ) ) ;
#180 = ORIENTED_EDGE ( 'NONE', *, *, #214, .T. ) ;
#181 = DIRECTION ( 'NONE',  ( 0.000000000000000000, 0.000000000000000000, -1.000000000000000000 ) ) ;
#182 = CYLINDRICAL_SURFACE ( 'NONE', #196, 0.06250000000000000000 ) ;
#183 = AXIS2_PLACEMENT_3D ( 'NONE', #307, #87, #216 ) ;
#184 = VERTEX_POINT ( 'NONE', #103 ) ;
#185 = SURFACE_STYLE_FILL_AREA ( #20 ) ;
#186 = PRESENTATION_STYLE_ASSIGNMENT (( #238 ) ) ;
#187 = CIRCLE ( 'NONE', #36, 0.06250000000000000000 ) ;
#188 = AXIS2_PLACEMENT_3D ( 'NONE', #207, #34, #298 ) ;
#189 = ORIENTED_EDGE ( 'NONE', *, *, #197, .T. ) ;
#190 =( CONVERSION_BASED_UNIT ( 'INCH', #263 ) LENGTH_UNIT ( ) NAMED_UNIT ( #221 ) );
#191 = UNCERTAINTY_MEASURE_WITH_UNIT (LENGTH_MEASURE( 1.000000000000000082E-05 ), #283, 'distance_accuracy_value', 'NONE');
#192 = FILL_AREA_STYLE_COLOUR ( '', #128 ) ;
#193 = PLANE ( 'NONE',  #183 ) ;
#194 = ORIENTED_EDGE ( 'NONE', *, *, #102, .T. ) ;
#195 = AXIS2_PLACEMENT_3D ( 'NONE', #304, #251, #202 ) ;
#196 = AXIS2_PLACEMENT_3D ( 'NONE', #60, #175, #213 ) ;
#197 = EDGE_CURVE ( 'NONE', #68, #219, #210, .T. ) ;
#198 = DIMENSIONAL_EXPONENTS ( 1.000000000000000000, 0.000000000000000000, 0.000000000000000000, 0.000000000000000000, 0.000000000000000000, 0.000000000000000000, 0.000000000000000000 ) ;
#199 = PRESENTATION_LAYER_ASSIGNMENT (  '', '', ( #22 ) ) ;
#200 = AXIS2_PLACEMENT_3D ( 'NONE', #165, #132, #15 ) ;
#201 = ADVANCED_FACE ( 'NONE', ( #230 ), #277, .T. ) ;
#202 = DIRECTION ( 'NONE',  ( -1.000000000000000000, 0.000000000000000000, 0.000000000000000000 ) ) ;
#203 = CARTESIAN_POINT ( 'NONE',  ( 0.000000000000000000, 0.7500000000000001110, 0.000000000000000000 ) ) ;
#204 = MANIFOLD_SOLID_BREP ( 'Revolve - Cutting Edge', #246 ) ;
#205 = DIMENSIONAL_EXPONENTS ( 1.000000000000000000, 0.000000000000000000, 0.000000000000000000, 0.000000000000000000, 0.000000000000000000, 0.000000000000000000, 0.000000000000000000 ) ;
#206 =( CONVERSION_BASED_UNIT ( 'INCH', #143 ) LENGTH_UNIT ( ) NAMED_UNIT ( #271 ) );
#207 = CARTESIAN_POINT ( 'NONE',  ( -7.582401355855259480E-33, 0.7499999999999998890, 0.000000000000000000 ) ) ;
#208 = PRODUCT_DEFINITION_SHAPE ( 'NONE', 'NONE',  #168 ) ;
#209 = DIRECTION ( 'NONE',  ( 0.000000000000000000, -1.000000000000000000, -0.000000000000000000 ) ) ;
#210 = CIRCLE ( 'NONE', #69, 0.06250000000000005551 ) ;
#211 = LINE ( 'NONE', #179, #282 ) ;
#212 = CARTESIAN_POINT ( 'NONE',  ( 7.654042494670957545E-18, 0.000000000000000000, 0.06250000000000000000 ) ) ;
#213 = DIRECTION ( 'NONE',  ( 0.000000000000000000, 0.000000000000000000, -1.000000000000000000 ) ) ;
#214 = EDGE_CURVE ( 'NONE', #138, #68, #10, .T. ) ;
#215 = ORIENTED_EDGE ( 'NONE', *, *, #115, .T. ) ;
#216 = DIRECTION ( 'NONE',  ( 1.000000000000000000, 3.498990854706722745E-17, 0.000000000000000000 ) ) ;
#217 =( LENGTH_UNIT ( ) NAMED_UNIT ( * ) SI_UNIT ( $, .METRE. ) );
#218 = STYLED_ITEM ( 'NONE', ( #19 ), #308 ) ;
#219 = VERTEX_POINT ( 'NONE', #21 ) ;
#220 = APPLICATION_PROTOCOL_DEFINITION ( 'draft international standard', 'automotive_design', 1998, #40 ) ;
#221 = DIMENSIONAL_EXPONENTS ( 1.000000000000000000, 0.000000000000000000, 0.000000000000000000, 0.000000000000000000, 0.000000000000000000, 0.000000000000000000, 0.000000000000000000 ) ;
#222 = CARTESIAN_POINT ( 'NONE',  ( -0.06250000000000012490, 2.500000000000000000, 0.000000000000000000 ) ) ;
#223 =( GEOMETRIC_REPRESENTATION_CONTEXT ( 3 ) GLOBAL_UNCERTAINTY_ASSIGNED_CONTEXT ( ( #84 ) ) GLOBAL_UNIT_ASSIGNED_CONTEXT ( ( #206, #54, #119 ) ) REPRESENTATION_CONTEXT ( 'NONE', 'WORKASPACE' ) );
#224 =( NAMED_UNIT ( * ) SI_UNIT ( $, .STERADIAN. ) SOLID_ANGLE_UNIT ( ) );
#225 = CARTESIAN_POINT ( 'NONE',  ( -0.06250000000000009714, 2.500000000000000000, 0.000000000000000000 ) ) ;
#226 = PRESENTATION_STYLE_ASSIGNMENT (( #252 ) ) ;
#227 = EDGE_CURVE ( 'NONE', #184, #65, #93, .T. ) ;
#228 =( NAMED_UNIT ( * ) PLANE_ANGLE_UNIT ( ) SI_UNIT ( $, .RADIAN. ) );
#229 = PRODUCT ( '83187', '83187', '', ( #111 ) ) ;
#230 = FACE_OUTER_BOUND ( 'NONE', #280, .T. ) ;
#231 = DIRECTION ( 'NONE',  ( -3.498990854706722745E-17, 1.000000000000000000, 0.000000000000000000 ) ) ;
#232 = EDGE_CURVE ( 'NONE', #260, #138, #37, .T. ) ;
#233 = CARTESIAN_POINT ( 'NONE',  ( 0.000000000000000000, 0.7500000000000001110, 0.000000000000000000 ) ) ;
#234 = CLOSED_SHELL ( 'NONE', ( #28, #291, #53, #281 ) ) ;
#235 = COLOUR_RGB ( '',1.000000000000000000, 0.000000000000000000, 0.000000000000000000 ) ;
#236 = COLOUR_RGB ( '',0.7921568627450980005, 0.8196078431372548767, 0.9333333333333333481 ) ;
#237 = FILL_AREA_STYLE_COLOUR ( '', #236 ) ;
#238 = SURFACE_STYLE_USAGE ( .BOTH. , #67 ) ;
#239 = MECHANICAL_DESIGN_GEOMETRIC_PRESENTATION_REPRESENTATION (  '', ( #22 ), #249 ) ;
#240 = FILL_AREA_STYLE ('',( #139 ) ) ;
#241 = CARTESIAN_POINT ( 'NONE',  ( 7.654042494670957545E-18, 0.7500000000000001110, 0.06250000000000000000 ) ) ;
#242 =( GEOMETRIC_REPRESENTATION_CONTEXT ( 3 ) GLOBAL_UNCERTAINTY_ASSIGNED_CONTEXT ( ( #106 ) ) GLOBAL_UNIT_ASSIGNED_CONTEXT ( ( #259, #228, #224 ) ) REPRESENTATION_CONTEXT ( 'NONE', 'WORKASPACE' ) );
#243 = SURFACE_STYLE_FILL_AREA ( #240 ) ;
#244 = DIRECTION ( 'NONE',  ( 0.000000000000000000, 0.000000000000000000, -1.000000000000000000 ) ) ;
#245 = FACE_OUTER_BOUND ( 'NONE', #110, .T. ) ;
#246 = CLOSED_SHELL ( 'NONE', ( #42, #201, #275, #81 ) ) ;
#247 = PRESENTATION_LAYER_ASSIGNMENT (  '', '', ( #122 ) ) ;
#248 = DIRECTION ( 'NONE',  ( -3.498990854706722745E-17, 1.000000000000000000, -0.000000000000000000 ) ) ;
#249 =( GEOMETRIC_REPRESENTATION_CONTEXT ( 3 ) GLOBAL_UNCERTAINTY_ASSIGNED_CONTEXT ( ( #26 ) ) GLOBAL_UNIT_ASSIGNED_CONTEXT ( ( #43, #309, #269 ) ) REPRESENTATION_CONTEXT ( 'NONE', 'WORKASPACE' ) );
#250 = CARTESIAN_POINT ( 'NONE',  ( 0.000000000000000000, 0.000000000000000000, 0.000000000000000000 ) ) ;
#251 = DIRECTION ( 'NONE',  ( -3.498990854706722745E-17, 1.000000000000000000, -0.000000000000000000 ) ) ;
#252 = SURFACE_STYLE_USAGE ( .BOTH. , #98 ) ;
#253 = CARTESIAN_POINT ( 'NONE',  ( -6.123233995736766036E-17, 2.500000000000000000, 0.000000000000000000 ) ) ;
#254 = CARTESIAN_POINT ( 'NONE',  ( 0.000000000000000000, 0.000000000000000000, -0.06250000000000000000 ) ) ;
#255 =( CONVERSION_BASED_UNIT ( 'INCH', #91 ) LENGTH_UNIT ( ) NAMED_UNIT ( #120 ) );
#256 = ORIENTED_EDGE ( 'NONE', *, *, #12, .F. ) ;
#257 = AXIS2_PLACEMENT_3D ( 'NONE', #2, #231, #157 ) ;
#258 = DIRECTION ( 'NONE',  ( -0.000000000000000000, -1.000000000000000000, -0.000000000000000000 ) ) ;
#259 =( CONVERSION_BASED_UNIT ( 'INCH', #101 ) LENGTH_UNIT ( ) NAMED_UNIT ( #198 ) );
#260 = VERTEX_POINT ( 'NONE', #70 ) ;
#261 = SURFACE_STYLE_USAGE ( .BOTH. , #18 ) ;
#262 = VERTEX_POINT ( 'NONE', #254 ) ;
#263 = LENGTH_MEASURE_WITH_UNIT ( LENGTH_MEASURE( 0.02539999999999999897 ), #217 );
#264 = EDGE_LOOP ( 'NONE', ( #189, #194 ) ) ;
#265 = EDGE_CURVE ( 'NONE', #184, #262, #302, .T. ) ;
#266 = CYLINDRICAL_SURFACE ( 'NONE', #89, 0.06250000000000002776 ) ;
#267 = SURFACE_STYLE_USAGE ( .BOTH. , #29 ) ;
#268 = AXIS2_PLACEMENT_3D ( 'NONE', #100, #301, #11 ) ;
#269 =( NAMED_UNIT ( * ) SI_UNIT ( $, .STERADIAN. ) SOLID_ANGLE_UNIT ( ) );
#270 = EDGE_CURVE ( 'NONE', #285, #262, #44, .T. ) ;
#271 = DIMENSIONAL_EXPONENTS ( 1.000000000000000000, 0.000000000000000000, 0.000000000000000000, 0.000000000000000000, 0.000000000000000000, 0.000000000000000000, 0.000000000000000000 ) ;
#272 = SURFACE_SIDE_STYLE ('',( #148 ) ) ;
#273 = SURFACE_STYLE_FILL_AREA ( #149 ) ;
#274 = DIRECTION ( 'NONE',  ( -1.000000000000000000, 0.000000000000000000, 0.000000000000000000 ) ) ;
#275 = ADVANCED_FACE ( 'NONE', ( #78 ), #182, .T. ) ;
#276 = SURFACE_SIDE_STYLE ('',( #278 ) ) ;
#277 = PLANE ( 'NONE',  #152 ) ;
#278 = SURFACE_STYLE_FILL_AREA ( #130 ) ;
#279 = FILL_AREA_STYLE_COLOUR ( '', #64 ) ;
#280 = EDGE_LOOP ( 'NONE', ( #290, #27 ) ) ;
#281 = ADVANCED_FACE ( 'NONE', ( #88 ), #193, .F. ) ;
#282 = VECTOR ( 'NONE', #16, 39.37007874015748143 ) ;
#283 =( CONVERSION_BASED_UNIT ( 'INCH', #124 ) LENGTH_UNIT ( ) NAMED_UNIT ( #141 ) );
#284 = SHAPE_DEFINITION_REPRESENTATION ( #208, #23 ) ;
#285 = VERTEX_POINT ( 'NONE', #63 ) ;
#286 = AXIS2_PLACEMENT_3D ( 'NONE', #297, #294, #244 ) ;
#287 = UNCERTAINTY_MEASURE_WITH_UNIT (LENGTH_MEASURE( 1.000000000000000082E-05 ), #82, 'distance_accuracy_value', 'NONE');
#288 = ORIENTED_EDGE ( 'NONE', *, *, #265, .F. ) ;
#289 = SURFACE_STYLE_FILL_AREA ( #85 ) ;
#290 = ORIENTED_EDGE ( 'NONE', *, *, #227, .F. ) ;
#291 = ADVANCED_FACE ( 'NONE', ( #46 ), #135, .F. ) ;
#292 = EDGE_LOOP ( 'NONE', ( #256, #51 ) ) ;
#293 = PRODUCT_DEFINITION_CONTEXT ( 'detailed design', #40, 'design' ) ;
#294 = DIRECTION ( 'NONE',  ( -0.000000000000000000, -1.000000000000000000, -0.000000000000000000 ) ) ;
#295 = VECTOR ( 'NONE', #147, 39.37007874015748143 ) ;
#296 = CYLINDRICAL_SURFACE ( 'NONE', #92, 0.06250000000000002776 ) ;
#297 = CARTESIAN_POINT ( 'NONE',  ( 0.000000000000000000, 0.000000000000000000, 0.000000000000000000 ) ) ;
#298 = DIRECTION ( 'NONE',  ( -1.000000000000000000, 0.000000000000000000, 0.000000000000000000 ) ) ;
#299 = DIRECTION ( 'NONE',  ( 0.000000000000000000, 0.000000000000000000, -1.000000000000000000 ) ) ;
#300 =( LENGTH_UNIT ( ) NAMED_UNIT ( * ) SI_UNIT ( $, .METRE. ) );
#301 = DIRECTION ( 'NONE',  ( -3.498990854706722745E-17, 1.000000000000000000, -0.000000000000000000 ) ) ;
#302 = LINE ( 'NONE', #99, #8 ) ;
#303 = CARTESIAN_POINT ( 'NONE',  ( 0.000000000000000000, 0.7500000000000001110, 0.000000000000000000 ) ) ;
#304 = CARTESIAN_POINT ( 'NONE',  ( -7.582401355855259480E-33, 0.7499999999999998890, 0.000000000000000000 ) ) ;
#305 =( LENGTH_UNIT ( ) NAMED_UNIT ( * ) SI_UNIT ( $, .METRE. ) );
#306 = MECHANICAL_DESIGN_GEOMETRIC_PRESENTATION_REPRESENTATION (  '', ( #122 ), #5 ) ;
#307 = CARTESIAN_POINT ( 'NONE',  ( 0.06250000000000000000, 2.500000000000000000, 0.000000000000000000 ) ) ;
#308 = MANIFOLD_SOLID_BREP ( 'Revolve - Tool Body (Straight Shanked)', #234 ) ;
#309 =( NAMED_UNIT ( * ) PLANE_ANGLE_UNIT ( ) SI_UNIT ( $, .RADIAN. ) );
ENDSEC;
END-ISO-10303-21;
