ISO-10303-21;
HEADER;
FILE_DESCRIPTION (( 'STEP AP214' ),
    '1' );
FILE_NAME ('23070.STEP',
    '2023-06-22T16:31:16',
    ( '' ),
    ( '' ),
    'SwSTEP 2.0',
    'SolidWorks 2023',
    '' );
FILE_SCHEMA (( 'AUTOMOTIVE_DESIGN' ));
ENDSEC;

DATA;
#1 = UNCERTAINTY_MEASURE_WITH_UNIT (LENGTH_MEASURE( 1.000000000000000082E-05 ), #103, 'distance_accuracy_value', 'NONE');
#2 = SURFACE_STYLE_USAGE ( .BOTH. , #131 ) ;
#3 = DIRECTION ( 'NONE',  ( -3.768143997376471359E-17, -1.000000000000000000, 0.000000000000000000 ) ) ;
#4 = PRESENTATION_STYLE_ASSIGNMENT (( #2 ) ) ;
#5 =( GEOMETRIC_REPRESENTATION_CONTEXT ( 3 ) GLOBAL_UNCERTAINTY_ASSIGNED_CONTEXT ( ( #268 ) ) GLOBAL_UNIT_ASSIGNED_CONTEXT ( ( #88, #142, #112 ) ) REPRESENTATION_CONTEXT ( 'NONE', 'WORKASPACE' ) );
#6 = EDGE_LOOP ( 'NONE', ( #208, #90, #85, #160 ) ) ;
#7 = EDGE_CURVE ( 'NONE', #299, #161, #30, .T. ) ;
#8 = COLOUR_RGB ( '',1.000000000000000000, 0.000000000000000000, 0.000000000000000000 ) ;
#9 = VERTEX_POINT ( 'NONE', #237 ) ;
#10 = ADVANCED_FACE ( 'NONE', ( #68 ), #86, .T. ) ;
#11 = CIRCLE ( 'NONE', #54, 0.1250000000000000278 ) ;
#12 = CARTESIAN_POINT ( 'NONE',  ( 1.530808498934191817E-17, 0.3750000000000000555, 0.1250000000000000278 ) ) ;
#13 = ORIENTED_EDGE ( 'NONE', *, *, #28, .T. ) ;
#14 = PRESENTATION_STYLE_ASSIGNMENT (( #236 ) ) ;
#15 = CARTESIAN_POINT ( 'NONE',  ( 0.000000000000000000, 0.3750000000000000555, 0.000000000000000000 ) ) ;
#16 = AXIS2_PLACEMENT_3D ( 'NONE', #222, #52, #270 ) ;
#17 = DIRECTION ( 'NONE',  ( 0.000000000000000000, -0.000000000000000000, 1.000000000000000000 ) ) ;
#18 =( LENGTH_UNIT ( ) NAMED_UNIT ( * ) SI_UNIT ( $, .METRE. ) );
#19 = COLOUR_RGB ( '',0.7921568627450980005, 0.8196078431372548767, 0.9333333333333333481 ) ;
#20 =( NAMED_UNIT ( * ) PLANE_ANGLE_UNIT ( ) SI_UNIT ( $, .RADIAN. ) );
#21 = SURFACE_STYLE_FILL_AREA ( #170 ) ;
#22 = PLANE ( 'NONE',  #48 ) ;
#23 = VECTOR ( 'NONE', #147, 39.37007874015748143 ) ;
#24 = ADVANCED_FACE ( 'NONE', ( #181 ), #146, .T. ) ;
#25 =( NAMED_UNIT ( * ) SI_UNIT ( $, .STERADIAN. ) SOLID_ANGLE_UNIT ( ) );
#26 = UNCERTAINTY_MEASURE_WITH_UNIT (LENGTH_MEASURE( 1.000000000000000082E-05 ), #149, 'distance_accuracy_value', 'NONE');
#27 = AXIS2_PLACEMENT_3D ( 'NONE', #306, #198, #150 ) ;
#28 = EDGE_CURVE ( 'NONE', #60, #164, #219, .T. ) ;
#29 = FACE_OUTER_BOUND ( 'NONE', #43, .T. ) ;
#30 = CIRCLE ( 'NONE', #31, 0.1250000000000000278 ) ;
#31 = AXIS2_PLACEMENT_3D ( 'NONE', #15, #297, #37 ) ;
#32 =( NAMED_UNIT ( * ) PLANE_ANGLE_UNIT ( ) SI_UNIT ( $, .RADIAN. ) );
#33 = CIRCLE ( 'NONE', #251, 0.1249999999999999445 ) ;
#34 = CARTESIAN_POINT ( 'NONE',  ( 0.000000000000000000, 0.000000000000000000, 0.000000000000000000 ) ) ;
#35 = ORIENTED_EDGE ( 'NONE', *, *, #221, .F. ) ;
#36 =( NAMED_UNIT ( * ) SI_UNIT ( $, .STERADIAN. ) SOLID_ANGLE_UNIT ( ) );
#37 = DIRECTION ( 'NONE',  ( 0.000000000000000000, 0.000000000000000000, -1.000000000000000000 ) ) ;
#38 = PRODUCT_CONTEXT ( 'NONE', #102, 'mechanical' ) ;
#39 = VERTEX_POINT ( 'NONE', #288 ) ;
#40 = EDGE_CURVE ( 'NONE', #39, #60, #11, .T. ) ;
#41 = AXIS2_PLACEMENT_3D ( 'NONE', #194, #96, #76 ) ;
#42 = FILL_AREA_STYLE ('',( #254 ) ) ;
#43 = EDGE_LOOP ( 'NONE', ( #186, #13, #253, #65 ) ) ;
#44 = SURFACE_SIDE_STYLE ('',( #250 ) ) ;
#45 = ORIENTED_EDGE ( 'NONE', *, *, #163, .T. ) ;
#46 = STYLED_ITEM ( 'NONE', ( #239 ), #264 ) ;
#47 =( NAMED_UNIT ( * ) PLANE_ANGLE_UNIT ( ) SI_UNIT ( $, .RADIAN. ) );
#48 = AXIS2_PLACEMENT_3D ( 'NONE', #185, #287, #17 ) ;
#49 = PRESENTATION_STYLE_ASSIGNMENT (( #263 ) ) ;
#50 = CARTESIAN_POINT ( 'NONE',  ( 0.1250000000000000278, 0.3749999999999999445, 1.530808498934191817E-17 ) ) ;
#51 = EDGE_CURVE ( 'NONE', #39, #63, #118, .T. ) ;
#52 = DIRECTION ( 'NONE',  ( -0.000000000000000000, -1.000000000000000000, -0.000000000000000000 ) ) ;
#53 = CYLINDRICAL_SURFACE ( 'NONE', #141, 0.1250000000000000000 ) ;
#54 = AXIS2_PLACEMENT_3D ( 'NONE', #200, #266, #128 ) ;
#55 = EDGE_CURVE ( 'NONE', #252, #9, #207, .T. ) ;
#56 =( NAMED_UNIT ( * ) SI_UNIT ( $, .STERADIAN. ) SOLID_ANGLE_UNIT ( ) );
#57 = PRESENTATION_LAYER_ASSIGNMENT (  '', '', ( #78 ) ) ;
#58 = DIMENSIONAL_EXPONENTS ( 1.000000000000000000, 0.000000000000000000, 0.000000000000000000, 0.000000000000000000, 0.000000000000000000, 0.000000000000000000, 0.000000000000000000 ) ;
#59 = FACE_OUTER_BOUND ( 'NONE', #143, .T. ) ;
#60 = VERTEX_POINT ( 'NONE', #50 ) ;
#61 = DIMENSIONAL_EXPONENTS ( 1.000000000000000000, 0.000000000000000000, 0.000000000000000000, 0.000000000000000000, 0.000000000000000000, 0.000000000000000000, 0.000000000000000000 ) ;
#62 = ORIENTED_EDGE ( 'NONE', *, *, #121, .T. ) ;
#63 = VERTEX_POINT ( 'NONE', #171 ) ;
#64 = CARTESIAN_POINT ( 'NONE',  ( 0.1250000000000000278, 2.000000000000000000, 1.530808498934191817E-17 ) ) ;
#65 = ORIENTED_EDGE ( 'NONE', *, *, #51, .F. ) ;
#66 = STYLED_ITEM ( 'NONE', ( #4 ), #130 ) ;
#67 =( LENGTH_UNIT ( ) NAMED_UNIT ( * ) SI_UNIT ( $, .METRE. ) );
#68 = FACE_OUTER_BOUND ( 'NONE', #213, .T. ) ;
#69 = CYLINDRICAL_SURFACE ( 'NONE', #157, 0.1249999999999999861 ) ;
#70 = DIRECTION ( 'NONE',  ( 0.000000000000000000, 0.000000000000000000, -1.000000000000000000 ) ) ;
#71 = CIRCLE ( 'NONE', #16, 0.1250000000000000278 ) ;
#72 = DIRECTION ( 'NONE',  ( -1.000000000000000000, 0.000000000000000000, 0.000000000000000000 ) ) ;
#73 = DIRECTION ( 'NONE',  ( 3.768143997376471359E-17, 1.000000000000000000, -0.000000000000000000 ) ) ;
#74 = ADVANCED_FACE ( 'NONE', ( #304 ), #100, .F. ) ;
#75 = CARTESIAN_POINT ( 'NONE',  ( 0.000000000000000000, 0.000000000000000000, -0.1250000000000000000 ) ) ;
#76 = DIRECTION ( 'NONE',  ( 0.000000000000000000, 0.000000000000000000, -1.000000000000000000 ) ) ;
#77 = CARTESIAN_POINT ( 'NONE',  ( 0.000000000000000000, 0.000000000000000000, 0.000000000000000000 ) ) ;
#78 = STYLED_ITEM ( 'NONE', ( #300 ), #24 ) ;
#79 = LENGTH_MEASURE_WITH_UNIT ( LENGTH_MEASURE( 0.02539999999999999897 ), #301 );
#80 = PRODUCT_DEFINITION_FORMATION_WITH_SPECIFIED_SOURCE ( 'ANY', '', #229, .NOT_KNOWN. ) ;
#81 = VECTOR ( 'NONE', #105, 39.37007874015748143 ) ;
#82 = CYLINDRICAL_SURFACE ( 'NONE', #203, 0.1250000000000000000 ) ;
#83 = DIMENSIONAL_EXPONENTS ( 1.000000000000000000, 0.000000000000000000, 0.000000000000000000, 0.000000000000000000, 0.000000000000000000, 0.000000000000000000, 0.000000000000000000 ) ;
#84 = DIRECTION ( 'NONE',  ( -0.000000000000000000, -1.000000000000000000, -0.000000000000000000 ) ) ;
#85 = ORIENTED_EDGE ( 'NONE', *, *, #104, .T. ) ;
#86 = CYLINDRICAL_SURFACE ( 'NONE', #308, 0.1249999999999999861 ) ;
#87 = UNCERTAINTY_MEASURE_WITH_UNIT (LENGTH_MEASURE( 1.000000000000000082E-05 ), #123, 'distance_accuracy_value', 'NONE');
#88 =( CONVERSION_BASED_UNIT ( 'INCH', #109 ) LENGTH_UNIT ( ) NAMED_UNIT ( #107 ) );
#89 = FILL_AREA_STYLE ('',( #240 ) ) ;
#90 = ORIENTED_EDGE ( 'NONE', *, *, #221, .T. ) ;
#91 = APPLICATION_CONTEXT ( 'automotive_design' ) ;
#92 = DIRECTION ( 'NONE',  ( 0.000000000000000000, 0.000000000000000000, 1.000000000000000000 ) ) ;
#93 = CLOSED_SHELL ( 'NONE', ( #305, #74, #10, #284 ) ) ;
#94 = AXIS2_PLACEMENT_3D ( 'NONE', #77, #173, #70 ) ;
#95 =( NAMED_UNIT ( * ) PLANE_ANGLE_UNIT ( ) SI_UNIT ( $, .RADIAN. ) );
#96 = DIRECTION ( 'NONE',  ( -0.000000000000000000, -1.000000000000000000, -0.000000000000000000 ) ) ;
#97 = LENGTH_MEASURE_WITH_UNIT ( LENGTH_MEASURE( 0.02539999999999999897 ), #241 );
#98 =( NAMED_UNIT ( * ) SI_UNIT ( $, .STERADIAN. ) SOLID_ANGLE_UNIT ( ) );
#99 = AXIS2_PLACEMENT_3D ( 'NONE', #145, #73, #72 ) ;
#100 = PLANE ( 'NONE',  #283 ) ;
#101 = FACE_OUTER_BOUND ( 'NONE', #279, .T. ) ;
#102 = APPLICATION_CONTEXT ( 'automotive_design' ) ;
#103 =( CONVERSION_BASED_UNIT ( 'INCH', #216 ) LENGTH_UNIT ( ) NAMED_UNIT ( #61 ) );
#104 = EDGE_CURVE ( 'NONE', #299, #252, #127, .T. ) ;
#105 = DIRECTION ( 'NONE',  ( 3.768143997376471359E-17, 1.000000000000000000, -0.000000000000000000 ) ) ;
#106 = SURFACE_SIDE_STYLE ('',( #309 ) ) ;
#107 = DIMENSIONAL_EXPONENTS ( 1.000000000000000000, 0.000000000000000000, 0.000000000000000000, 0.000000000000000000, 0.000000000000000000, 0.000000000000000000, 0.000000000000000000 ) ;
#108 = MECHANICAL_DESIGN_GEOMETRIC_PRESENTATION_REPRESENTATION (  '', ( #66 ), #5 ) ;
#109 = LENGTH_MEASURE_WITH_UNIT ( LENGTH_MEASURE( 0.02539999999999999897 ), #234 );
#110 = ORIENTED_EDGE ( 'NONE', *, *, #51, .T. ) ;
#111 = PRESENTATION_LAYER_ASSIGNMENT (  '', '', ( #244 ) ) ;
#112 =( NAMED_UNIT ( * ) SI_UNIT ( $, .STERADIAN. ) SOLID_ANGLE_UNIT ( ) );
#113 = EDGE_LOOP ( 'NONE', ( #260, #62 ) ) ;
#114 = SURFACE_SIDE_STYLE ('',( #182 ) ) ;
#115 = PRODUCT_DEFINITION_CONTEXT ( 'detailed design', #91, 'design' ) ;
#116 = PRESENTATION_STYLE_ASSIGNMENT (( #195 ) ) ;
#117 =( CONVERSION_BASED_UNIT ( 'INCH', #152 ) LENGTH_UNIT ( ) NAMED_UNIT ( #58 ) );
#118 = LINE ( 'NONE', #217, #23 ) ;
#119 = DIRECTION ( 'NONE',  ( 1.000000000000000000, -3.768143997376471359E-17, 0.000000000000000000 ) ) ;
#120 = CIRCLE ( 'NONE', #27, 0.1250000000000000278 ) ;
#121 = EDGE_CURVE ( 'NONE', #9, #252, #256, .T. ) ;
#122 = SURFACE_SIDE_STYLE ('',( #21 ) ) ;
#123 =( CONVERSION_BASED_UNIT ( 'INCH', #286 ) LENGTH_UNIT ( ) NAMED_UNIT ( #204 ) );
#124 = COLOUR_RGB ( '',0.7921568627450980005, 0.8196078431372548767, 0.9333333333333333481 ) ;
#125 = FILL_AREA_STYLE_COLOUR ( '', #8 ) ;
#126 = VECTOR ( 'NONE', #230, 39.37007874015748143 ) ;
#127 = LINE ( 'NONE', #226, #156 ) ;
#128 = DIRECTION ( 'NONE',  ( -1.000000000000000000, 0.000000000000000000, 0.000000000000000000 ) ) ;
#129 = DIRECTION ( 'NONE',  ( 3.768143997376471359E-17, 1.000000000000000000, -0.000000000000000000 ) ) ;
#130 = ADVANCED_FACE ( 'NONE', ( #272 ), #53, .T. ) ;
#131 = SURFACE_SIDE_STYLE ('',( #243 ) ) ;
#132 = DIMENSIONAL_EXPONENTS ( 1.000000000000000000, 0.000000000000000000, 0.000000000000000000, 0.000000000000000000, 0.000000000000000000, 0.000000000000000000, 0.000000000000000000 ) ;
#133 = STYLED_ITEM ( 'NONE', ( #116 ), #294 ) ;
#134 = ORIENTED_EDGE ( 'NONE', *, *, #209, .T. ) ;
#135 = PRESENTATION_LAYER_ASSIGNMENT (  '', '', ( #46 ) ) ;
#136 = DIRECTION ( 'NONE',  ( -1.000000000000000000, 0.000000000000000000, 0.000000000000000000 ) ) ;
#137 = SHAPE_DEFINITION_REPRESENTATION ( #159, #238 ) ;
#138 = CARTESIAN_POINT ( 'NONE',  ( 6.123233995736766036E-17, 2.000000000000000000, 0.000000000000000000 ) ) ;
#139 = ORIENTED_EDGE ( 'NONE', *, *, #28, .F. ) ;
#140 = AXIS2_PLACEMENT_3D ( 'NONE', #188, #3, #119 ) ;
#141 = AXIS2_PLACEMENT_3D ( 'NONE', #34, #84, #259 ) ;
#142 =( NAMED_UNIT ( * ) PLANE_ANGLE_UNIT ( ) SI_UNIT ( $, .RADIAN. ) );
#143 = EDGE_LOOP ( 'NONE', ( #255, #45, #276, #232 ) ) ;
#144 = APPLICATION_PROTOCOL_DEFINITION ( 'draft international standard', 'automotive_design', 1998, #102 ) ;
#145 = CARTESIAN_POINT ( 'NONE',  ( 6.123233995736766036E-17, 2.000000000000000000, 0.000000000000000000 ) ) ;
#146 = PLANE ( 'NONE',  #273 ) ;
#147 = DIRECTION ( 'NONE',  ( 3.768143997376471359E-17, 1.000000000000000000, -0.000000000000000000 ) ) ;
#148 = UNCERTAINTY_MEASURE_WITH_UNIT (LENGTH_MEASURE( 1.000000000000000082E-05 ), #117, 'distance_accuracy_value', 'NONE');
#149 =( CONVERSION_BASED_UNIT ( 'INCH', #285 ) LENGTH_UNIT ( ) NAMED_UNIT ( #174 ) );
#150 = DIRECTION ( 'NONE',  ( -1.000000000000000000, 0.000000000000000000, 0.000000000000000000 ) ) ;
#151 = CARTESIAN_POINT ( 'NONE',  ( 0.000000000000000000, 0.000000000000000000, 0.000000000000000000 ) ) ;
#152 = LENGTH_MEASURE_WITH_UNIT ( LENGTH_MEASURE( 0.02539999999999999897 ), #67 );
#153 = CARTESIAN_POINT ( 'NONE',  ( 0.1250000000000000555, 2.000000000000000000, 1.530808498934191201E-17 ) ) ;
#154 = CARTESIAN_POINT ( 'NONE',  ( 0.000000000000000000, 0.000000000000000000, 0.000000000000000000 ) ) ;
#155 = DIRECTION ( 'NONE',  ( -1.000000000000000000, 3.768143997376471359E-17, 0.000000000000000000 ) ) ;
#156 = VECTOR ( 'NONE', #202, 39.37007874015748143 ) ;
#157 = AXIS2_PLACEMENT_3D ( 'NONE', #293, #129, #228 ) ;
#158 = EDGE_CURVE ( 'NONE', #63, #164, #33, .T. ) ;
#159 = PRODUCT_DEFINITION_SHAPE ( 'NONE', 'NONE',  #267 ) ;
#160 = ORIENTED_EDGE ( 'NONE', *, *, #121, .F. ) ;
#161 = VERTEX_POINT ( 'NONE', #12 ) ;
#162 = EDGE_LOOP ( 'NONE', ( #235, #35 ) ) ;
#163 = EDGE_CURVE ( 'NONE', #161, #9, #298, .T. ) ;
#164 = VERTEX_POINT ( 'NONE', #64 ) ;
#165 = MECHANICAL_DESIGN_GEOMETRIC_PRESENTATION_REPRESENTATION (  '', ( #187 ), #292 ) ;
#166 = DIRECTION ( 'NONE',  ( 3.768143997376471359E-17, 1.000000000000000000, -0.000000000000000000 ) ) ;
#167 =( GEOMETRIC_REPRESENTATION_CONTEXT ( 3 ) GLOBAL_UNCERTAINTY_ASSIGNED_CONTEXT ( ( #1 ) ) GLOBAL_UNIT_ASSIGNED_CONTEXT ( ( #103, #303, #98 ) ) REPRESENTATION_CONTEXT ( 'NONE', 'WORKASPACE' ) );
#168 = CLOSED_SHELL ( 'NONE', ( #180, #264, #130, #24 ) ) ;
#169 = DIRECTION ( 'NONE',  ( -0.000000000000000000, -1.000000000000000000, -0.000000000000000000 ) ) ;
#170 = FILL_AREA_STYLE ('',( #281 ) ) ;
#171 = CARTESIAN_POINT ( 'NONE',  ( -0.1249999999999998751, 2.000000000000000000, 0.000000000000000000 ) ) ;
#172 = SURFACE_SIDE_STYLE ('',( #218 ) ) ;
#173 = DIRECTION ( 'NONE',  ( -0.000000000000000000, -1.000000000000000000, -0.000000000000000000 ) ) ;
#174 = DIMENSIONAL_EXPONENTS ( 1.000000000000000000, 0.000000000000000000, 0.000000000000000000, 0.000000000000000000, 0.000000000000000000, 0.000000000000000000, 0.000000000000000000 ) ;
#175 = CARTESIAN_POINT ( 'NONE',  ( 0.000000000000000000, 0.3750000000000000555, -0.1250000000000000278 ) ) ;
#176 =( GEOMETRIC_REPRESENTATION_CONTEXT ( 3 ) GLOBAL_UNCERTAINTY_ASSIGNED_CONTEXT ( ( #87 ) ) GLOBAL_UNIT_ASSIGNED_CONTEXT ( ( #123, #47, #25 ) ) REPRESENTATION_CONTEXT ( 'NONE', 'WORKASPACE' ) );
#177 = ORIENTED_EDGE ( 'NONE', *, *, #248, .T. ) ;
#178 = PRODUCT_RELATED_PRODUCT_CATEGORY ( 'part', '', ( #229 ) ) ;
#179 = MECHANICAL_DESIGN_GEOMETRIC_PRESENTATION_REPRESENTATION (  '', ( #133 ), #205 ) ;
#180 = ADVANCED_FACE ( 'NONE', ( #59 ), #82, .T. ) ;
#181 = FACE_OUTER_BOUND ( 'NONE', #113, .T. ) ;
#182 = SURFACE_STYLE_FILL_AREA ( #89 ) ;
#183 =( GEOMETRIC_REPRESENTATION_CONTEXT ( 3 ) GLOBAL_UNCERTAINTY_ASSIGNED_CONTEXT ( ( #26 ) ) GLOBAL_UNIT_ASSIGNED_CONTEXT ( ( #149, #184, #280 ) ) REPRESENTATION_CONTEXT ( 'NONE', 'WORKASPACE' ) );
#184 =( NAMED_UNIT ( * ) PLANE_ANGLE_UNIT ( ) SI_UNIT ( $, .RADIAN. ) );
#185 = CARTESIAN_POINT ( 'NONE',  ( 0.000000000000000000, 0.3750000000000000555, 0.000000000000000000 ) ) ;
#186 = ORIENTED_EDGE ( 'NONE', *, *, #40, .T. ) ;
#187 = STYLED_ITEM ( 'NONE', ( #14 ), #180 ) ;
#188 = CARTESIAN_POINT ( 'NONE',  ( 0.1250000000000000278, 2.000000000000000000, 0.000000000000000000 ) ) ;
#189 = FILL_AREA_STYLE_COLOUR ( '', #197 ) ;
#190 = UNCERTAINTY_MEASURE_WITH_UNIT (LENGTH_MEASURE( 1.000000000000000082E-05 ), #192, 'distance_accuracy_value', 'NONE');
#191 =( LENGTH_UNIT ( ) NAMED_UNIT ( * ) SI_UNIT ( $, .METRE. ) );
#192 =( CONVERSION_BASED_UNIT ( 'INCH', #97 ) LENGTH_UNIT ( ) NAMED_UNIT ( #83 ) );
#193 =( NAMED_UNIT ( * ) SI_UNIT ( $, .STERADIAN. ) SOLID_ANGLE_UNIT ( ) );
#194 = CARTESIAN_POINT ( 'NONE',  ( 0.000000000000000000, 0.000000000000000000, 0.000000000000000000 ) ) ;
#195 = SURFACE_STYLE_USAGE ( .BOTH. , #122 ) ;
#196 = FILL_AREA_STYLE_COLOUR ( '', #19 ) ;
#197 = COLOUR_RGB ( '',1.000000000000000000, 0.000000000000000000, 0.000000000000000000 ) ;
#198 = DIRECTION ( 'NONE',  ( 3.768143997376471359E-17, 1.000000000000000000, -0.000000000000000000 ) ) ;
#199 = MANIFOLD_SOLID_BREP ( 'Revolve - Cutting Edge', #168 ) ;
#200 = CARTESIAN_POINT ( 'NONE',  ( 0.000000000000000000, 0.3749999999999999445, 0.000000000000000000 ) ) ;
#201 = SURFACE_STYLE_USAGE ( .BOTH. , #106 ) ;
#202 = DIRECTION ( 'NONE',  ( -0.000000000000000000, -1.000000000000000000, -0.000000000000000000 ) ) ;
#203 = AXIS2_PLACEMENT_3D ( 'NONE', #154, #169, #242 ) ;
#204 = DIMENSIONAL_EXPONENTS ( 1.000000000000000000, 0.000000000000000000, 0.000000000000000000, 0.000000000000000000, 0.000000000000000000, 0.000000000000000000, 0.000000000000000000 ) ;
#205 =( GEOMETRIC_REPRESENTATION_CONTEXT ( 3 ) GLOBAL_UNCERTAINTY_ASSIGNED_CONTEXT ( ( #190 ) ) GLOBAL_UNIT_ASSIGNED_CONTEXT ( ( #192, #20, #56 ) ) REPRESENTATION_CONTEXT ( 'NONE', 'WORKASPACE' ) );
#206 =( CONVERSION_BASED_UNIT ( 'INCH', #79 ) LENGTH_UNIT ( ) NAMED_UNIT ( #132 ) );
#207 = CIRCLE ( 'NONE', #41, 0.1250000000000000000 ) ;
#208 = ORIENTED_EDGE ( 'NONE', *, *, #163, .F. ) ;
#209 = EDGE_CURVE ( 'NONE', #164, #63, #269, .T. ) ;
#210 = ORIENTED_EDGE ( 'NONE', *, *, #158, .T. ) ;
#211 = APPLICATION_PROTOCOL_DEFINITION ( 'draft international standard', 'automotive_design', 1998, #91 ) ;
#212 = DIRECTION ( 'NONE',  ( 3.768143997376471359E-17, 1.000000000000000000, -0.000000000000000000 ) ) ;
#213 = EDGE_LOOP ( 'NONE', ( #139, #177, #110, #277 ) ) ;
#214 = SURFACE_STYLE_USAGE ( .BOTH. , #114 ) ;
#215 =( LENGTH_UNIT ( ) NAMED_UNIT ( * ) SI_UNIT ( $, .METRE. ) );
#216 = LENGTH_MEASURE_WITH_UNIT ( LENGTH_MEASURE( 0.02539999999999999897 ), #18 );
#217 = CARTESIAN_POINT ( 'NONE',  ( -0.1249999999999999167, 2.000000000000000000, 0.000000000000000000 ) ) ;
#218 = SURFACE_STYLE_FILL_AREA ( #265 ) ;
#219 = LINE ( 'NONE', #153, #81 ) ;
#220 = AXIS2_PLACEMENT_3D ( 'NONE', #258, #92, #249 ) ;
#221 = EDGE_CURVE ( 'NONE', #161, #299, #71, .T. ) ;
#222 = CARTESIAN_POINT ( 'NONE',  ( 0.000000000000000000, 0.3750000000000000555, 0.000000000000000000 ) ) ;
#223 =( GEOMETRIC_REPRESENTATION_CONTEXT ( 3 ) GLOBAL_UNCERTAINTY_ASSIGNED_CONTEXT ( ( #257 ) ) GLOBAL_UNIT_ASSIGNED_CONTEXT ( ( #206, #32, #36 ) ) REPRESENTATION_CONTEXT ( 'NONE', 'WORKASPACE' ) );
#224 = PRESENTATION_LAYER_ASSIGNMENT (  '', '', ( #66 ) ) ;
#225 = FILL_AREA_STYLE ('',( #125 ) ) ;
#226 = CARTESIAN_POINT ( 'NONE',  ( 0.000000000000000000, 0.000000000000000000, -0.1250000000000000000 ) ) ;
#227 = DIRECTION ( 'NONE',  ( 3.768143997376471359E-17, 1.000000000000000000, -0.000000000000000000 ) ) ;
#228 = DIRECTION ( 'NONE',  ( -1.000000000000000000, 0.000000000000000000, 0.000000000000000000 ) ) ;
#229 = PRODUCT ( '23070', '23070', '', ( #38 ) ) ;
#230 = DIRECTION ( 'NONE',  ( -0.000000000000000000, -1.000000000000000000, -0.000000000000000000 ) ) ;
#231 = DIRECTION ( 'NONE',  ( -1.000000000000000000, 0.000000000000000000, 0.000000000000000000 ) ) ;
#232 = ORIENTED_EDGE ( 'NONE', *, *, #104, .F. ) ;
#233 = EDGE_LOOP ( 'NONE', ( #296, #302 ) ) ;
#234 =( LENGTH_UNIT ( ) NAMED_UNIT ( * ) SI_UNIT ( $, .METRE. ) );
#235 = ORIENTED_EDGE ( 'NONE', *, *, #7, .F. ) ;
#236 = SURFACE_STYLE_USAGE ( .BOTH. , #44 ) ;
#237 = CARTESIAN_POINT ( 'NONE',  ( 1.530808498934191509E-17, 0.000000000000000000, 0.1250000000000000000 ) ) ;
#238 = ADVANCED_BREP_SHAPE_REPRESENTATION ( '23070', ( #199, #294, #220 ), #183 ) ;
#239 = PRESENTATION_STYLE_ASSIGNMENT (( #201 ) ) ;
#240 = FILL_AREA_STYLE_COLOUR ( '', #291 ) ;
#241 =( LENGTH_UNIT ( ) NAMED_UNIT ( * ) SI_UNIT ( $, .METRE. ) );
#242 = DIRECTION ( 'NONE',  ( 0.000000000000000000, 0.000000000000000000, -1.000000000000000000 ) ) ;
#243 = SURFACE_STYLE_FILL_AREA ( #261 ) ;
#244 = STYLED_ITEM ( 'NONE', ( #49 ), #199 ) ;
#245 = FACE_OUTER_BOUND ( 'NONE', #162, .T. ) ;
#246 = PRESENTATION_LAYER_ASSIGNMENT (  '', '', ( #133 ) ) ;
#247 = PRESENTATION_LAYER_ASSIGNMENT (  '', '', ( #187 ) ) ;
#248 = EDGE_CURVE ( 'NONE', #60, #39, #120, .T. ) ;
#249 = DIRECTION ( 'NONE',  ( 1.000000000000000000, 0.000000000000000000, 0.000000000000000000 ) ) ;
#250 = SURFACE_STYLE_FILL_AREA ( #42 ) ;
#251 = AXIS2_PLACEMENT_3D ( 'NONE', #138, #212, #231 ) ;
#252 = VERTEX_POINT ( 'NONE', #75 ) ;
#253 = ORIENTED_EDGE ( 'NONE', *, *, #158, .F. ) ;
#254 = FILL_AREA_STYLE_COLOUR ( '', #295 ) ;
#255 = ORIENTED_EDGE ( 'NONE', *, *, #7, .T. ) ;
#256 = CIRCLE ( 'NONE', #94, 0.1250000000000000000 ) ;
#257 = UNCERTAINTY_MEASURE_WITH_UNIT (LENGTH_MEASURE( 1.000000000000000082E-05 ), #206, 'distance_accuracy_value', 'NONE');
#258 = CARTESIAN_POINT ( 'NONE',  ( 0.000000000000000000, 0.000000000000000000, 0.000000000000000000 ) ) ;
#259 = DIRECTION ( 'NONE',  ( 0.000000000000000000, 0.000000000000000000, -1.000000000000000000 ) ) ;
#260 = ORIENTED_EDGE ( 'NONE', *, *, #55, .T. ) ;
#261 = FILL_AREA_STYLE ('',( #189 ) ) ;
#262 = PLANE ( 'NONE',  #140 ) ;
#263 = SURFACE_STYLE_USAGE ( .BOTH. , #172 ) ;
#264 = ADVANCED_FACE ( 'NONE', ( #245 ), #22, .T. ) ;
#265 = FILL_AREA_STYLE ('',( #196 ) ) ;
#266 = DIRECTION ( 'NONE',  ( 3.768143997376471359E-17, 1.000000000000000000, -0.000000000000000000 ) ) ;
#267 = PRODUCT_DEFINITION ( 'UNKNOWN', '', #80, #115 ) ;
#268 = UNCERTAINTY_MEASURE_WITH_UNIT (LENGTH_MEASURE( 1.000000000000000082E-05 ), #88, 'distance_accuracy_value', 'NONE');
#269 = CIRCLE ( 'NONE', #99, 0.1249999999999999445 ) ;
#270 = DIRECTION ( 'NONE',  ( 0.000000000000000000, 0.000000000000000000, -1.000000000000000000 ) ) ;
#271 = CARTESIAN_POINT ( 'NONE',  ( 8.874318240602707505E-35, 0.3750000000000000555, 0.000000000000000000 ) ) ;
#272 = FACE_OUTER_BOUND ( 'NONE', #6, .T. ) ;
#273 = AXIS2_PLACEMENT_3D ( 'NONE', #151, #290, #307 ) ;
#274 = MECHANICAL_DESIGN_GEOMETRIC_PRESENTATION_REPRESENTATION (  '', ( #46 ), #223 ) ;
#275 = MECHANICAL_DESIGN_GEOMETRIC_PRESENTATION_REPRESENTATION (  '', ( #78 ), #176 ) ;
#276 = ORIENTED_EDGE ( 'NONE', *, *, #55, .F. ) ;
#277 = ORIENTED_EDGE ( 'NONE', *, *, #209, .F. ) ;
#278 = CARTESIAN_POINT ( 'NONE',  ( 1.530808498934191509E-17, 0.000000000000000000, 0.1250000000000000000 ) ) ;
#279 = EDGE_LOOP ( 'NONE', ( #210, #134 ) ) ;
#280 =( NAMED_UNIT ( * ) SI_UNIT ( $, .STERADIAN. ) SOLID_ANGLE_UNIT ( ) );
#281 = FILL_AREA_STYLE_COLOUR ( '', #124 ) ;
#282 = CARTESIAN_POINT ( 'NONE',  ( 6.123233995736766036E-17, 2.000000000000000000, 0.000000000000000000 ) ) ;
#283 = AXIS2_PLACEMENT_3D ( 'NONE', #271, #227, #155 ) ;
#284 = ADVANCED_FACE ( 'NONE', ( #101 ), #262, .F. ) ;
#285 = LENGTH_MEASURE_WITH_UNIT ( LENGTH_MEASURE( 0.02539999999999999897 ), #191 );
#286 = LENGTH_MEASURE_WITH_UNIT ( LENGTH_MEASURE( 0.02539999999999999897 ), #215 );
#287 = DIRECTION ( 'NONE',  ( 0.000000000000000000, 1.000000000000000000, 0.000000000000000000 ) ) ;
#288 = CARTESIAN_POINT ( 'NONE',  ( -0.1250000000000000278, 0.3749999999999999445, 0.000000000000000000 ) ) ;
#289 = MECHANICAL_DESIGN_GEOMETRIC_PRESENTATION_REPRESENTATION (  '', ( #244 ), #167 ) ;
#290 = DIRECTION ( 'NONE',  ( 0.000000000000000000, -1.000000000000000000, -0.000000000000000000 ) ) ;
#291 = COLOUR_RGB ( '',1.000000000000000000, 0.000000000000000000, 0.000000000000000000 ) ;
#292 =( GEOMETRIC_REPRESENTATION_CONTEXT ( 3 ) GLOBAL_UNCERTAINTY_ASSIGNED_CONTEXT ( ( #148 ) ) GLOBAL_UNIT_ASSIGNED_CONTEXT ( ( #117, #95, #193 ) ) REPRESENTATION_CONTEXT ( 'NONE', 'WORKASPACE' ) );
#293 = CARTESIAN_POINT ( 'NONE',  ( 6.123233995736766036E-17, 2.000000000000000000, 0.000000000000000000 ) ) ;
#294 = MANIFOLD_SOLID_BREP ( 'Revolve - Tool Body (Straight Shanked)', #93 ) ;
#295 = COLOUR_RGB ( '',1.000000000000000000, 0.000000000000000000, 0.000000000000000000 ) ;
#296 = ORIENTED_EDGE ( 'NONE', *, *, #40, .F. ) ;
#297 = DIRECTION ( 'NONE',  ( -0.000000000000000000, -1.000000000000000000, -0.000000000000000000 ) ) ;
#298 = LINE ( 'NONE', #278, #126 ) ;
#299 = VERTEX_POINT ( 'NONE', #175 ) ;
#300 = PRESENTATION_STYLE_ASSIGNMENT (( #214 ) ) ;
#301 =( LENGTH_UNIT ( ) NAMED_UNIT ( * ) SI_UNIT ( $, .METRE. ) );
#302 = ORIENTED_EDGE ( 'NONE', *, *, #248, .F. ) ;
#303 =( NAMED_UNIT ( * ) PLANE_ANGLE_UNIT ( ) SI_UNIT ( $, .RADIAN. ) );
#304 = FACE_OUTER_BOUND ( 'NONE', #233, .T. ) ;
#305 = ADVANCED_FACE ( 'NONE', ( #29 ), #69, .T. ) ;
#306 = CARTESIAN_POINT ( 'NONE',  ( 0.000000000000000000, 0.3749999999999999445, 0.000000000000000000 ) ) ;
#307 = DIRECTION ( 'NONE',  ( 0.000000000000000000, 0.000000000000000000, -1.000000000000000000 ) ) ;
#308 = AXIS2_PLACEMENT_3D ( 'NONE', #282, #166, #136 ) ;
#309 = SURFACE_STYLE_FILL_AREA ( #225 ) ;
ENDSEC;
END-ISO-10303-21;
