ISO-10303-21;
HEADER;
FILE_DESCRIPTION (( 'STEP AP214' ),
    '1' );
FILE_NAME ('Micro_SEM-375-02X.STEP',
    '2021-09-02T03:04:21',
    ( '' ),
    ( '' ),
    'SwSTEP 2.0',
    'SolidWorks 2020',
    '' );
FILE_SCHEMA (( 'AUTOMOTIVE_DESIGN' ));
ENDSEC;

DATA;
#1 = APPLICATION_PROTOCOL_DEFINITION ( 'draft international standard', 'automotive_design', 1998, #239 ) ;
#2 = AXIS2_PLACEMENT_3D ( 'NONE', #287, #217, #41 ) ;
#3 = CARTESIAN_POINT ( 'NONE',  ( -0.1875000000000000278, 0.0000000000000000000, 1.984999999999999654 ) ) ;
#4 = PRODUCT_DEFINITION ( 'UNKNOWN', '', #263, #221 ) ;
#5 = EDGE_LOOP ( 'NONE', ( #53, #202, #222, #188 ) ) ;
#6 = DIRECTION ( 'NONE',  ( -0.0000000000000000000, -0.0000000000000000000, -1.000000000000000000 ) ) ;
#7 = CONICAL_SURFACE ( 'NONE', #63, 0.1873124999999999929, 0.1745329251994338915 ) ;
#8 = ORIENTED_EDGE ( 'NONE', *, *, #138, .F. ) ;
#9 = ORIENTED_EDGE ( 'NONE', *, *, #228, .F. ) ;
#10 = EDGE_LOOP ( 'NONE', ( #131, #251 ) ) ;
#11 = LINE ( 'NONE', #172, #164 ) ;
#12 = VECTOR ( 'NONE', #177, 39.37007874015748143 ) ;
#13 = DIRECTION ( 'NONE',  ( -1.224646799147353207E-16, -0.0000000000000000000, -1.000000000000000000 ) ) ;
#14 = DIRECTION ( 'NONE',  ( 0.1736481776669313859, 0.0000000000000000000, 0.9848077530122077983 ) ) ;
#15 = CARTESIAN_POINT ( 'NONE',  ( 0.0000000000000000000, 0.0000000000000000000, 2.000000000000000000 ) ) ;
#16 = CARTESIAN_POINT ( 'NONE',  ( 0.1725000000000001532, 2.204364238465236130E-17, 2.000000000000000000 ) ) ;
#17 = DIRECTION ( 'NONE',  ( 1.000000000000000000, 0.0000000000000000000, 0.0000000000000000000 ) ) ;
#18 = CARTESIAN_POINT ( 'NONE',  ( 0.0000000000000000000, 0.0000000000000000000, 2.000000000000000000 ) ) ;
#19 = ADVANCED_FACE ( 'NONE', ( #74 ), #114, .T. ) ;
#20 = ORIENTED_EDGE ( 'NONE', *, *, #282, .T. ) ;
#21 = PLANE ( 'NONE',  #178 ) ;
#22 = DIRECTION ( 'NONE',  ( 1.000000000000000000, 0.0000000000000000000, 0.0000000000000000000 ) ) ;
#23 = CARTESIAN_POINT ( 'NONE',  ( 0.0000000000000000000, 0.0000000000000000000, 0.0000000000000000000 ) ) ;
#24 = EDGE_CURVE ( 'NONE', #248, #68, #28, .T. ) ;
#25 = SURFACE_STYLE_FILL_AREA ( #93 ) ;
#26 = EDGE_LOOP ( 'NONE', ( #129, #250, #95, #120 ) ) ;
#27 = ORIENTED_EDGE ( 'NONE', *, *, #42, .F. ) ;
#28 = CIRCLE ( 'NONE', #110, 0.1873124999999999929 ) ;
#29 = VERTEX_POINT ( 'NONE', #214 ) ;
#30 =( LENGTH_UNIT ( ) NAMED_UNIT ( * ) SI_UNIT ( $, .METRE. ) );
#31 = VERTEX_POINT ( 'NONE', #194 ) ;
#32 = VERTEX_POINT ( 'NONE', #113 ) ;
#33 = CARTESIAN_POINT ( 'NONE',  ( 7.654042494670957853E-17, 0.0000000000000000000, 0.6250000000000000000 ) ) ;
#34 = AXIS2_PLACEMENT_3D ( 'NONE', #15, #236, #99 ) ;
#35 = FACE_OUTER_BOUND ( 'NONE', #5, .T. ) ;
#36 = EDGE_CURVE ( 'NONE', #29, #117, #84, .T. ) ;
#37 = DIRECTION ( 'NONE',  ( -1.224646799147353207E-16, -0.0000000000000000000, -1.000000000000000000 ) ) ;
#38 = EDGE_CURVE ( 'NONE', #226, #32, #216, .T. ) ;
#39 = PRESENTATION_STYLE_ASSIGNMENT (( #148 ) ) ;
#40 = AXIS2_PLACEMENT_3D ( 'NONE', #269, #273, #17 ) ;
#41 = DIRECTION ( 'NONE',  ( -1.000000000000000000, 0.0000000000000000000, 1.224646799147352961E-16 ) ) ;
#42 = EDGE_CURVE ( 'NONE', #270, #31, #59, .T. ) ;
#43 = CARTESIAN_POINT ( 'NONE',  ( -0.1873124999999999929, 0.0000000000000000000, 4.587833071305771192E-17 ) ) ;
#44 = STYLED_ITEM ( 'NONE', ( #39 ), #205 ) ;
#45 = LINE ( 'NONE', #185, #267 ) ;
#46 = UNCERTAINTY_MEASURE_WITH_UNIT (LENGTH_MEASURE( 1.000000000000000082E-05 ), #183, 'distance_accuracy_value', 'NONE');
#47 = CARTESIAN_POINT ( 'NONE',  ( 0.0000000000000000000, 0.0000000000000000000, 0.0000000000000000000 ) ) ;
#48 = ORIENTED_EDGE ( 'NONE', *, *, #133, .F. ) ;
#49 = CARTESIAN_POINT ( 'NONE',  ( 0.0000000000000000000, 0.0000000000000000000, 2.000000000000000000 ) ) ;
#50 = EDGE_CURVE ( 'NONE', #31, #32, #210, .T. ) ;
#51 = ORIENTED_EDGE ( 'NONE', *, *, #228, .T. ) ;
#52 = DIRECTION ( 'NONE',  ( 1.000000000000000000, 0.0000000000000000000, 0.0000000000000000000 ) ) ;
#53 = ORIENTED_EDGE ( 'NONE', *, *, #42, .T. ) ;
#54 = ORIENTED_EDGE ( 'NONE', *, *, #24, .F. ) ;
#55 = DIRECTION ( 'NONE',  ( -1.224646799147353207E-16, -0.0000000000000000000, -1.000000000000000000 ) ) ;
#56 = EDGE_CURVE ( 'NONE', #117, #31, #279, .T. ) ;
#57 = PLANE ( 'NONE',  #233 ) ;
#58 = FACE_OUTER_BOUND ( 'NONE', #253, .T. ) ;
#59 = CIRCLE ( 'NONE', #249, 0.1875000000000000278 ) ;
#60 = FACE_OUTER_BOUND ( 'NONE', #26, .T. ) ;
#61 = DIRECTION ( 'NONE',  ( 1.000000000000000000, 0.0000000000000000000, 0.0000000000000000000 ) ) ;
#62 = DIRECTION ( 'NONE',  ( -1.000000000000000000, 0.0000000000000000000, 0.0000000000000000000 ) ) ;
#63 = AXIS2_PLACEMENT_3D ( 'NONE', #147, #171, #61 ) ;
#64 = ORIENTED_EDGE ( 'NONE', *, *, #87, .F. ) ;
#65 = DIRECTION ( 'NONE',  ( -1.224646799147353207E-16, -0.0000000000000000000, -1.000000000000000000 ) ) ;
#66 = DIRECTION ( 'NONE',  ( 1.000000000000000000, 0.0000000000000000000, -0.0000000000000000000 ) ) ;
#67 = AXIS2_PLACEMENT_3D ( 'NONE', #290, #265, #259 ) ;
#68 = VERTEX_POINT ( 'NONE', #215 ) ;
#69 = CARTESIAN_POINT ( 'NONE',  ( 0.1873124999999999929, 2.293916535652885596E-17, 0.0000000000000000000 ) ) ;
#70 = CARTESIAN_POINT ( 'NONE',  ( 0.0000000000000000000, 0.0000000000000000000, 1.984999999999999654 ) ) ;
#71 = CARTESIAN_POINT ( 'NONE',  ( 0.1725000000000001532, 2.112515728529185460E-17, 2.000000000000000000 ) ) ;
#72 = ORIENTED_EDGE ( 'NONE', *, *, #199, .T. ) ;
#73 = DIMENSIONAL_EXPONENTS ( 1.000000000000000000, 0.0000000000000000000, 0.0000000000000000000, 0.0000000000000000000, 0.0000000000000000000, 0.0000000000000000000, 0.0000000000000000000 ) ;
#74 = FACE_OUTER_BOUND ( 'NONE', #186, .T. ) ;
#75 = AXIS2_PLACEMENT_3D ( 'NONE', #33, #196, #124 ) ;
#76 = ORIENTED_EDGE ( 'NONE', *, *, #161, .F. ) ;
#77 = CYLINDRICAL_SURFACE ( 'NONE', #34, 0.1875000000000000278 ) ;
#78 = FACE_OUTER_BOUND ( 'NONE', #10, .T. ) ;
#79 = SURFACE_STYLE_FILL_AREA ( #218 ) ;
#80 = AXIS2_PLACEMENT_3D ( 'NONE', #102, #200, #122 ) ;
#81 = CARTESIAN_POINT ( 'NONE',  ( 0.0000000000000000000, 0.0000000000000000000, 0.0000000000000000000 ) ) ;
#82 = LINE ( 'NONE', #206, #156 ) ;
#83 = PRODUCT_RELATED_PRODUCT_CATEGORY ( 'part', '', ( #246 ) ) ;
#84 = CIRCLE ( 'NONE', #227, 0.1725000000000001532 ) ;
#85 = DIRECTION ( 'NONE',  ( -0.1736481776669311916, 2.126576849575783316E-17, 0.9848077530122080203 ) ) ;
#86 = ORIENTED_EDGE ( 'NONE', *, *, #199, .F. ) ;
#87 = EDGE_CURVE ( 'NONE', #68, #32, #175, .T. ) ;
#88 = CARTESIAN_POINT ( 'NONE',  ( -0.1873124999999999929, 0.0000000000000000000, 2.293916535652885596E-17 ) ) ;
#89 = ORIENTED_EDGE ( 'NONE', *, *, #288, .T. ) ;
#90 = EDGE_CURVE ( 'NONE', #31, #270, #145, .T. ) ;
#91 = CARTESIAN_POINT ( 'NONE',  ( 7.654042494670957853E-17, 0.0000000000000000000, 0.6250000000000000000 ) ) ;
#92 = AXIS2_PLACEMENT_3D ( 'NONE', #23, #243, #158 ) ;
#93 = FILL_AREA_STYLE ('',( #136 ) ) ;
#94 = EDGE_LOOP ( 'NONE', ( #48, #72, #97, #8 ) ) ;
#95 = ORIENTED_EDGE ( 'NONE', *, *, #266, .T. ) ;
#96 =( CONVERSION_BASED_UNIT ( 'INCH', #118 ) LENGTH_UNIT ( ) NAMED_UNIT ( #73 ) );
#97 = ORIENTED_EDGE ( 'NONE', *, *, #271, .T. ) ;
#98 = VECTOR ( 'NONE', #85, 39.37007874015747433 ) ;
#99 = DIRECTION ( 'NONE',  ( -1.000000000000000000, 0.0000000000000000000, 0.0000000000000000000 ) ) ;
#100 = CYLINDRICAL_SURFACE ( 'NONE', #2, 0.1873124999999999929 ) ;
#101 = DIRECTION ( 'NONE',  ( -1.000000000000000000, 0.0000000000000000000, 0.0000000000000000000 ) ) ;
#102 = CARTESIAN_POINT ( 'NONE',  ( 0.0000000000000000000, 0.0000000000000000000, 2.000000000000000000 ) ) ;
#103 = CIRCLE ( 'NONE', #274, 0.1873124999999999929 ) ;
#104 = CARTESIAN_POINT ( 'NONE',  ( 2.809237542898491532E-33, 0.0000000000000000000, 2.293916535652885596E-17 ) ) ;
#105 = ADVANCED_FACE ( 'NONE', ( #60 ), #232, .T. ) ;
#106 = ORIENTED_EDGE ( 'NONE', *, *, #56, .T. ) ;
#107 = CIRCLE ( 'NONE', #189, 0.1873124999999999929 ) ;
#108 = DIRECTION ( 'NONE',  ( -0.7071067811865386910, 0.0000000000000000000, -0.7071067811865563435 ) ) ;
#109 = CARTESIAN_POINT ( 'NONE',  ( -0.1873124999999999096, 2.293916535652885596E-17, 0.6250000000000000000 ) ) ;
#110 = AXIS2_PLACEMENT_3D ( 'NONE', #91, #225, #141 ) ;
#111 = DIRECTION ( 'NONE',  ( 1.000000000000000000, 0.0000000000000000000, 0.0000000000000000000 ) ) ;
#112 = PRODUCT_CONTEXT ( 'NONE', #239, 'mechanical' ) ;
#113 = CARTESIAN_POINT ( 'NONE',  ( 0.1875000000000000833, 2.296212748401288650E-17, 0.6260633653411784572 ) ) ;
#114 = CONICAL_SURFACE ( 'NONE', #291, 0.1725000000000001532, 0.7853981633974357335 ) ;
#115 = VECTOR ( 'NONE', #165, 39.37007874015748143 ) ;
#116 = UNCERTAINTY_MEASURE_WITH_UNIT (LENGTH_MEASURE( 1.000000000000000082E-05 ), #96, 'distance_accuracy_value', 'NONE');
#117 = VERTEX_POINT ( 'NONE', #16 ) ;
#118 = LENGTH_MEASURE_WITH_UNIT ( LENGTH_MEASURE( 0.02539999999999999897 ), #30 );
#119 = ORIENTED_EDGE ( 'NONE', *, *, #261, .F. ) ;
#120 = ORIENTED_EDGE ( 'NONE', *, *, #288, .F. ) ;
#121 = VECTOR ( 'NONE', #14, 39.37007874015748143 ) ;
#122 = DIRECTION ( 'NONE',  ( -1.000000000000000000, 0.0000000000000000000, 0.0000000000000000000 ) ) ;
#123 = DIMENSIONAL_EXPONENTS ( 1.000000000000000000, 0.0000000000000000000, 0.0000000000000000000, 0.0000000000000000000, 0.0000000000000000000, 0.0000000000000000000, 0.0000000000000000000 ) ;
#124 = DIRECTION ( 'NONE',  ( 1.000000000000000000, 0.0000000000000000000, 0.0000000000000000000 ) ) ;
#125 = DIRECTION ( 'NONE',  ( 0.0000000000000000000, 0.0000000000000000000, 1.000000000000000000 ) ) ;
#126 = LENGTH_MEASURE_WITH_UNIT ( LENGTH_MEASURE( 0.02539999999999999897 ), #201 );
#127 = LENGTH_MEASURE_WITH_UNIT ( LENGTH_MEASURE( 0.02539999999999999897 ), #153 );
#128 = CIRCLE ( 'NONE', #173, 0.1875000000000000278 ) ;
#129 = ORIENTED_EDGE ( 'NONE', *, *, #50, .F. ) ;
#130 = CYLINDRICAL_SURFACE ( 'NONE', #92, 0.1873124999999999929 ) ;
#131 = ORIENTED_EDGE ( 'NONE', *, *, #161, .T. ) ;
#132 =( GEOMETRIC_REPRESENTATION_CONTEXT ( 3 ) GLOBAL_UNCERTAINTY_ASSIGNED_CONTEXT ( ( #257 ) ) GLOBAL_UNIT_ASSIGNED_CONTEXT ( ( #240, #155, #241 ) ) REPRESENTATION_CONTEXT ( 'NONE', 'WORKASPACE' ) );
#133 = EDGE_CURVE ( 'NONE', #68, #212, #11, .T. ) ;
#134 = DIRECTION ( 'NONE',  ( 1.000000000000000000, 0.0000000000000000000, 0.0000000000000000000 ) ) ;
#135 = CARTESIAN_POINT ( 'NONE',  ( 0.0000000000000000000, 0.0000000000000000000, 2.000000000000000000 ) ) ;
#136 = FILL_AREA_STYLE_COLOUR ( '', #292 ) ;
#137 = ORIENTED_EDGE ( 'NONE', *, *, #133, .T. ) ;
#138 = EDGE_CURVE ( 'NONE', #212, #230, #169, .T. ) ;
#139 = AXIS2_PLACEMENT_3D ( 'NONE', #198, #37, #219 ) ;
#140 = PRESENTATION_STYLE_ASSIGNMENT (( #229 ) ) ;
#141 = DIRECTION ( 'NONE',  ( -1.000000000000000000, 0.0000000000000000000, 0.0000000000000000000 ) ) ;
#142 = DIRECTION ( 'NONE',  ( 1.000000000000000000, 0.0000000000000000000, 0.0000000000000000000 ) ) ;
#143 = ADVANCED_FACE ( 'NONE', ( #146 ), #100, .T. ) ;
#144 = CARTESIAN_POINT ( 'NONE',  ( 7.654042494670957853E-17, 0.0000000000000000000, 0.6250000000000000000 ) ) ;
#145 = CIRCLE ( 'NONE', #67, 0.1875000000000000278 ) ;
#146 = FACE_OUTER_BOUND ( 'NONE', #283, .T. ) ;
#147 = CARTESIAN_POINT ( 'NONE',  ( 7.654042494670957853E-17, 0.0000000000000000000, 0.6250000000000000000 ) ) ;
#148 = SURFACE_STYLE_USAGE ( .BOTH. , #174 ) ;
#149 = ADVANCED_FACE ( 'NONE', ( #197 ), #7, .T. ) ;
#150 = DIRECTION ( 'NONE',  ( -1.224646799147353207E-16, -0.0000000000000000000, -1.000000000000000000 ) ) ;
#151 = VECTOR ( 'NONE', #6, 39.37007874015748143 ) ;
#152 = ADVANCED_FACE ( 'NONE', ( #78 ), #57, .F. ) ;
#153 =( LENGTH_UNIT ( ) NAMED_UNIT ( * ) SI_UNIT ( $, .METRE. ) );
#154 = EDGE_LOOP ( 'NONE', ( #119, #86, #281, #89 ) ) ;
#155 =( NAMED_UNIT ( * ) PLANE_ANGLE_UNIT ( ) SI_UNIT ( $, .RADIAN. ) );
#156 = VECTOR ( 'NONE', #108, 39.37007874015748143 ) ;
#157 = PRESENTATION_LAYER_ASSIGNMENT (  '', '', ( #208 ) ) ;
#158 = DIRECTION ( 'NONE',  ( -1.000000000000000000, 0.0000000000000000000, 1.224646799147352961E-16 ) ) ;
#159 = ORIENTED_EDGE ( 'NONE', *, *, #56, .F. ) ;
#160 = DIRECTION ( 'NONE',  ( 0.0000000000000000000, 0.0000000000000000000, 1.000000000000000000 ) ) ;
#161 = EDGE_CURVE ( 'NONE', #230, #212, #103, .T. ) ;
#162 = SHAPE_DEFINITION_REPRESENTATION ( #204, #258 ) ;
#163 = DIRECTION ( 'NONE',  ( 0.0000000000000000000, 0.0000000000000000000, -1.000000000000000000 ) ) ;
#164 = VECTOR ( 'NONE', #13, 39.37007874015748143 ) ;
#165 = DIRECTION ( 'NONE',  ( 0.7071067811865386910, 8.659560562354824390E-17, -0.7071067811865563435 ) ) ;
#166 = APPLICATION_PROTOCOL_DEFINITION ( 'draft international standard', 'automotive_design', 1998, #260 ) ;
#167 = ORIENTED_EDGE ( 'NONE', *, *, #282, .F. ) ;
#168 = DIRECTION ( 'NONE',  ( 0.0000000000000000000, 0.0000000000000000000, -1.000000000000000000 ) ) ;
#169 = CIRCLE ( 'NONE', #139, 0.1873124999999999929 ) ;
#170 = ORIENTED_EDGE ( 'NONE', *, *, #261, .T. ) ;
#171 = DIRECTION ( 'NONE',  ( 1.224646799147353207E-16, 0.0000000000000000000, 1.000000000000000000 ) ) ;
#172 = CARTESIAN_POINT ( 'NONE',  ( 0.1873124999999999929, 2.293916535652885596E-17, -2.293916535652885596E-17 ) ) ;
#173 = AXIS2_PLACEMENT_3D ( 'NONE', #272, #65, #22 ) ;
#174 = SURFACE_SIDE_STYLE ('',( #79 ) ) ;
#175 = LINE ( 'NONE', #293, #121 ) ;
#176 = ADVANCED_FACE ( 'NONE', ( #35 ), #77, .T. ) ;
#177 = DIRECTION ( 'NONE',  ( -1.224646799147353207E-16, -0.0000000000000000000, -1.000000000000000000 ) ) ;
#178 = AXIS2_PLACEMENT_3D ( 'NONE', #18, #160, #66 ) ;
#179 = ORIENTED_EDGE ( 'NONE', *, *, #90, .F. ) ;
#180 = ADVANCED_FACE ( 'NONE', ( #58 ), #195, .T. ) ;
#181 =( NAMED_UNIT ( * ) PLANE_ANGLE_UNIT ( ) SI_UNIT ( $, .RADIAN. ) );
#182 = ORIENTED_EDGE ( 'NONE', *, *, #271, .F. ) ;
#183 =( CONVERSION_BASED_UNIT ( 'INCH', #126 ) LENGTH_UNIT ( ) NAMED_UNIT ( #255 ) );
#184 = CIRCLE ( 'NONE', #40, 0.1725000000000001532 ) ;
#185 = CARTESIAN_POINT ( 'NONE',  ( -0.1875000000000000278, 0.0000000000000000000, 2.000000000000000000 ) ) ;
#186 = EDGE_LOOP ( 'NONE', ( #159, #190, #51, #179 ) ) ;
#187 = ADVANCED_FACE ( 'NONE', ( #234 ), #207, .T. ) ;
#188 = ORIENTED_EDGE ( 'NONE', *, *, #266, .F. ) ;
#189 = AXIS2_PLACEMENT_3D ( 'NONE', #144, #264, #62 ) ;
#190 = ORIENTED_EDGE ( 'NONE', *, *, #36, .F. ) ;
#191 = CLOSED_SHELL ( 'NONE', ( #143, #187, #180, #176, #105, #296, #19, #149, #245, #152 ) ) ;
#192 = DIRECTION ( 'NONE',  ( 0.0000000000000000000, 0.0000000000000000000, 1.000000000000000000 ) ) ;
#193 = EDGE_LOOP ( 'NONE', ( #54, #170, #209, #64 ) ) ;
#194 = CARTESIAN_POINT ( 'NONE',  ( 0.1875000000000000278, 2.296212748401287726E-17, 1.984999999999999654 ) ) ;
#195 = CONICAL_SURFACE ( 'NONE', #80, 0.1725000000000001532, 0.7853981633974357335 ) ;
#196 = DIRECTION ( 'NONE',  ( 1.224646799147353207E-16, 0.0000000000000000000, 1.000000000000000000 ) ) ;
#197 = FACE_OUTER_BOUND ( 'NONE', #154, .T. ) ;
#198 = CARTESIAN_POINT ( 'NONE',  ( 2.809237542898491532E-33, 0.0000000000000000000, 2.293916535652885596E-17 ) ) ;
#199 = EDGE_CURVE ( 'NONE', #68, #248, #107, .T. ) ;
#200 = DIRECTION ( 'NONE',  ( 0.0000000000000000000, 0.0000000000000000000, -1.000000000000000000 ) ) ;
#201 =( LENGTH_UNIT ( ) NAMED_UNIT ( * ) SI_UNIT ( $, .METRE. ) );
#202 = ORIENTED_EDGE ( 'NONE', *, *, #50, .T. ) ;
#203 =( NAMED_UNIT ( * ) SI_UNIT ( $, .STERADIAN. ) SOLID_ANGLE_UNIT ( ) );
#204 = PRODUCT_DEFINITION_SHAPE ( 'NONE', 'NONE',  #4 ) ;
#205 = MANIFOLD_SOLID_BREP ( 'Cut-Revolve1', #191 ) ;
#206 = CARTESIAN_POINT ( 'NONE',  ( -0.1725000000000001532, 0.0000000000000000000, 2.000000000000000000 ) ) ;
#207 = CONICAL_SURFACE ( 'NONE', #75, 0.1873124999999999929, 0.1745329251994338915 ) ;
#208 = STYLED_ITEM ( 'NONE', ( #140 ), #258 ) ;
#209 = ORIENTED_EDGE ( 'NONE', *, *, #38, .T. ) ;
#210 = LINE ( 'NONE', #224, #151 ) ;
#211 =( NAMED_UNIT ( * ) SI_UNIT ( $, .STERADIAN. ) SOLID_ANGLE_UNIT ( ) );
#212 = VERTEX_POINT ( 'NONE', #69 ) ;
#213 =( NAMED_UNIT ( * ) PLANE_ANGLE_UNIT ( ) SI_UNIT ( $, .RADIAN. ) );
#214 = CARTESIAN_POINT ( 'NONE',  ( -0.1725000000000001532, 0.0000000000000000000, 2.000000000000000000 ) ) ;
#215 = CARTESIAN_POINT ( 'NONE',  ( 0.1873125000000000484, 0.0000000000000000000, 0.6250000000000000000 ) ) ;
#216 = CIRCLE ( 'NONE', #254, 0.1875000000000000278 ) ;
#217 = DIRECTION ( 'NONE',  ( -1.224646799147353207E-16, -0.0000000000000000000, -1.000000000000000000 ) ) ;
#218 = FILL_AREA_STYLE ('',( #235 ) ) ;
#219 = DIRECTION ( 'NONE',  ( -1.000000000000000000, 0.0000000000000000000, 1.224646799147352961E-16 ) ) ;
#220 = LINE ( 'NONE', #88, #12 ) ;
#221 = PRODUCT_DEFINITION_CONTEXT ( 'detailed design', #260, 'design' ) ;
#222 = ORIENTED_EDGE ( 'NONE', *, *, #38, .F. ) ;
#223 = SURFACE_SIDE_STYLE ('',( #25 ) ) ;
#224 = CARTESIAN_POINT ( 'NONE',  ( 0.1875000000000000278, 2.296212748401287726E-17, 2.000000000000000000 ) ) ;
#225 = DIRECTION ( 'NONE',  ( -1.224646799147353207E-16, -0.0000000000000000000, -1.000000000000000000 ) ) ;
#226 = VERTEX_POINT ( 'NONE', #299 ) ;
#227 = AXIS2_PLACEMENT_3D ( 'NONE', #49, #231, #111 ) ;
#228 = EDGE_CURVE ( 'NONE', #29, #270, #82, .T. ) ;
#229 = SURFACE_STYLE_USAGE ( .BOTH. , #223 ) ;
#230 = VERTEX_POINT ( 'NONE', #43 ) ;
#231 = DIRECTION ( 'NONE',  ( 0.0000000000000000000, 0.0000000000000000000, 1.000000000000000000 ) ) ;
#232 = CYLINDRICAL_SURFACE ( 'NONE', #297, 0.1875000000000000278 ) ;
#233 = AXIS2_PLACEMENT_3D ( 'NONE', #81, #125, #289 ) ;
#234 = FACE_OUTER_BOUND ( 'NONE', #193, .T. ) ;
#235 = FILL_AREA_STYLE_COLOUR ( '', #242 ) ;
#236 = DIRECTION ( 'NONE',  ( -0.0000000000000000000, -0.0000000000000000000, -1.000000000000000000 ) ) ;
#237 = PRESENTATION_LAYER_ASSIGNMENT (  '', '', ( #44 ) ) ;
#238 = DIRECTION ( 'NONE',  ( -0.0000000000000000000, -0.0000000000000000000, -1.000000000000000000 ) ) ;
#239 = APPLICATION_CONTEXT ( 'automotive_design' ) ;
#240 =( CONVERSION_BASED_UNIT ( 'INCH', #127 ) LENGTH_UNIT ( ) NAMED_UNIT ( #123 ) );
#241 =( NAMED_UNIT ( * ) SI_UNIT ( $, .STERADIAN. ) SOLID_ANGLE_UNIT ( ) );
#242 = COLOUR_RGB ( '',0.7921568627450980005, 0.8196078431372548767, 0.9333333333333333481 ) ;
#243 = DIRECTION ( 'NONE',  ( -1.224646799147353207E-16, -0.0000000000000000000, -1.000000000000000000 ) ) ;
#244 = MECHANICAL_DESIGN_GEOMETRIC_PRESENTATION_REPRESENTATION (  '', ( #44 ), #285 ) ;
#245 = ADVANCED_FACE ( 'NONE', ( #295 ), #130, .T. ) ;
#246 = PRODUCT ( 'Micro_SEM-375-02X', 'Micro_SEM-375-02X', '', ( #112 ) ) ;
#247 = CARTESIAN_POINT ( 'NONE',  ( -0.1873124999999999096, 2.295064642027086507E-17, 0.6250000000000000000 ) ) ;
#248 = VERTEX_POINT ( 'NONE', #247 ) ;
#249 = AXIS2_PLACEMENT_3D ( 'NONE', #70, #163, #134 ) ;
#250 = ORIENTED_EDGE ( 'NONE', *, *, #90, .T. ) ;
#251 = ORIENTED_EDGE ( 'NONE', *, *, #138, .T. ) ;
#252 = ORIENTED_EDGE ( 'NONE', *, *, #36, .T. ) ;
#253 = EDGE_LOOP ( 'NONE', ( #167, #106, #27, #9 ) ) ;
#254 = AXIS2_PLACEMENT_3D ( 'NONE', #284, #55, #142 ) ;
#255 = DIMENSIONAL_EXPONENTS ( 1.000000000000000000, 0.0000000000000000000, 0.0000000000000000000, 0.0000000000000000000, 0.0000000000000000000, 0.0000000000000000000, 0.0000000000000000000 ) ;
#256 = ORIENTED_EDGE ( 'NONE', *, *, #24, .T. ) ;
#257 = UNCERTAINTY_MEASURE_WITH_UNIT (LENGTH_MEASURE( 1.000000000000000082E-05 ), #240, 'distance_accuracy_value', 'NONE');
#258 = ADVANCED_BREP_SHAPE_REPRESENTATION ( 'Micro_SEM-375-02X', ( #205, #280 ), #132 ) ;
#259 = DIRECTION ( 'NONE',  ( 1.000000000000000000, 0.0000000000000000000, 0.0000000000000000000 ) ) ;
#260 = APPLICATION_CONTEXT ( 'automotive_design' ) ;
#261 = EDGE_CURVE ( 'NONE', #248, #226, #275, .T. ) ;
#262 = DIRECTION ( 'NONE',  ( -1.000000000000000000, 0.0000000000000000000, 1.224646799147352961E-16 ) ) ;
#263 = PRODUCT_DEFINITION_FORMATION_WITH_SPECIFIED_SOURCE ( 'ANY', '', #246, .NOT_KNOWN. ) ;
#264 = DIRECTION ( 'NONE',  ( -1.224646799147353207E-16, -0.0000000000000000000, -1.000000000000000000 ) ) ;
#265 = DIRECTION ( 'NONE',  ( 0.0000000000000000000, 0.0000000000000000000, -1.000000000000000000 ) ) ;
#266 = EDGE_CURVE ( 'NONE', #270, #226, #45, .T. ) ;
#267 = VECTOR ( 'NONE', #298, 39.37007874015748143 ) ;
#268 =( GEOMETRIC_REPRESENTATION_CONTEXT ( 3 ) GLOBAL_UNCERTAINTY_ASSIGNED_CONTEXT ( ( #116 ) ) GLOBAL_UNIT_ASSIGNED_CONTEXT ( ( #96, #213, #211 ) ) REPRESENTATION_CONTEXT ( 'NONE', 'WORKASPACE' ) );
#269 = CARTESIAN_POINT ( 'NONE',  ( 0.0000000000000000000, 0.0000000000000000000, 2.000000000000000000 ) ) ;
#270 = VERTEX_POINT ( 'NONE', #3 ) ;
#271 = EDGE_CURVE ( 'NONE', #248, #230, #220, .T. ) ;
#272 = CARTESIAN_POINT ( 'NONE',  ( 7.667064964284941550E-17, 0.0000000000000000000, 0.6260633653411784572 ) ) ;
#273 = DIRECTION ( 'NONE',  ( 0.0000000000000000000, 0.0000000000000000000, 1.000000000000000000 ) ) ;
#274 = AXIS2_PLACEMENT_3D ( 'NONE', #104, #150, #262 ) ;
#275 = LINE ( 'NONE', #109, #98 ) ;
#276 = EDGE_LOOP ( 'NONE', ( #252, #20 ) ) ;
#277 = FACE_OUTER_BOUND ( 'NONE', #276, .T. ) ;
#278 = DIRECTION ( 'NONE',  ( -1.000000000000000000, 0.0000000000000000000, 0.0000000000000000000 ) ) ;
#279 = LINE ( 'NONE', #71, #115 ) ;
#280 = AXIS2_PLACEMENT_3D ( 'NONE', #47, #192, #52 ) ;
#281 = ORIENTED_EDGE ( 'NONE', *, *, #87, .T. ) ;
#282 = EDGE_CURVE ( 'NONE', #117, #29, #184, .T. ) ;
#283 = EDGE_LOOP ( 'NONE', ( #256, #137, #76, #182 ) ) ;
#284 = CARTESIAN_POINT ( 'NONE',  ( 7.667064964284941550E-17, 0.0000000000000000000, 0.6260633653411784572 ) ) ;
#285 =( GEOMETRIC_REPRESENTATION_CONTEXT ( 3 ) GLOBAL_UNCERTAINTY_ASSIGNED_CONTEXT ( ( #46 ) ) GLOBAL_UNIT_ASSIGNED_CONTEXT ( ( #183, #181, #203 ) ) REPRESENTATION_CONTEXT ( 'NONE', 'WORKASPACE' ) );
#286 = MECHANICAL_DESIGN_GEOMETRIC_PRESENTATION_REPRESENTATION (  '', ( #208 ), #268 ) ;
#287 = CARTESIAN_POINT ( 'NONE',  ( 0.0000000000000000000, 0.0000000000000000000, 0.0000000000000000000 ) ) ;
#288 = EDGE_CURVE ( 'NONE', #32, #226, #128, .T. ) ;
#289 = DIRECTION ( 'NONE',  ( 1.000000000000000000, 0.0000000000000000000, -0.0000000000000000000 ) ) ;
#290 = CARTESIAN_POINT ( 'NONE',  ( 0.0000000000000000000, 0.0000000000000000000, 1.984999999999999654 ) ) ;
#291 = AXIS2_PLACEMENT_3D ( 'NONE', #135, #168, #278 ) ;
#292 = COLOUR_RGB ( '',0.7921568627450980005, 0.8196078431372548767, 0.9333333333333333481 ) ;
#293 = CARTESIAN_POINT ( 'NONE',  ( 0.1873125000000000484, 0.0000000000000000000, 0.6250000000000000000 ) ) ;
#294 = CARTESIAN_POINT ( 'NONE',  ( 0.0000000000000000000, 0.0000000000000000000, 2.000000000000000000 ) ) ;
#295 = FACE_OUTER_BOUND ( 'NONE', #94, .T. ) ;
#296 = ADVANCED_FACE ( 'NONE', ( #277 ), #21, .T. ) ;
#297 = AXIS2_PLACEMENT_3D ( 'NONE', #294, #238, #101 ) ;
#298 = DIRECTION ( 'NONE',  ( -0.0000000000000000000, -0.0000000000000000000, -1.000000000000000000 ) ) ;
#299 = CARTESIAN_POINT ( 'NONE',  ( -0.1874999999999999445, 0.0000000000000000000, 0.6260633653411784572 ) ) ;
ENDSEC;
END-ISO-10303-21;
