ISO-10303-21;
HEADER;
FILE_DESCRIPTION (( 'STEP AP214' ),
    '1' );
FILE_NAME ('03645.STEP',
    '2023-06-22T15:35:21',
    ( '' ),
    ( '' ),
    'SwSTEP 2.0',
    'SolidWorks 2023',
    '' );
FILE_SCHEMA (( 'AUTOMOTIVE_DESIGN' ));
ENDSEC;

DATA;
#1 = SURFACE_STYLE_FILL_AREA ( #142 ) ;
#2 = CARTESIAN_POINT ( 'NONE',  ( 0.000000000000000000, 0.000000000000000000, 0.000000000000000000 ) ) ;
#3 = ORIENTED_EDGE ( 'NONE', *, *, #112, .T. ) ;
#4 = CIRCLE ( 'NONE', #113, 0.3750000000000000555 ) ;
#5 =( NAMED_UNIT ( * ) SI_UNIT ( $, .STERADIAN. ) SOLID_ANGLE_UNIT ( ) );
#6 = CYLINDRICAL_SURFACE ( 'NONE', #63, 0.3749999999999998890 ) ;
#7 = UNCERTAINTY_MEASURE_WITH_UNIT (LENGTH_MEASURE( 1.000000000000000082E-05 ), #144, 'distance_accuracy_value', 'NONE');
#8 = DIRECTION ( 'NONE',  ( -1.000000000000000000, 0.000000000000000000, 0.000000000000000000 ) ) ;
#9 =( NAMED_UNIT ( * ) PLANE_ANGLE_UNIT ( ) SI_UNIT ( $, .RADIAN. ) );
#10 = DIRECTION ( 'NONE',  ( 1.000000000000000000, -8.164311994315692567E-17, 0.000000000000000000 ) ) ;
#11 =( CONVERSION_BASED_UNIT ( 'INCH', #89 ) LENGTH_UNIT ( ) NAMED_UNIT ( #205 ) );
#12 = PRESENTATION_STYLE_ASSIGNMENT (( #220 ) ) ;
#13 =( GEOMETRIC_REPRESENTATION_CONTEXT ( 3 ) GLOBAL_UNCERTAINTY_ASSIGNED_CONTEXT ( ( #45 ) ) GLOBAL_UNIT_ASSIGNED_CONTEXT ( ( #228, #101, #307 ) ) REPRESENTATION_CONTEXT ( 'NONE', 'WORKASPACE' ) );
#14 = EDGE_CURVE ( 'NONE', #131, #257, #227, .T. ) ;
#15 = CARTESIAN_POINT ( 'NONE',  ( 0.3750000000000000555, 4.000000000000000000, 0.000000000000000000 ) ) ;
#16 = FILL_AREA_STYLE_COLOUR ( '', #128 ) ;
#17 =( NAMED_UNIT ( * ) PLANE_ANGLE_UNIT ( ) SI_UNIT ( $, .RADIAN. ) );
#18 = AXIS2_PLACEMENT_3D ( 'NONE', #256, #190, #215 ) ;
#19 = CARTESIAN_POINT ( 'NONE',  ( 0.000000000000000000, 0.000000000000000000, -0.3750000000000000555 ) ) ;
#20 =( NAMED_UNIT ( * ) PLANE_ANGLE_UNIT ( ) SI_UNIT ( $, .RADIAN. ) );
#21 = UNCERTAINTY_MEASURE_WITH_UNIT (LENGTH_MEASURE( 1.000000000000000082E-05 ), #11, 'distance_accuracy_value', 'NONE');
#22 = ORIENTED_EDGE ( 'NONE', *, *, #216, .F. ) ;
#23 = DIRECTION ( 'NONE',  ( 0.000000000000000000, 0.000000000000000000, -1.000000000000000000 ) ) ;
#24 = CARTESIAN_POINT ( 'NONE',  ( 0.000000000000000000, 0.000000000000000000, -0.3750000000000000555 ) ) ;
#25 = CIRCLE ( 'NONE', #85, 0.3749999999999997780 ) ;
#26 = CARTESIAN_POINT ( 'NONE',  ( 2.449293598294707400E-16, 4.000000000000000000, 0.000000000000000000 ) ) ;
#27 = CYLINDRICAL_SURFACE ( 'NONE', #213, 0.3750000000000000555 ) ;
#28 = AXIS2_PLACEMENT_3D ( 'NONE', #31, #81, #58 ) ;
#29 = DIRECTION ( 'NONE',  ( 0.000000000000000000, -1.000000000000000000, -0.000000000000000000 ) ) ;
#30 = ORIENTED_EDGE ( 'NONE', *, *, #157, .T. ) ;
#31 = CARTESIAN_POINT ( 'NONE',  ( 0.000000000000000000, 1.000000000000000222, 0.000000000000000000 ) ) ;
#32 = UNCERTAINTY_MEASURE_WITH_UNIT (LENGTH_MEASURE( 1.000000000000000082E-05 ), #264, 'distance_accuracy_value', 'NONE');
#33 = DIRECTION ( 'NONE',  ( 8.164311994315692567E-17, 1.000000000000000000, -0.000000000000000000 ) ) ;
#34 = PRESENTATION_LAYER_ASSIGNMENT (  '', '', ( #165 ) ) ;
#35 = DIRECTION ( 'NONE',  ( 8.164311994315692567E-17, 1.000000000000000000, -0.000000000000000000 ) ) ;
#36 = SURFACE_STYLE_FILL_AREA ( #218 ) ;
#37 =( NAMED_UNIT ( * ) PLANE_ANGLE_UNIT ( ) SI_UNIT ( $, .RADIAN. ) );
#38 = ADVANCED_BREP_SHAPE_REPRESENTATION ( '03645', ( #91, #287, #254 ), #184 ) ;
#39 = LENGTH_MEASURE_WITH_UNIT ( LENGTH_MEASURE( 0.02539999999999999897 ), #97 );
#40 = ADVANCED_FACE ( 'NONE', ( #153 ), #136, .T. ) ;
#41 = PRESENTATION_LAYER_ASSIGNMENT (  '', '', ( #292 ) ) ;
#42 = CARTESIAN_POINT ( 'NONE',  ( 0.000000000000000000, 0.000000000000000000, 0.000000000000000000 ) ) ;
#43 = MECHANICAL_DESIGN_GEOMETRIC_PRESENTATION_REPRESENTATION (  '', ( #173 ), #13 ) ;
#44 =( LENGTH_UNIT ( ) NAMED_UNIT ( * ) SI_UNIT ( $, .METRE. ) );
#45 = UNCERTAINTY_MEASURE_WITH_UNIT (LENGTH_MEASURE( 1.000000000000000082E-05 ), #228, 'distance_accuracy_value', 'NONE');
#46 =( LENGTH_UNIT ( ) NAMED_UNIT ( * ) SI_UNIT ( $, .METRE. ) );
#47 = SURFACE_SIDE_STYLE ('',( #66 ) ) ;
#48 = CARTESIAN_POINT ( 'NONE',  ( 0.3750000000000001665, 4.000000000000000000, 4.592425496802572986E-17 ) ) ;
#49 = COLOUR_RGB ( '',0.7921568627450980005, 0.8196078431372548767, 0.9333333333333333481 ) ;
#50 = FILL_AREA_STYLE_COLOUR ( '', #244 ) ;
#51 =( CONVERSION_BASED_UNIT ( 'INCH', #71 ) LENGTH_UNIT ( ) NAMED_UNIT ( #64 ) );
#52 = ORIENTED_EDGE ( 'NONE', *, *, #170, .T. ) ;
#53 =( NAMED_UNIT ( * ) PLANE_ANGLE_UNIT ( ) SI_UNIT ( $, .RADIAN. ) );
#54 = DIRECTION ( 'NONE',  ( -1.000000000000000000, 0.000000000000000000, 0.000000000000000000 ) ) ;
#55 = PRODUCT_RELATED_PRODUCT_CATEGORY ( 'part', '', ( #209 ) ) ;
#56 = ORIENTED_EDGE ( 'NONE', *, *, #212, .F. ) ;
#57 = VERTEX_POINT ( 'NONE', #199 ) ;
#58 = DIRECTION ( 'NONE',  ( 0.000000000000000000, 0.000000000000000000, -1.000000000000000000 ) ) ;
#59 = ORIENTED_EDGE ( 'NONE', *, *, #14, .F. ) ;
#60 = DIRECTION ( 'NONE',  ( 0.000000000000000000, 0.000000000000000000, -1.000000000000000000 ) ) ;
#61 = FACE_OUTER_BOUND ( 'NONE', #77, .T. ) ;
#62 = DIRECTION ( 'NONE',  ( -1.000000000000000000, 0.000000000000000000, 0.000000000000000000 ) ) ;
#63 = AXIS2_PLACEMENT_3D ( 'NONE', #262, #33, #217 ) ;
#64 = DIMENSIONAL_EXPONENTS ( 1.000000000000000000, 0.000000000000000000, 0.000000000000000000, 0.000000000000000000, 0.000000000000000000, 0.000000000000000000, 0.000000000000000000 ) ;
#65 = DIRECTION ( 'NONE',  ( 8.164311994315692567E-17, 1.000000000000000000, -0.000000000000000000 ) ) ;
#66 = SURFACE_STYLE_FILL_AREA ( #138 ) ;
#67 = DIRECTION ( 'NONE',  ( -0.000000000000000000, -1.000000000000000000, -0.000000000000000000 ) ) ;
#68 = COLOUR_RGB ( '',1.000000000000000000, 0.000000000000000000, 0.000000000000000000 ) ;
#69 = CARTESIAN_POINT ( 'NONE',  ( 0.000000000000000000, 0.000000000000000000, 0.000000000000000000 ) ) ;
#70 = UNCERTAINTY_MEASURE_WITH_UNIT (LENGTH_MEASURE( 1.000000000000000082E-05 ), #51, 'distance_accuracy_value', 'NONE');
#71 = LENGTH_MEASURE_WITH_UNIT ( LENGTH_MEASURE( 0.02539999999999999897 ), #44 );
#72 = DIRECTION ( 'NONE',  ( -0.000000000000000000, -1.000000000000000000, -0.000000000000000000 ) ) ;
#73 = ADVANCED_FACE ( 'NONE', ( #61 ), #87, .T. ) ;
#74 = PRESENTATION_STYLE_ASSIGNMENT (( #124 ) ) ;
#75 = AXIS2_PLACEMENT_3D ( 'NONE', #2, #29, #79 ) ;
#76 = ADVANCED_FACE ( 'NONE', ( #167 ), #160, .T. ) ;
#77 = EDGE_LOOP ( 'NONE', ( #110, #3 ) ) ;
#78 = DIRECTION ( 'NONE',  ( -0.000000000000000000, -1.000000000000000000, -0.000000000000000000 ) ) ;
#79 = DIRECTION ( 'NONE',  ( 0.000000000000000000, 0.000000000000000000, -1.000000000000000000 ) ) ;
#80 = ORIENTED_EDGE ( 'NONE', *, *, #14, .T. ) ;
#81 = DIRECTION ( 'NONE',  ( -0.000000000000000000, -1.000000000000000000, -0.000000000000000000 ) ) ;
#82 = ORIENTED_EDGE ( 'NONE', *, *, #168, .T. ) ;
#83 = CARTESIAN_POINT ( 'NONE',  ( 1.249799818884882708E-33, 1.000000000000000222, 0.000000000000000000 ) ) ;
#84 = MECHANICAL_DESIGN_GEOMETRIC_PRESENTATION_REPRESENTATION (  '', ( #292 ), #178 ) ;
#85 = AXIS2_PLACEMENT_3D ( 'NONE', #26, #204, #182 ) ;
#86 = PRODUCT_DEFINITION_CONTEXT ( 'detailed design', #186, 'design' ) ;
#87 = PLANE ( 'NONE',  #75 ) ;
#88 = DIRECTION ( 'NONE',  ( -1.000000000000000000, 0.000000000000000000, 0.000000000000000000 ) ) ;
#89 = LENGTH_MEASURE_WITH_UNIT ( LENGTH_MEASURE( 0.02539999999999999897 ), #288 );
#90 = SURFACE_STYLE_FILL_AREA ( #135 ) ;
#91 = MANIFOLD_SOLID_BREP ( 'Revolve - Cutting Edge', #259 ) ;
#92 = AXIS2_PLACEMENT_3D ( 'NONE', #15, #152, #10 ) ;
#93 = EDGE_CURVE ( 'NONE', #260, #257, #25, .T. ) ;
#94 = LENGTH_MEASURE_WITH_UNIT ( LENGTH_MEASURE( 0.02539999999999999897 ), #174 );
#95 = ORIENTED_EDGE ( 'NONE', *, *, #266, .F. ) ;
#96 =( NAMED_UNIT ( * ) SI_UNIT ( $, .STERADIAN. ) SOLID_ANGLE_UNIT ( ) );
#97 =( LENGTH_UNIT ( ) NAMED_UNIT ( * ) SI_UNIT ( $, .METRE. ) );
#98 = CIRCLE ( 'NONE', #286, 0.3750000000000000555 ) ;
#99 = PRESENTATION_STYLE_ASSIGNMENT (( #196 ) ) ;
#100 =( NAMED_UNIT ( * ) SI_UNIT ( $, .STERADIAN. ) SOLID_ANGLE_UNIT ( ) );
#101 =( NAMED_UNIT ( * ) PLANE_ANGLE_UNIT ( ) SI_UNIT ( $, .RADIAN. ) );
#102 = AXIS2_PLACEMENT_3D ( 'NONE', #285, #132, #8 ) ;
#103 = DIRECTION ( 'NONE',  ( 8.164311994315692567E-17, 1.000000000000000000, -0.000000000000000000 ) ) ;
#104 = DIRECTION ( 'NONE',  ( -0.000000000000000000, -1.000000000000000000, -0.000000000000000000 ) ) ;
#105 = ADVANCED_FACE ( 'NONE', ( #185 ), #27, .T. ) ;
#106 = SURFACE_STYLE_FILL_AREA ( #125 ) ;
#107 = PRODUCT_DEFINITION_FORMATION_WITH_SPECIFIED_SOURCE ( 'ANY', '', #209, .NOT_KNOWN. ) ;
#108 = DIMENSIONAL_EXPONENTS ( 1.000000000000000000, 0.000000000000000000, 0.000000000000000000, 0.000000000000000000, 0.000000000000000000, 0.000000000000000000, 0.000000000000000000 ) ;
#109 = CARTESIAN_POINT ( 'NONE',  ( -0.3750000000000000555, 1.000000000000000222, 0.000000000000000000 ) ) ;
#110 = ORIENTED_EDGE ( 'NONE', *, *, #163, .T. ) ;
#111 = EDGE_LOOP ( 'NONE', ( #263, #250 ) ) ;
#112 = EDGE_CURVE ( 'NONE', #242, #171, #183, .T. ) ;
#113 = AXIS2_PLACEMENT_3D ( 'NONE', #203, #302, #54 ) ;
#114 = VECTOR ( 'NONE', #103, 39.37007874015748143 ) ;
#115 = SURFACE_STYLE_USAGE ( .BOTH. , #116 ) ;
#116 = SURFACE_SIDE_STYLE ('',( #36 ) ) ;
#117 = FACE_OUTER_BOUND ( 'NONE', #118, .T. ) ;
#118 = EDGE_LOOP ( 'NONE', ( #192, #159, #80, #271 ) ) ;
#119 = ADVANCED_FACE ( 'NONE', ( #239 ), #6, .T. ) ;
#120 = CIRCLE ( 'NONE', #28, 0.3750000000000000555 ) ;
#121 = PRODUCT_DEFINITION_SHAPE ( 'NONE', 'NONE',  #284 ) ;
#122 = DIRECTION ( 'NONE',  ( 1.000000000000000000, 0.000000000000000000, 0.000000000000000000 ) ) ;
#123 = SURFACE_STYLE_USAGE ( .BOTH. , #276 ) ;
#124 = SURFACE_STYLE_USAGE ( .BOTH. , #278 ) ;
#125 = FILL_AREA_STYLE ('',( #50 ) ) ;
#126 = ORIENTED_EDGE ( 'NONE', *, *, #148, .F. ) ;
#127 = ORIENTED_EDGE ( 'NONE', *, *, #216, .T. ) ;
#128 = COLOUR_RGB ( '',1.000000000000000000, 0.000000000000000000, 0.000000000000000000 ) ;
#129 = CIRCLE ( 'NONE', #133, 0.3749999999999997780 ) ;
#130 = FACE_OUTER_BOUND ( 'NONE', #189, .T. ) ;
#131 = VERTEX_POINT ( 'NONE', #109 ) ;
#132 = DIRECTION ( 'NONE',  ( 8.164311994315692567E-17, 1.000000000000000000, -0.000000000000000000 ) ) ;
#133 = AXIS2_PLACEMENT_3D ( 'NONE', #289, #172, #62 ) ;
#134 = ORIENTED_EDGE ( 'NONE', *, *, #112, .F. ) ;
#135 = FILL_AREA_STYLE ('',( #198 ) ) ;
#136 = CYLINDRICAL_SURFACE ( 'NONE', #164, 0.3750000000000000555 ) ;
#137 = PRESENTATION_LAYER_ASSIGNMENT (  '', '', ( #277 ) ) ;
#138 = FILL_AREA_STYLE ('',( #221 ) ) ;
#139 = CLOSED_SHELL ( 'NONE', ( #119, #229, #261, #237 ) ) ;
#140 = VERTEX_POINT ( 'NONE', #283 ) ;
#141 = DIRECTION ( 'NONE',  ( -0.000000000000000000, -1.000000000000000000, -0.000000000000000000 ) ) ;
#142 = FILL_AREA_STYLE ('',( #210 ) ) ;
#143 = CIRCLE ( 'NONE', #275, 0.3750000000000000555 ) ;
#144 =( CONVERSION_BASED_UNIT ( 'INCH', #303 ) LENGTH_UNIT ( ) NAMED_UNIT ( #180 ) );
#145 = ORIENTED_EDGE ( 'NONE', *, *, #148, .T. ) ;
#146 = PRESENTATION_LAYER_ASSIGNMENT (  '', '', ( #173 ) ) ;
#147 = ORIENTED_EDGE ( 'NONE', *, *, #170, .F. ) ;
#148 = EDGE_CURVE ( 'NONE', #57, #140, #120, .T. ) ;
#149 = PRESENTATION_STYLE_ASSIGNMENT (( #115 ) ) ;
#150 =( GEOMETRIC_REPRESENTATION_CONTEXT ( 3 ) GLOBAL_UNCERTAINTY_ASSIGNED_CONTEXT ( ( #7 ) ) GLOBAL_UNIT_ASSIGNED_CONTEXT ( ( #144, #20, #5 ) ) REPRESENTATION_CONTEXT ( 'NONE', 'WORKASPACE' ) );
#151 = SURFACE_STYLE_USAGE ( .BOTH. , #268 ) ;
#152 = DIRECTION ( 'NONE',  ( -8.164311994315692567E-17, -1.000000000000000000, 0.000000000000000000 ) ) ;
#153 = FACE_OUTER_BOUND ( 'NONE', #241, .T. ) ;
#154 = CYLINDRICAL_SURFACE ( 'NONE', #179, 0.3749999999999998890 ) ;
#155 = ORIENTED_EDGE ( 'NONE', *, *, #201, .T. ) ;
#156 = DIMENSIONAL_EXPONENTS ( 1.000000000000000000, 0.000000000000000000, 0.000000000000000000, 0.000000000000000000, 0.000000000000000000, 0.000000000000000000, 0.000000000000000000 ) ;
#157 = EDGE_CURVE ( 'NONE', #131, #282, #235, .T. ) ;
#158 =( GEOMETRIC_REPRESENTATION_CONTEXT ( 3 ) GLOBAL_UNCERTAINTY_ASSIGNED_CONTEXT ( ( #21 ) ) GLOBAL_UNIT_ASSIGNED_CONTEXT ( ( #11, #197, #293 ) ) REPRESENTATION_CONTEXT ( 'NONE', 'WORKASPACE' ) );
#159 = ORIENTED_EDGE ( 'NONE', *, *, #212, .T. ) ;
#160 = PLANE ( 'NONE',  #308 ) ;
#161 =( CONVERSION_BASED_UNIT ( 'INCH', #280 ) LENGTH_UNIT ( ) NAMED_UNIT ( #156 ) );
#162 = DIRECTION ( 'NONE',  ( 0.000000000000000000, 1.000000000000000000, 0.000000000000000000 ) ) ;
#163 = EDGE_CURVE ( 'NONE', #171, #242, #98, .T. ) ;
#164 = AXIS2_PLACEMENT_3D ( 'NONE', #42, #67, #222 ) ;
#165 = STYLED_ITEM ( 'NONE', ( #291 ), #287 ) ;
#166 = ORIENTED_EDGE ( 'NONE', *, *, #157, .F. ) ;
#167 = FACE_OUTER_BOUND ( 'NONE', #211, .T. ) ;
#168 = EDGE_CURVE ( 'NONE', #282, #260, #219, .T. ) ;
#169 = FILL_AREA_STYLE_COLOUR ( '', #299 ) ;
#170 = EDGE_CURVE ( 'NONE', #140, #57, #143, .T. ) ;
#171 = VERTEX_POINT ( 'NONE', #19 ) ;
#172 = DIRECTION ( 'NONE',  ( 8.164311994315692567E-17, 1.000000000000000000, -0.000000000000000000 ) ) ;
#173 = STYLED_ITEM ( 'NONE', ( #99 ), #76 ) ;
#174 =( LENGTH_UNIT ( ) NAMED_UNIT ( * ) SI_UNIT ( $, .METRE. ) );
#175 = DIRECTION ( 'NONE',  ( -1.000000000000000000, 8.164311994315692567E-17, 0.000000000000000000 ) ) ;
#176 = SURFACE_STYLE_FILL_AREA ( #194 ) ;
#177 =( CONVERSION_BASED_UNIT ( 'INCH', #39 ) LENGTH_UNIT ( ) NAMED_UNIT ( #269 ) );
#178 =( GEOMETRIC_REPRESENTATION_CONTEXT ( 3 ) GLOBAL_UNCERTAINTY_ASSIGNED_CONTEXT ( ( #32 ) ) GLOBAL_UNIT_ASSIGNED_CONTEXT ( ( #264, #9, #96 ) ) REPRESENTATION_CONTEXT ( 'NONE', 'WORKASPACE' ) );
#179 = AXIS2_PLACEMENT_3D ( 'NONE', #246, #65, #88 ) ;
#180 = DIMENSIONAL_EXPONENTS ( 1.000000000000000000, 0.000000000000000000, 0.000000000000000000, 0.000000000000000000, 0.000000000000000000, 0.000000000000000000, 0.000000000000000000 ) ;
#181 = CARTESIAN_POINT ( 'NONE',  ( 4.592425496802575451E-17, 0.000000000000000000, 0.3750000000000000555 ) ) ;
#182 = DIRECTION ( 'NONE',  ( -1.000000000000000000, 0.000000000000000000, 0.000000000000000000 ) ) ;
#183 = CIRCLE ( 'NONE', #18, 0.3750000000000000555 ) ;
#184 =( GEOMETRIC_REPRESENTATION_CONTEXT ( 3 ) GLOBAL_UNCERTAINTY_ASSIGNED_CONTEXT ( ( #70 ) ) GLOBAL_UNIT_ASSIGNED_CONTEXT ( ( #51, #17, #100 ) ) REPRESENTATION_CONTEXT ( 'NONE', 'WORKASPACE' ) );
#185 = FACE_OUTER_BOUND ( 'NONE', #214, .T. ) ;
#186 = APPLICATION_CONTEXT ( 'automotive_design' ) ;
#187 = EDGE_LOOP ( 'NONE', ( #30, #82, #95, #59 ) ) ;
#188 = CARTESIAN_POINT ( 'NONE',  ( 0.000000000000000000, 0.000000000000000000, 0.000000000000000000 ) ) ;
#189 = EDGE_LOOP ( 'NONE', ( #166, #56 ) ) ;
#190 = DIRECTION ( 'NONE',  ( -0.000000000000000000, -1.000000000000000000, -0.000000000000000000 ) ) ;
#191 = PRESENTATION_LAYER_ASSIGNMENT (  '', '', ( #240 ) ) ;
#192 = ORIENTED_EDGE ( 'NONE', *, *, #168, .F. ) ;
#193 = CARTESIAN_POINT ( 'NONE',  ( 0.3750000000000000555, 4.000000000000000000, 4.592425496802573602E-17 ) ) ;
#194 = FILL_AREA_STYLE ('',( #16 ) ) ;
#195 = CARTESIAN_POINT ( 'NONE',  ( 0.3750000000000000555, 1.000000000000000222, 4.592425496802573602E-17 ) ) ;
#196 = SURFACE_STYLE_USAGE ( .BOTH. , #47 ) ;
#197 =( NAMED_UNIT ( * ) PLANE_ANGLE_UNIT ( ) SI_UNIT ( $, .RADIAN. ) );
#198 = FILL_AREA_STYLE_COLOUR ( '', #300 ) ;
#199 = CARTESIAN_POINT ( 'NONE',  ( 0.000000000000000000, 1.000000000000000222, -0.3750000000000000555 ) ) ;
#200 = APPLICATION_PROTOCOL_DEFINITION ( 'draft international standard', 'automotive_design', 1998, #186 ) ;
#201 = EDGE_CURVE ( 'NONE', #140, #242, #306, .T. ) ;
#202 = MECHANICAL_DESIGN_GEOMETRIC_PRESENTATION_REPRESENTATION (  '', ( #165 ), #224 ) ;
#203 = CARTESIAN_POINT ( 'NONE',  ( 0.000000000000000000, 1.000000000000000222, 0.000000000000000000 ) ) ;
#204 = DIRECTION ( 'NONE',  ( 8.164311994315692567E-17, 1.000000000000000000, -0.000000000000000000 ) ) ;
#205 = DIMENSIONAL_EXPONENTS ( 1.000000000000000000, 0.000000000000000000, 0.000000000000000000, 0.000000000000000000, 0.000000000000000000, 0.000000000000000000, 0.000000000000000000 ) ;
#206 = PRODUCT_CONTEXT ( 'NONE', #296, 'mechanical' ) ;
#207 = MECHANICAL_DESIGN_GEOMETRIC_PRESENTATION_REPRESENTATION (  '', ( #231 ), #267 ) ;
#208 = PRESENTATION_STYLE_ASSIGNMENT (( #123 ) ) ;
#209 = PRODUCT ( '03645', '03645', '', ( #206 ) ) ;
#210 = FILL_AREA_STYLE_COLOUR ( '', #49 ) ;
#211 = EDGE_LOOP ( 'NONE', ( #126, #147 ) ) ;
#212 = EDGE_CURVE ( 'NONE', #282, #131, #4, .T. ) ;
#213 = AXIS2_PLACEMENT_3D ( 'NONE', #188, #78, #60 ) ;
#214 = EDGE_LOOP ( 'NONE', ( #145, #155, #232, #22 ) ) ;
#215 = DIRECTION ( 'NONE',  ( 0.000000000000000000, 0.000000000000000000, -1.000000000000000000 ) ) ;
#216 = EDGE_CURVE ( 'NONE', #57, #171, #234, .T. ) ;
#217 = DIRECTION ( 'NONE',  ( -1.000000000000000000, 0.000000000000000000, 0.000000000000000000 ) ) ;
#218 = FILL_AREA_STYLE ('',( #169 ) ) ;
#219 = LINE ( 'NONE', #48, #114 ) ;
#220 = SURFACE_STYLE_USAGE ( .BOTH. , #273 ) ;
#221 = FILL_AREA_STYLE_COLOUR ( '', #68 ) ;
#222 = DIRECTION ( 'NONE',  ( 0.000000000000000000, 0.000000000000000000, -1.000000000000000000 ) ) ;
#223 =( NAMED_UNIT ( * ) SI_UNIT ( $, .STERADIAN. ) SOLID_ANGLE_UNIT ( ) );
#224 =( GEOMETRIC_REPRESENTATION_CONTEXT ( 3 ) GLOBAL_UNCERTAINTY_ASSIGNED_CONTEXT ( ( #226 ) ) GLOBAL_UNIT_ASSIGNED_CONTEXT ( ( #177, #37, #223 ) ) REPRESENTATION_CONTEXT ( 'NONE', 'WORKASPACE' ) );
#225 = LENGTH_MEASURE_WITH_UNIT ( LENGTH_MEASURE( 0.02539999999999999897 ), #46 );
#226 = UNCERTAINTY_MEASURE_WITH_UNIT (LENGTH_MEASURE( 1.000000000000000082E-05 ), #177, 'distance_accuracy_value', 'NONE');
#227 = LINE ( 'NONE', #290, #247 ) ;
#228 =( CONVERSION_BASED_UNIT ( 'INCH', #94 ) LENGTH_UNIT ( ) NAMED_UNIT ( #304 ) );
#229 = ADVANCED_FACE ( 'NONE', ( #130 ), #258, .F. ) ;
#230 = CARTESIAN_POINT ( 'NONE',  ( 0.000000000000000000, 1.000000000000000222, 0.000000000000000000 ) ) ;
#231 = STYLED_ITEM ( 'NONE', ( #208 ), #91 ) ;
#232 = ORIENTED_EDGE ( 'NONE', *, *, #163, .F. ) ;
#233 =( NAMED_UNIT ( * ) SI_UNIT ( $, .STERADIAN. ) SOLID_ANGLE_UNIT ( ) );
#234 = LINE ( 'NONE', #24, #274 ) ;
#235 = CIRCLE ( 'NONE', #102, 0.3750000000000000555 ) ;
#236 = CARTESIAN_POINT ( 'NONE',  ( 0.000000000000000000, 1.000000000000000222, 0.000000000000000000 ) ) ;
#237 = ADVANCED_FACE ( 'NONE', ( #295 ), #243, .F. ) ;
#238 = PRESENTATION_LAYER_ASSIGNMENT (  '', '', ( #231 ) ) ;
#239 = FACE_OUTER_BOUND ( 'NONE', #187, .T. ) ;
#240 = STYLED_ITEM ( 'NONE', ( #74 ), #105 ) ;
#241 = EDGE_LOOP ( 'NONE', ( #255, #52, #127, #134 ) ) ;
#242 = VERTEX_POINT ( 'NONE', #297 ) ;
#243 = PLANE ( 'NONE',  #92 ) ;
#244 = COLOUR_RGB ( '',1.000000000000000000, 0.000000000000000000, 0.000000000000000000 ) ;
#245 = DIRECTION ( 'NONE',  ( 8.164311994315692567E-17, 1.000000000000000000, -0.000000000000000000 ) ) ;
#246 = CARTESIAN_POINT ( 'NONE',  ( 2.449293598294707400E-16, 4.000000000000000000, 0.000000000000000000 ) ) ;
#247 = VECTOR ( 'NONE', #245, 39.37007874015748143 ) ;
#248 = MECHANICAL_DESIGN_GEOMETRIC_PRESENTATION_REPRESENTATION (  '', ( #240 ), #150 ) ;
#249 = DIRECTION ( 'NONE',  ( 0.000000000000000000, -0.000000000000000000, 1.000000000000000000 ) ) ;
#250 = ORIENTED_EDGE ( 'NONE', *, *, #93, .T. ) ;
#251 = APPLICATION_PROTOCOL_DEFINITION ( 'draft international standard', 'automotive_design', 1998, #296 ) ;
#252 = VECTOR ( 'NONE', #72, 39.37007874015748143 ) ;
#253 =( LENGTH_UNIT ( ) NAMED_UNIT ( * ) SI_UNIT ( $, .METRE. ) );
#254 = AXIS2_PLACEMENT_3D ( 'NONE', #69, #305, #122 ) ;
#255 = ORIENTED_EDGE ( 'NONE', *, *, #201, .F. ) ;
#256 = CARTESIAN_POINT ( 'NONE',  ( 0.000000000000000000, 0.000000000000000000, 0.000000000000000000 ) ) ;
#257 = VERTEX_POINT ( 'NONE', #270 ) ;
#258 = PLANE ( 'NONE',  #281 ) ;
#259 = CLOSED_SHELL ( 'NONE', ( #105, #76, #40, #73 ) ) ;
#260 = VERTEX_POINT ( 'NONE', #193 ) ;
#261 = ADVANCED_FACE ( 'NONE', ( #117 ), #154, .T. ) ;
#262 = CARTESIAN_POINT ( 'NONE',  ( 2.449293598294707400E-16, 4.000000000000000000, 0.000000000000000000 ) ) ;
#263 = ORIENTED_EDGE ( 'NONE', *, *, #266, .T. ) ;
#264 =( CONVERSION_BASED_UNIT ( 'INCH', #225 ) LENGTH_UNIT ( ) NAMED_UNIT ( #108 ) );
#265 = DIRECTION ( 'NONE',  ( 0.000000000000000000, 0.000000000000000000, -1.000000000000000000 ) ) ;
#266 = EDGE_CURVE ( 'NONE', #257, #260, #129, .T. ) ;
#267 =( GEOMETRIC_REPRESENTATION_CONTEXT ( 3 ) GLOBAL_UNCERTAINTY_ASSIGNED_CONTEXT ( ( #298 ) ) GLOBAL_UNIT_ASSIGNED_CONTEXT ( ( #161, #53, #233 ) ) REPRESENTATION_CONTEXT ( 'NONE', 'WORKASPACE' ) );
#268 = SURFACE_SIDE_STYLE ('',( #90 ) ) ;
#269 = DIMENSIONAL_EXPONENTS ( 1.000000000000000000, 0.000000000000000000, 0.000000000000000000, 0.000000000000000000, 0.000000000000000000, 0.000000000000000000, 0.000000000000000000 ) ;
#270 = CARTESIAN_POINT ( 'NONE',  ( -0.3749999999999995004, 4.000000000000000000, 0.000000000000000000 ) ) ;
#271 = ORIENTED_EDGE ( 'NONE', *, *, #93, .F. ) ;
#272 = CARTESIAN_POINT ( 'NONE',  ( 0.000000000000000000, 0.000000000000000000, 0.000000000000000000 ) ) ;
#273 = SURFACE_SIDE_STYLE ('',( #176 ) ) ;
#274 = VECTOR ( 'NONE', #104, 39.37007874015748143 ) ;
#275 = AXIS2_PLACEMENT_3D ( 'NONE', #230, #141, #23 ) ;
#276 = SURFACE_SIDE_STYLE ('',( #1 ) ) ;
#277 = STYLED_ITEM ( 'NONE', ( #149 ), #73 ) ;
#278 = SURFACE_SIDE_STYLE ('',( #106 ) ) ;
#279 = SHAPE_DEFINITION_REPRESENTATION ( #121, #38 ) ;
#280 = LENGTH_MEASURE_WITH_UNIT ( LENGTH_MEASURE( 0.02539999999999999897 ), #309 );
#281 = AXIS2_PLACEMENT_3D ( 'NONE', #83, #35, #175 ) ;
#282 = VERTEX_POINT ( 'NONE', #195 ) ;
#283 = CARTESIAN_POINT ( 'NONE',  ( 4.592425496802575451E-17, 1.000000000000000222, 0.3750000000000000555 ) ) ;
#284 = PRODUCT_DEFINITION ( 'UNKNOWN', '', #107, #86 ) ;
#285 = CARTESIAN_POINT ( 'NONE',  ( 0.000000000000000000, 1.000000000000000222, 0.000000000000000000 ) ) ;
#286 = AXIS2_PLACEMENT_3D ( 'NONE', #272, #301, #265 ) ;
#287 = MANIFOLD_SOLID_BREP ( 'Revolve - Tool Body (Straight Shanked)', #139 ) ;
#288 =( LENGTH_UNIT ( ) NAMED_UNIT ( * ) SI_UNIT ( $, .METRE. ) );
#289 = CARTESIAN_POINT ( 'NONE',  ( 2.449293598294707400E-16, 4.000000000000000000, 0.000000000000000000 ) ) ;
#290 = CARTESIAN_POINT ( 'NONE',  ( -0.3749999999999996114, 4.000000000000000000, 0.000000000000000000 ) ) ;
#291 = PRESENTATION_STYLE_ASSIGNMENT (( #151 ) ) ;
#292 = STYLED_ITEM ( 'NONE', ( #12 ), #40 ) ;
#293 =( NAMED_UNIT ( * ) SI_UNIT ( $, .STERADIAN. ) SOLID_ANGLE_UNIT ( ) );
#294 = MECHANICAL_DESIGN_GEOMETRIC_PRESENTATION_REPRESENTATION (  '', ( #277 ), #158 ) ;
#295 = FACE_OUTER_BOUND ( 'NONE', #111, .T. ) ;
#296 = APPLICATION_CONTEXT ( 'automotive_design' ) ;
#297 = CARTESIAN_POINT ( 'NONE',  ( 4.592425496802575451E-17, 0.000000000000000000, 0.3750000000000000555 ) ) ;
#298 = UNCERTAINTY_MEASURE_WITH_UNIT (LENGTH_MEASURE( 1.000000000000000082E-05 ), #161, 'distance_accuracy_value', 'NONE');
#299 = COLOUR_RGB ( '',1.000000000000000000, 0.000000000000000000, 0.000000000000000000 ) ;
#300 = COLOUR_RGB ( '',0.7921568627450980005, 0.8196078431372548767, 0.9333333333333333481 ) ;
#301 = DIRECTION ( 'NONE',  ( -0.000000000000000000, -1.000000000000000000, -0.000000000000000000 ) ) ;
#302 = DIRECTION ( 'NONE',  ( 8.164311994315692567E-17, 1.000000000000000000, -0.000000000000000000 ) ) ;
#303 = LENGTH_MEASURE_WITH_UNIT ( LENGTH_MEASURE( 0.02539999999999999897 ), #253 );
#304 = DIMENSIONAL_EXPONENTS ( 1.000000000000000000, 0.000000000000000000, 0.000000000000000000, 0.000000000000000000, 0.000000000000000000, 0.000000000000000000, 0.000000000000000000 ) ;
#305 = DIRECTION ( 'NONE',  ( 0.000000000000000000, 0.000000000000000000, 1.000000000000000000 ) ) ;
#306 = LINE ( 'NONE', #181, #252 ) ;
#307 =( NAMED_UNIT ( * ) SI_UNIT ( $, .STERADIAN. ) SOLID_ANGLE_UNIT ( ) );
#308 = AXIS2_PLACEMENT_3D ( 'NONE', #236, #162, #249 ) ;
#309 =( LENGTH_UNIT ( ) NAMED_UNIT ( * ) SI_UNIT ( $, .METRE. ) );
ENDSEC;
END-ISO-10303-21;
