ISO-10303-21;
HEADER;
FILE_DESCRIPTION (( 'STEP AP214' ),
    '1' );
FILE_NAME ('81324.STEP',
    '2023-06-30T22:24:42',
    ( '' ),
    ( '' ),
    'SwSTEP 2.0',
    'SolidWorks 2023',
    '' );
FILE_SCHEMA (( 'AUTOMOTIVE_DESIGN' ));
ENDSEC;

DATA;
#1 = FILL_AREA_STYLE ('',( #264 ) ) ;
#2 = DIRECTION ( 'NONE',  ( -1.228329711887257701E-16, 1.000000000000000000, -0.000000000000000000 ) ) ;
#3 = CIRCLE ( 'NONE', #80, 0.1874999999999999167 ) ;
#4 = PRESENTATION_LAYER_ASSIGNMENT (  '', '', ( #141 ) ) ;
#5 = ORIENTED_EDGE ( 'NONE', *, *, #271, .T. ) ;
#6 = ORIENTED_EDGE ( 'NONE', *, *, #86, .T. ) ;
#7 = PRESENTATION_STYLE_ASSIGNMENT (( #300 ) ) ;
#8 = SURFACE_SIDE_STYLE ('',( #299 ) ) ;
#9 = PRESENTATION_LAYER_ASSIGNMENT (  '', '', ( #267 ) ) ;
#10 = AXIS2_PLACEMENT_3D ( 'NONE', #100, #23, #75 ) ;
#11 = LENGTH_MEASURE_WITH_UNIT ( LENGTH_MEASURE( 0.02539999999999999897 ), #249 );
#12 = EDGE_LOOP ( 'NONE', ( #147, #145, #39, #224 ) ) ;
#13 = LENGTH_MEASURE_WITH_UNIT ( LENGTH_MEASURE( 0.02539999999999999897 ), #135 );
#14 = AXIS2_PLACEMENT_3D ( 'NONE', #275, #111, #65 ) ;
#15 = AXIS2_PLACEMENT_3D ( 'NONE', #151, #350, #146 ) ;
#16 = PRESENTATION_STYLE_ASSIGNMENT (( #338 ) ) ;
#17 = FILL_AREA_STYLE ('',( #101 ) ) ;
#18 = SPHERICAL_SURFACE ( 'NONE', #10, 0.1875000000000000555 ) ;
#19 = DIRECTION ( 'NONE',  ( 1.000000000000000000, 0.000000000000000000, 0.000000000000000000 ) ) ;
#20 = ADVANCED_FACE ( 'NONE', ( #150 ), #55, .F. ) ;
#21 = PRESENTATION_STYLE_ASSIGNMENT (( #170 ) ) ;
#22 = VERTEX_POINT ( 'NONE', #236 ) ;
#23 = DIRECTION ( 'NONE',  ( 0.000000000000000000, 0.000000000000000000, 1.000000000000000000 ) ) ;
#24 = FILL_AREA_STYLE ('',( #77 ) ) ;
#25 = ADVANCED_FACE ( 'NONE', ( #295 ), #325, .T. ) ;
#26 = DIRECTION ( 'NONE',  ( 0.000000000000000000, 0.000000000000000000, -1.000000000000000000 ) ) ;
#27 = AXIS2_PLACEMENT_3D ( 'NONE', #194, #339, #309 ) ;
#28 =( NAMED_UNIT ( * ) SI_UNIT ( $, .STERADIAN. ) SOLID_ANGLE_UNIT ( ) );
#29 = ORIENTED_EDGE ( 'NONE', *, *, #76, .T. ) ;
#30 = FACE_OUTER_BOUND ( 'NONE', #209, .T. ) ;
#31 = ORIENTED_EDGE ( 'NONE', *, *, #346, .T. ) ;
#32 = DIMENSIONAL_EXPONENTS ( 1.000000000000000000, 0.000000000000000000, 0.000000000000000000, 0.000000000000000000, 0.000000000000000000, 0.000000000000000000, 0.000000000000000000 ) ;
#33 = CARTESIAN_POINT ( 'NONE',  ( 0.000000000000000000, 0.1875000000000000555, 0.000000000000000000 ) ) ;
#34 = PRESENTATION_LAYER_ASSIGNMENT (  '', '', ( #360 ) ) ;
#35 = ORIENTED_EDGE ( 'NONE', *, *, #102, .T. ) ;
#36 = UNCERTAINTY_MEASURE_WITH_UNIT (LENGTH_MEASURE( 1.000000000000000082E-05 ), #292, 'distance_accuracy_value', 'NONE');
#37 = MANIFOLD_SOLID_BREP ( 'Revolve - Cutting Edge', #362 ) ;
#38 = ORIENTED_EDGE ( 'NONE', *, *, #203, .F. ) ;
#39 = ORIENTED_EDGE ( 'NONE', *, *, #271, .F. ) ;
#40 = PRESENTATION_LAYER_ASSIGNMENT (  '', '', ( #329 ) ) ;
#41 =( CONVERSION_BASED_UNIT ( 'INCH', #185 ) LENGTH_UNIT ( ) NAMED_UNIT ( #345 ) );
#42 = ADVANCED_BREP_SHAPE_REPRESENTATION ( '81324', ( #37, #167, #317 ), #46 ) ;
#43 = DIRECTION ( 'NONE',  ( 1.224646799147353207E-16, -0.000000000000000000, 1.000000000000000000 ) ) ;
#44 = CARTESIAN_POINT ( 'NONE',  ( 2.296212748401286493E-17, 0.000000000000000000, 0.1874999999999999445 ) ) ;
#45 = COLOUR_RGB ( '',1.000000000000000000, 0.000000000000000000, 0.000000000000000000 ) ;
#46 =( GEOMETRIC_REPRESENTATION_CONTEXT ( 3 ) GLOBAL_UNCERTAINTY_ASSIGNED_CONTEXT ( ( #178 ) ) GLOBAL_UNIT_ASSIGNED_CONTEXT ( ( #250, #165, #47 ) ) REPRESENTATION_CONTEXT ( 'NONE', 'WORKASPACE' ) );
#47 =( NAMED_UNIT ( * ) SI_UNIT ( $, .STERADIAN. ) SOLID_ANGLE_UNIT ( ) );
#48 =( LENGTH_UNIT ( ) NAMED_UNIT ( * ) SI_UNIT ( $, .METRE. ) );
#49 = ADVANCED_FACE ( 'NONE', ( #188 ), #74, .T. ) ;
#50 = CARTESIAN_POINT ( 'NONE',  ( 2.296212748401285877E-17, 1.500000000000000222, 0.1874999999999998335 ) ) ;
#51 =( LENGTH_UNIT ( ) NAMED_UNIT ( * ) SI_UNIT ( $, .METRE. ) );
#52 = DIMENSIONAL_EXPONENTS ( 1.000000000000000000, 0.000000000000000000, 0.000000000000000000, 0.000000000000000000, 0.000000000000000000, 0.000000000000000000, 0.000000000000000000 ) ;
#53 = CARTESIAN_POINT ( 'NONE',  ( -1.148106374200644017E-17, 0.000000000000000000, 0.000000000000000000 ) ) ;
#54 = PRESENTATION_STYLE_ASSIGNMENT (( #180 ) ) ;
#55 = PLANE ( 'NONE',  #14 ) ;
#56 = APPLICATION_PROTOCOL_DEFINITION ( 'draft international standard', 'automotive_design', 1998, #217 ) ;
#57 =( LENGTH_UNIT ( ) NAMED_UNIT ( * ) SI_UNIT ( $, .METRE. ) );
#58 = ORIENTED_EDGE ( 'NONE', *, *, #210, .T. ) ;
#59 = COLOUR_RGB ( '',0.7921568627450980005, 0.8196078431372548767, 0.9333333333333333481 ) ;
#60 = COLOUR_RGB ( '',1.000000000000000000, 0.000000000000000000, 0.000000000000000000 ) ;
#61 = FILL_AREA_STYLE ('',( #182 ) ) ;
#62 =( GEOMETRIC_REPRESENTATION_CONTEXT ( 3 ) GLOBAL_UNCERTAINTY_ASSIGNED_CONTEXT ( ( #137 ) ) GLOBAL_UNIT_ASSIGNED_CONTEXT ( ( #367, #255, #205 ) ) REPRESENTATION_CONTEXT ( 'NONE', 'WORKASPACE' ) );
#63 = SURFACE_SIDE_STYLE ('',( #206 ) ) ;
#64 = ADVANCED_FACE ( 'NONE', ( #272 ), #219, .T. ) ;
#65 = DIRECTION ( 'NONE',  ( -1.000000000000000000, -1.228329711887257701E-16, 0.000000000000000000 ) ) ;
#66 = DIRECTION ( 'NONE',  ( 0.000000000000000000, 0.000000000000000000, 1.000000000000000000 ) ) ;
#67 = LENGTH_MEASURE_WITH_UNIT ( LENGTH_MEASURE( 0.02539999999999999897 ), #48 );
#68 = CARTESIAN_POINT ( 'NONE',  ( 0.1875000000000000555, 0.1875000000000000555, 0.000000000000000000 ) ) ;
#69 = DIRECTION ( 'NONE',  ( 0.000000000000000000, 0.000000000000000000, -1.000000000000000000 ) ) ;
#70 = COLOUR_RGB ( '',1.000000000000000000, 0.000000000000000000, 0.000000000000000000 ) ;
#71 = MECHANICAL_DESIGN_GEOMETRIC_PRESENTATION_REPRESENTATION (  '', ( #360 ), #62 ) ;
#72 = PRODUCT_DEFINITION ( 'UNKNOWN', '', #337, #228 ) ;
#73 = FILL_AREA_STYLE_COLOUR ( '', #331 ) ;
#74 = SPHERICAL_SURFACE ( 'NONE', #172, 0.1875000000000000555 ) ;
#75 = DIRECTION ( 'NONE',  ( 1.000000000000000000, 0.000000000000000000, 0.000000000000000000 ) ) ;
#76 = EDGE_CURVE ( 'NONE', #113, #155, #226, .T. ) ;
#77 = FILL_AREA_STYLE_COLOUR ( '', #222 ) ;
#78 = DIRECTION ( 'NONE',  ( -0.000000000000000000, -1.000000000000000000, -0.000000000000000000 ) ) ;
#79 = DIRECTION ( 'NONE',  ( 0.000000000000000000, 0.000000000000000000, -1.000000000000000000 ) ) ;
#80 = AXIS2_PLACEMENT_3D ( 'NONE', #166, #361, #276 ) ;
#81 =( NAMED_UNIT ( * ) PLANE_ANGLE_UNIT ( ) SI_UNIT ( $, .RADIAN. ) );
#82 = DIRECTION ( 'NONE',  ( 0.000000000000000000, 0.000000000000000000, -1.000000000000000000 ) ) ;
#83 = ORIENTED_EDGE ( 'NONE', *, *, #121, .F. ) ;
#84 = SURFACE_SIDE_STYLE ('',( #369 ) ) ;
#85 = ORIENTED_EDGE ( 'NONE', *, *, #159, .F. ) ;
#86 = EDGE_CURVE ( 'NONE', #89, #355, #158, .T. ) ;
#87 = AXIS2_PLACEMENT_3D ( 'NONE', #359, #43, #191 ) ;
#88 = AXIS2_PLACEMENT_3D ( 'NONE', #202, #294, #319 ) ;
#89 = VERTEX_POINT ( 'NONE', #50 ) ;
#90 = ORIENTED_EDGE ( 'NONE', *, *, #108, .F. ) ;
#91 = UNCERTAINTY_MEASURE_WITH_UNIT (LENGTH_MEASURE( 1.000000000000000082E-05 ), #95, 'distance_accuracy_value', 'NONE');
#92 = PRODUCT_RELATED_PRODUCT_CATEGORY ( 'part', '', ( #306 ) ) ;
#93 = STYLED_ITEM ( 'NONE', ( #7 ), #37 ) ;
#94 = CIRCLE ( 'NONE', #130, 0.1874999999999998335 ) ;
#95 =( CONVERSION_BASED_UNIT ( 'INCH', #11 ) LENGTH_UNIT ( ) NAMED_UNIT ( #232 ) );
#96 =( NAMED_UNIT ( * ) PLANE_ANGLE_UNIT ( ) SI_UNIT ( $, .RADIAN. ) );
#97 =( NAMED_UNIT ( * ) SI_UNIT ( $, .STERADIAN. ) SOLID_ANGLE_UNIT ( ) );
#98 =( NAMED_UNIT ( * ) PLANE_ANGLE_UNIT ( ) SI_UNIT ( $, .RADIAN. ) );
#99 = CIRCLE ( 'NONE', #105, 0.1875000000000000555 ) ;
#100 = CARTESIAN_POINT ( 'NONE',  ( -2.296212748401288034E-17, 0.1875000000000000555, 0.000000000000000000 ) ) ;
#101 = FILL_AREA_STYLE_COLOUR ( '', #70 ) ;
#102 = EDGE_CURVE ( 'NONE', #174, #104, #3, .T. ) ;
#103 = SURFACE_STYLE_FILL_AREA ( #1 ) ;
#104 = VERTEX_POINT ( 'NONE', #122 ) ;
#105 = AXIS2_PLACEMENT_3D ( 'NONE', #142, #79, #199 ) ;
#106 = LENGTH_MEASURE_WITH_UNIT ( LENGTH_MEASURE( 0.02539999999999999897 ), #51 );
#107 =( CONVERSION_BASED_UNIT ( 'INCH', #106 ) LENGTH_UNIT ( ) NAMED_UNIT ( #52 ) );
#108 = EDGE_CURVE ( 'NONE', #204, #323, #277, .T. ) ;
#109 = CARTESIAN_POINT ( 'NONE',  ( -0.1874999999999998335, 3.500000000000000000, 0.000000000000000000 ) ) ;
#110 = PRESENTATION_LAYER_ASSIGNMENT (  '', '', ( #190 ) ) ;
#111 = DIRECTION ( 'NONE',  ( -1.228329711887257701E-16, 1.000000000000000000, 0.000000000000000000 ) ) ;
#112 = FACE_OUTER_BOUND ( 'NONE', #293, .T. ) ;
#113 = VERTEX_POINT ( 'NONE', #333 ) ;
#114 = VERTEX_POINT ( 'NONE', #68 ) ;
#115 = AXIS2_PLACEMENT_3D ( 'NONE', #189, #305, #69 ) ;
#116 = CIRCLE ( 'NONE', #88, 0.1874999999999999167 ) ;
#117 = CYLINDRICAL_SURFACE ( 'NONE', #15, 0.1874999999999999445 ) ;
#118 = ORIENTED_EDGE ( 'NONE', *, *, #86, .F. ) ;
#119 = DIRECTION ( 'NONE',  ( -0.000000000000000000, -1.000000000000000000, -0.000000000000000000 ) ) ;
#120 = ORIENTED_EDGE ( 'NONE', *, *, #134, .T. ) ;
#121 = EDGE_CURVE ( 'NONE', #323, #114, #307, .T. ) ;
#122 = CARTESIAN_POINT ( 'NONE',  ( -0.1874999999999999722, 3.500000000000000000, 0.000000000000000000 ) ) ;
#123 =( GEOMETRIC_REPRESENTATION_CONTEXT ( 3 ) GLOBAL_UNCERTAINTY_ASSIGNED_CONTEXT ( ( #36 ) ) GLOBAL_UNIT_ASSIGNED_CONTEXT ( ( #292, #81, #184 ) ) REPRESENTATION_CONTEXT ( 'NONE', 'WORKASPACE' ) );
#124 =( CONVERSION_BASED_UNIT ( 'INCH', #67 ) LENGTH_UNIT ( ) NAMED_UNIT ( #320 ) );
#125 = FACE_OUTER_BOUND ( 'NONE', #212, .T. ) ;
#126 = SURFACE_SIDE_STYLE ('',( #216 ) ) ;
#127 = DIRECTION ( 'NONE',  ( 0.000000000000000000, 0.000000000000000000, -1.000000000000000000 ) ) ;
#128 = CLOSED_SHELL ( 'NONE', ( #64, #20, #25, #334 ) ) ;
#129 = CIRCLE ( 'NONE', #347, 0.1874999999999998335 ) ;
#130 = AXIS2_PLACEMENT_3D ( 'NONE', #280, #257, #127 ) ;
#131 = FILL_AREA_STYLE_COLOUR ( '', #260 ) ;
#132 = ORIENTED_EDGE ( 'NONE', *, *, #108, .T. ) ;
#133 = PRODUCT_DEFINITION_SHAPE ( 'NONE', 'NONE',  #72 ) ;
#134 = EDGE_CURVE ( 'NONE', #204, #89, #129, .T. ) ;
#135 =( LENGTH_UNIT ( ) NAMED_UNIT ( * ) SI_UNIT ( $, .METRE. ) );
#136 = FILL_AREA_STYLE ('',( #131 ) ) ;
#137 = UNCERTAINTY_MEASURE_WITH_UNIT (LENGTH_MEASURE( 1.000000000000000082E-05 ), #367, 'distance_accuracy_value', 'NONE');
#138 = DIRECTION ( 'NONE',  ( 1.000000000000000000, 1.228329711887257701E-16, 0.000000000000000000 ) ) ;
#139 = CARTESIAN_POINT ( 'NONE',  ( 1.844336024200838922E-16, 1.500000000000000222, 0.000000000000000000 ) ) ;
#140 = AXIS2_PLACEMENT_3D ( 'NONE', #214, #328, #303 ) ;
#141 = STYLED_ITEM ( 'NONE', ( #156 ), #327 ) ;
#142 = CARTESIAN_POINT ( 'NONE',  ( -2.296212748401288034E-17, 0.1875000000000000555, 0.000000000000000000 ) ) ;
#143 = ADVANCED_FACE ( 'NONE', ( #313 ), #256, .T. ) ;
#144 = ORIENTED_EDGE ( 'NONE', *, *, #76, .F. ) ;
#145 = ORIENTED_EDGE ( 'NONE', *, *, #159, .T. ) ;
#146 = DIRECTION ( 'NONE',  ( 0.000000000000000000, 0.000000000000000000, -1.000000000000000000 ) ) ;
#147 = ORIENTED_EDGE ( 'NONE', *, *, #234, .T. ) ;
#148 = UNCERTAINTY_MEASURE_WITH_UNIT (LENGTH_MEASURE( 1.000000000000000082E-05 ), #124, 'distance_accuracy_value', 'NONE');
#149 = CIRCLE ( 'NONE', #200, 0.1874999999999996669 ) ;
#150 = FACE_OUTER_BOUND ( 'NONE', #322, .T. ) ;
#151 = CARTESIAN_POINT ( 'NONE',  ( 0.000000000000000000, 0.000000000000000000, 0.000000000000000000 ) ) ;
#152 = ORIENTED_EDGE ( 'NONE', *, *, #171, .T. ) ;
#153 = MECHANICAL_DESIGN_GEOMETRIC_PRESENTATION_REPRESENTATION (  '', ( #267 ), #241 ) ;
#154 = LINE ( 'NONE', #109, #308 ) ;
#155 = VERTEX_POINT ( 'NONE', #53 ) ;
#156 = PRESENTATION_STYLE_ASSIGNMENT (( #187 ) ) ;
#157 = CARTESIAN_POINT ( 'NONE',  ( -2.296212748401288034E-17, 0.1875000000000000555, 0.000000000000000000 ) ) ;
#158 = LINE ( 'NONE', #44, #274 ) ;
#159 = EDGE_CURVE ( 'NONE', #239, #174, #196, .T. ) ;
#160 = DIRECTION ( 'NONE',  ( 0.000000000000000000, 0.000000000000000000, -1.000000000000000000 ) ) ;
#161 =( GEOMETRIC_REPRESENTATION_CONTEXT ( 3 ) GLOBAL_UNCERTAINTY_ASSIGNED_CONTEXT ( ( #148 ) ) GLOBAL_UNIT_ASSIGNED_CONTEXT ( ( #124, #98, #97 ) ) REPRESENTATION_CONTEXT ( 'NONE', 'WORKASPACE' ) );
#162 = DIRECTION ( 'NONE',  ( -0.000000000000000000, -1.000000000000000000, -0.000000000000000000 ) ) ;
#163 = MECHANICAL_DESIGN_GEOMETRIC_PRESENTATION_REPRESENTATION (  '', ( #141 ), #201 ) ;
#164 = FACE_OUTER_BOUND ( 'NONE', #195, .T. ) ;
#165 =( NAMED_UNIT ( * ) PLANE_ANGLE_UNIT ( ) SI_UNIT ( $, .RADIAN. ) );
#166 = CARTESIAN_POINT ( 'NONE',  ( -6.123233995736759873E-17, 3.500000000000000000, 0.000000000000000000 ) ) ;
#167 = MANIFOLD_SOLID_BREP ( 'Revolve - Tool Body (Straight Shanked)', #128 ) ;
#168 = CIRCLE ( 'NONE', #287, 0.1875000000000000555 ) ;
#169 = SURFACE_STYLE_FILL_AREA ( #136 ) ;
#170 = SURFACE_STYLE_USAGE ( .BOTH. , #84 ) ;
#171 = EDGE_CURVE ( 'NONE', #114, #155, #99, .T. ) ;
#172 = AXIS2_PLACEMENT_3D ( 'NONE', #157, #66, #19 ) ;
#173 = CARTESIAN_POINT ( 'NONE',  ( 0.1874999999999996947, 3.500000000000000000, 2.296212748401284644E-17 ) ) ;
#174 = VERTEX_POINT ( 'NONE', #311 ) ;
#175 = ORIENTED_EDGE ( 'NONE', *, *, #373, .T. ) ;
#176 =( LENGTH_UNIT ( ) NAMED_UNIT ( * ) SI_UNIT ( $, .METRE. ) );
#177 = ORIENTED_EDGE ( 'NONE', *, *, #346, .F. ) ;
#178 = UNCERTAINTY_MEASURE_WITH_UNIT (LENGTH_MEASURE( 1.000000000000000082E-05 ), #250, 'distance_accuracy_value', 'NONE');
#179 = AXIS2_PLACEMENT_3D ( 'NONE', #265, #348, #238 ) ;
#180 = SURFACE_STYLE_USAGE ( .BOTH. , #8 ) ;
#181 = ORIENTED_EDGE ( 'NONE', *, *, #234, .F. ) ;
#182 = FILL_AREA_STYLE_COLOUR ( '', #45 ) ;
#183 = DIRECTION ( 'NONE',  ( -1.228329711887257701E-16, 1.000000000000000000, -0.000000000000000000 ) ) ;
#184 =( NAMED_UNIT ( * ) SI_UNIT ( $, .STERADIAN. ) SOLID_ANGLE_UNIT ( ) );
#185 = LENGTH_MEASURE_WITH_UNIT ( LENGTH_MEASURE( 0.02539999999999999897 ), #357 );
#186 = MECHANICAL_DESIGN_GEOMETRIC_PRESENTATION_REPRESENTATION (  '', ( #278 ), #208 ) ;
#187 = SURFACE_STYLE_USAGE ( .BOTH. , #220 ) ;
#188 = FACE_OUTER_BOUND ( 'NONE', #312, .T. ) ;
#189 = CARTESIAN_POINT ( 'NONE',  ( 0.000000000000000000, 0.1875000000000000555, 0.000000000000000000 ) ) ;
#190 = STYLED_ITEM ( 'NONE', ( #16 ), #49 ) ;
#191 = DIRECTION ( 'NONE',  ( 1.000000000000000000, 0.000000000000000000, -1.224646799147353207E-16 ) ) ;
#192 = CARTESIAN_POINT ( 'NONE',  ( 0.1874999999999998335, 3.500000000000000000, 0.000000000000000000 ) ) ;
#193 = CARTESIAN_POINT ( 'NONE',  ( 0.000000000000000000, 1.500000000000000222, 0.000000000000000000 ) ) ;
#194 = CARTESIAN_POINT ( 'NONE',  ( 0.000000000000000000, 0.1875000000000000555, 0.000000000000000000 ) ) ;
#195 = EDGE_LOOP ( 'NONE', ( #120, #6, #297, #83, #90 ) ) ;
#196 = LINE ( 'NONE', #173, #336 ) ;
#197 = APPLICATION_CONTEXT ( 'automotive_design' ) ;
#198 = ORIENTED_EDGE ( 'NONE', *, *, #102, .F. ) ;
#199 = DIRECTION ( 'NONE',  ( -1.000000000000000000, 0.000000000000000000, 0.000000000000000000 ) ) ;
#200 = AXIS2_PLACEMENT_3D ( 'NONE', #139, #259, #372 ) ;
#201 =( GEOMETRIC_REPRESENTATION_CONTEXT ( 3 ) GLOBAL_UNCERTAINTY_ASSIGNED_CONTEXT ( ( #91 ) ) GLOBAL_UNIT_ASSIGNED_CONTEXT ( ( #95, #244, #215 ) ) REPRESENTATION_CONTEXT ( 'NONE', 'WORKASPACE' ) );
#202 = CARTESIAN_POINT ( 'NONE',  ( -6.123233995736759873E-17, 3.500000000000000000, 0.000000000000000000 ) ) ;
#203 = EDGE_CURVE ( 'NONE', #113, #323, #310, .T. ) ;
#204 = VERTEX_POINT ( 'NONE', #262 ) ;
#205 =( NAMED_UNIT ( * ) SI_UNIT ( $, .STERADIAN. ) SOLID_ANGLE_UNIT ( ) );
#206 = SURFACE_STYLE_FILL_AREA ( #352 ) ;
#207 = APPLICATION_PROTOCOL_DEFINITION ( 'draft international standard', 'automotive_design', 1998, #197 ) ;
#208 =( GEOMETRIC_REPRESENTATION_CONTEXT ( 3 ) GLOBAL_UNCERTAINTY_ASSIGNED_CONTEXT ( ( #283 ) ) GLOBAL_UNIT_ASSIGNED_CONTEXT ( ( #107, #316, #28 ) ) REPRESENTATION_CONTEXT ( 'NONE', 'WORKASPACE' ) );
#209 = EDGE_LOOP ( 'NONE', ( #118, #31, #132, #38, #243 ) ) ;
#210 = EDGE_CURVE ( 'NONE', #239, #22, #149, .T. ) ;
#211 = ORIENTED_EDGE ( 'NONE', *, *, #240, .T. ) ;
#212 = EDGE_LOOP ( 'NONE', ( #5, #35 ) ) ;
#213 = FILL_AREA_STYLE ('',( #73 ) ) ;
#214 = CARTESIAN_POINT ( 'NONE',  ( -6.123233995736759873E-17, 3.500000000000000000, 0.000000000000000000 ) ) ;
#215 =( NAMED_UNIT ( * ) SI_UNIT ( $, .STERADIAN. ) SOLID_ANGLE_UNIT ( ) );
#216 = SURFACE_STYLE_FILL_AREA ( #17 ) ;
#217 = APPLICATION_CONTEXT ( 'automotive_design' ) ;
#218 = CARTESIAN_POINT ( 'NONE',  ( 0.000000000000000000, 0.000000000000000000, 0.000000000000000000 ) ) ;
#219 = CYLINDRICAL_SURFACE ( 'NONE', #140, 0.1874999999999997780 ) ;
#220 = SURFACE_SIDE_STYLE ('',( #332 ) ) ;
#221 = AXIS2_PLACEMENT_3D ( 'NONE', #193, #229, #366 ) ;
#222 = COLOUR_RGB ( '',1.000000000000000000, 0.000000000000000000, 0.000000000000000000 ) ;
#223 = SURFACE_STYLE_USAGE ( .BOTH. , #288 ) ;
#224 = ORIENTED_EDGE ( 'NONE', *, *, #240, .F. ) ;
#225 = LENGTH_MEASURE_WITH_UNIT ( LENGTH_MEASURE( 0.02539999999999999897 ), #282 );
#226 = CIRCLE ( 'NONE', #87, 0.1875000000000000555 ) ;
#227 = ADVANCED_FACE ( 'NONE', ( #30 ), #117, .T. ) ;
#228 = PRODUCT_DEFINITION_CONTEXT ( 'detailed design', #217, 'design' ) ;
#229 = DIRECTION ( 'NONE',  ( 0.000000000000000000, 1.000000000000000000, 0.000000000000000000 ) ) ;
#230 = DIRECTION ( 'NONE',  ( 0.000000000000000000, 0.000000000000000000, 1.000000000000000000 ) ) ;
#231 =( CONVERSION_BASED_UNIT ( 'INCH', #225 ) LENGTH_UNIT ( ) NAMED_UNIT ( #261 ) );
#232 = DIMENSIONAL_EXPONENTS ( 1.000000000000000000, 0.000000000000000000, 0.000000000000000000, 0.000000000000000000, 0.000000000000000000, 0.000000000000000000, 0.000000000000000000 ) ;
#233 = DIRECTION ( 'NONE',  ( -1.228329711887257701E-16, 1.000000000000000000, -0.000000000000000000 ) ) ;
#234 = EDGE_CURVE ( 'NONE', #22, #239, #370, .T. ) ;
#235 = DIRECTION ( 'NONE',  ( -0.000000000000000000, -1.000000000000000000, -0.000000000000000000 ) ) ;
#236 = CARTESIAN_POINT ( 'NONE',  ( -0.1874999999999995004, 1.500000000000000222, 0.000000000000000000 ) ) ;
#237 = FILL_AREA_STYLE_COLOUR ( '', #59 ) ;
#238 = DIRECTION ( 'NONE',  ( -1.000000000000000000, 0.000000000000000000, 0.000000000000000000 ) ) ;
#239 = VERTEX_POINT ( 'NONE', #242 ) ;
#240 = EDGE_CURVE ( 'NONE', #22, #104, #154, .T. ) ;
#241 =( GEOMETRIC_REPRESENTATION_CONTEXT ( 3 ) GLOBAL_UNCERTAINTY_ASSIGNED_CONTEXT ( ( #353 ) ) GLOBAL_UNIT_ASSIGNED_CONTEXT ( ( #231, #254, #368 ) ) REPRESENTATION_CONTEXT ( 'NONE', 'WORKASPACE' ) );
#242 = CARTESIAN_POINT ( 'NONE',  ( 0.1874999999999998335, 1.500000000000000222, 2.296212748401285877E-17 ) ) ;
#243 = ORIENTED_EDGE ( 'NONE', *, *, #373, .F. ) ;
#244 =( NAMED_UNIT ( * ) PLANE_ANGLE_UNIT ( ) SI_UNIT ( $, .RADIAN. ) );
#245 = ORIENTED_EDGE ( 'NONE', *, *, #203, .T. ) ;
#246 = AXIS2_PLACEMENT_3D ( 'NONE', #301, #183, #269 ) ;
#247 = PRESENTATION_LAYER_ASSIGNMENT (  '', '', ( #93 ) ) ;
#248 = CARTESIAN_POINT ( 'NONE',  ( 0.000000000000000000, 0.000000000000000000, -0.1874999999999999445 ) ) ;
#249 =( LENGTH_UNIT ( ) NAMED_UNIT ( * ) SI_UNIT ( $, .METRE. ) );
#250 =( CONVERSION_BASED_UNIT ( 'INCH', #13 ) LENGTH_UNIT ( ) NAMED_UNIT ( #314 ) );
#251 = CARTESIAN_POINT ( 'NONE',  ( 2.296212748401287726E-17, 0.1875000000000000555, 0.1875000000000000278 ) ) ;
#252 =( GEOMETRIC_REPRESENTATION_CONTEXT ( 3 ) GLOBAL_UNCERTAINTY_ASSIGNED_CONTEXT ( ( #330 ) ) GLOBAL_UNIT_ASSIGNED_CONTEXT ( ( #41, #96, #279 ) ) REPRESENTATION_CONTEXT ( 'NONE', 'WORKASPACE' ) );
#253 = DIRECTION ( 'NONE',  ( -0.000000000000000000, -1.000000000000000000, -0.000000000000000000 ) ) ;
#254 =( NAMED_UNIT ( * ) PLANE_ANGLE_UNIT ( ) SI_UNIT ( $, .RADIAN. ) );
#255 =( NAMED_UNIT ( * ) PLANE_ANGLE_UNIT ( ) SI_UNIT ( $, .RADIAN. ) );
#256 = PLANE ( 'NONE',  #221 ) ;
#257 = DIRECTION ( 'NONE',  ( -0.000000000000000000, -1.000000000000000000, -0.000000000000000000 ) ) ;
#258 = MECHANICAL_DESIGN_GEOMETRIC_PRESENTATION_REPRESENTATION (  '', ( #93 ), #252 ) ;
#259 = DIRECTION ( 'NONE',  ( -1.228329711887257701E-16, 1.000000000000000000, -0.000000000000000000 ) ) ;
#260 = COLOUR_RGB ( '',0.7921568627450980005, 0.8196078431372548767, 0.9333333333333333481 ) ;
#261 = DIMENSIONAL_EXPONENTS ( 1.000000000000000000, 0.000000000000000000, 0.000000000000000000, 0.000000000000000000, 0.000000000000000000, 0.000000000000000000, 0.000000000000000000 ) ;
#262 = CARTESIAN_POINT ( 'NONE',  ( 0.000000000000000000, 1.500000000000000222, -0.1874999999999998335 ) ) ;
#263 = ORIENTED_EDGE ( 'NONE', *, *, #289, .T. ) ;
#264 = FILL_AREA_STYLE_COLOUR ( '', #60 ) ;
#265 = CARTESIAN_POINT ( 'NONE',  ( 1.844336024200838922E-16, 1.500000000000000222, 0.000000000000000000 ) ) ;
#266 = EDGE_LOOP ( 'NONE', ( #85, #58, #211, #198 ) ) ;
#267 = STYLED_ITEM ( 'NONE', ( #340 ), #167 ) ;
#268 = PLANE ( 'NONE',  #356 ) ;
#269 = DIRECTION ( 'NONE',  ( -1.000000000000000000, 0.000000000000000000, 0.000000000000000000 ) ) ;
#270 = PRODUCT_CONTEXT ( 'NONE', #197, 'mechanical' ) ;
#271 = EDGE_CURVE ( 'NONE', #104, #174, #116, .T. ) ;
#272 = FACE_OUTER_BOUND ( 'NONE', #12, .T. ) ;
#273 = ORIENTED_EDGE ( 'NONE', *, *, #121, .T. ) ;
#274 = VECTOR ( 'NONE', #162, 39.37007874015748143 ) ;
#275 = CARTESIAN_POINT ( 'NONE',  ( 1.844336024200838922E-16, 1.500000000000000222, 0.000000000000000000 ) ) ;
#276 = DIRECTION ( 'NONE',  ( -1.000000000000000000, 0.000000000000000000, 0.000000000000000000 ) ) ;
#277 = LINE ( 'NONE', #248, #302 ) ;
#278 = STYLED_ITEM ( 'NONE', ( #342 ), #143 ) ;
#279 =( NAMED_UNIT ( * ) SI_UNIT ( $, .STERADIAN. ) SOLID_ANGLE_UNIT ( ) );
#280 = CARTESIAN_POINT ( 'NONE',  ( 0.000000000000000000, 1.500000000000000222, 0.000000000000000000 ) ) ;
#281 = CARTESIAN_POINT ( 'NONE',  ( 0.000000000000000000, 1.500000000000000222, 0.000000000000000000 ) ) ;
#282 =( LENGTH_UNIT ( ) NAMED_UNIT ( * ) SI_UNIT ( $, .METRE. ) );
#283 = UNCERTAINTY_MEASURE_WITH_UNIT (LENGTH_MEASURE( 1.000000000000000082E-05 ), #107, 'distance_accuracy_value', 'NONE');
#284 = SURFACE_SIDE_STYLE ('',( #169 ) ) ;
#285 = DIMENSIONAL_EXPONENTS ( 1.000000000000000000, 0.000000000000000000, 0.000000000000000000, 0.000000000000000000, 0.000000000000000000, 0.000000000000000000, 0.000000000000000000 ) ;
#286 = MECHANICAL_DESIGN_GEOMETRIC_PRESENTATION_REPRESENTATION (  '', ( #190 ), #161 ) ;
#287 = AXIS2_PLACEMENT_3D ( 'NONE', #33, #235, #82 ) ;
#288 = SURFACE_SIDE_STYLE ('',( #103 ) ) ;
#289 = EDGE_CURVE ( 'NONE', #114, #355, #168, .T. ) ;
#290 = EDGE_LOOP ( 'NONE', ( #351, #177 ) ) ;
#291 = DIRECTION ( 'NONE',  ( 1.000000000000000000, 0.000000000000000000, 0.000000000000000000 ) ) ;
#292 =( CONVERSION_BASED_UNIT ( 'INCH', #324 ) LENGTH_UNIT ( ) NAMED_UNIT ( #32 ) );
#293 = EDGE_LOOP ( 'NONE', ( #144, #245, #273, #152 ) ) ;
#294 = DIRECTION ( 'NONE',  ( -1.228329711887257701E-16, 1.000000000000000000, -0.000000000000000000 ) ) ;
#295 = FACE_OUTER_BOUND ( 'NONE', #266, .T. ) ;
#296 = MECHANICAL_DESIGN_GEOMETRIC_PRESENTATION_REPRESENTATION (  '', ( #329 ), #123 ) ;
#297 = ORIENTED_EDGE ( 'NONE', *, *, #289, .F. ) ;
#298 = CARTESIAN_POINT ( 'NONE',  ( 0.000000000000000000, 0.000000000000000000, 0.000000000000000000 ) ) ;
#299 = SURFACE_STYLE_FILL_AREA ( #61 ) ;
#300 = SURFACE_STYLE_USAGE ( .BOTH. , #63 ) ;
#301 = CARTESIAN_POINT ( 'NONE',  ( -6.123233995736759873E-17, 3.500000000000000000, 0.000000000000000000 ) ) ;
#302 = VECTOR ( 'NONE', #335, 39.37007874015748143 ) ;
#303 = DIRECTION ( 'NONE',  ( -1.000000000000000000, 0.000000000000000000, 0.000000000000000000 ) ) ;
#304 = CYLINDRICAL_SURFACE ( 'NONE', #371, 0.1874999999999999445 ) ;
#305 = DIRECTION ( 'NONE',  ( -0.000000000000000000, -1.000000000000000000, -0.000000000000000000 ) ) ;
#306 = PRODUCT ( '81324', '81324', '', ( #270 ) ) ;
#307 = CIRCLE ( 'NONE', #115, 0.1875000000000000555 ) ;
#308 = VECTOR ( 'NONE', #233, 39.37007874015748143 ) ;
#309 = DIRECTION ( 'NONE',  ( 0.000000000000000000, 0.000000000000000000, -1.000000000000000000 ) ) ;
#310 = CIRCLE ( 'NONE', #363, 0.1875000000000000555 ) ;
#311 = CARTESIAN_POINT ( 'NONE',  ( 0.1874999999999998335, 3.500000000000000000, 2.296212748401285877E-17 ) ) ;
#312 = EDGE_LOOP ( 'NONE', ( #175, #29, #326, #263 ) ) ;
#313 = FACE_OUTER_BOUND ( 'NONE', #290, .T. ) ;
#314 = DIMENSIONAL_EXPONENTS ( 1.000000000000000000, 0.000000000000000000, 0.000000000000000000, 0.000000000000000000, 0.000000000000000000, 0.000000000000000000, 0.000000000000000000 ) ;
#315 = SURFACE_STYLE_USAGE ( .BOTH. , #284 ) ;
#316 =( NAMED_UNIT ( * ) PLANE_ANGLE_UNIT ( ) SI_UNIT ( $, .RADIAN. ) );
#317 = AXIS2_PLACEMENT_3D ( 'NONE', #298, #230, #291 ) ;
#318 = SHAPE_DEFINITION_REPRESENTATION ( #133, #42 ) ;
#319 = DIRECTION ( 'NONE',  ( -1.000000000000000000, 0.000000000000000000, 0.000000000000000000 ) ) ;
#320 = DIMENSIONAL_EXPONENTS ( 1.000000000000000000, 0.000000000000000000, 0.000000000000000000, 0.000000000000000000, 0.000000000000000000, 0.000000000000000000, 0.000000000000000000 ) ;
#321 = CARTESIAN_POINT ( 'NONE',  ( 0.000000000000000000, 0.1875000000000000555, -0.1875000000000000555 ) ) ;
#322 = EDGE_LOOP ( 'NONE', ( #181, #358 ) ) ;
#323 = VERTEX_POINT ( 'NONE', #321 ) ;
#324 = LENGTH_MEASURE_WITH_UNIT ( LENGTH_MEASURE( 0.02539999999999999897 ), #176 );
#325 = CYLINDRICAL_SURFACE ( 'NONE', #246, 0.1874999999999997780 ) ;
#326 = ORIENTED_EDGE ( 'NONE', *, *, #171, .F. ) ;
#327 = ADVANCED_FACE ( 'NONE', ( #164 ), #304, .T. ) ;
#328 = DIRECTION ( 'NONE',  ( -1.228329711887257701E-16, 1.000000000000000000, -0.000000000000000000 ) ) ;
#329 = STYLED_ITEM ( 'NONE', ( #54 ), #227 ) ;
#330 = UNCERTAINTY_MEASURE_WITH_UNIT (LENGTH_MEASURE( 1.000000000000000082E-05 ), #41, 'distance_accuracy_value', 'NONE');
#331 = COLOUR_RGB ( '',1.000000000000000000, 0.000000000000000000, 0.000000000000000000 ) ;
#332 = SURFACE_STYLE_FILL_AREA ( #213 ) ;
#333 = CARTESIAN_POINT ( 'NONE',  ( -0.1875000000000000555, 0.1875000000000000555, 2.296212748401287726E-17 ) ) ;
#334 = ADVANCED_FACE ( 'NONE', ( #125 ), #268, .F. ) ;
#335 = DIRECTION ( 'NONE',  ( -0.000000000000000000, -1.000000000000000000, -0.000000000000000000 ) ) ;
#336 = VECTOR ( 'NONE', #2, 39.37007874015748143 ) ;
#337 = PRODUCT_DEFINITION_FORMATION_WITH_SPECIFIED_SOURCE ( 'ANY', '', #306, .NOT_KNOWN. ) ;
#338 = SURFACE_STYLE_USAGE ( .BOTH. , #126 ) ;
#339 = DIRECTION ( 'NONE',  ( -0.000000000000000000, -1.000000000000000000, -0.000000000000000000 ) ) ;
#340 = PRESENTATION_STYLE_ASSIGNMENT (( #315 ) ) ;
#341 = ADVANCED_FACE ( 'NONE', ( #112 ), #18, .T. ) ;
#342 = PRESENTATION_STYLE_ASSIGNMENT (( #223 ) ) ;
#343 = CARTESIAN_POINT ( 'NONE',  ( 0.000000000000000000, 0.1875000000000000555, 0.000000000000000000 ) ) ;
#344 = LENGTH_MEASURE_WITH_UNIT ( LENGTH_MEASURE( 0.02539999999999999897 ), #57 );
#345 = DIMENSIONAL_EXPONENTS ( 1.000000000000000000, 0.000000000000000000, 0.000000000000000000, 0.000000000000000000, 0.000000000000000000, 0.000000000000000000, 0.000000000000000000 ) ;
#346 = EDGE_CURVE ( 'NONE', #89, #204, #94, .T. ) ;
#347 = AXIS2_PLACEMENT_3D ( 'NONE', #281, #253, #364 ) ;
#348 = DIRECTION ( 'NONE',  ( -1.228329711887257701E-16, 1.000000000000000000, -0.000000000000000000 ) ) ;
#349 = CIRCLE ( 'NONE', #27, 0.1875000000000000555 ) ;
#350 = DIRECTION ( 'NONE',  ( -0.000000000000000000, -1.000000000000000000, -0.000000000000000000 ) ) ;
#351 = ORIENTED_EDGE ( 'NONE', *, *, #134, .F. ) ;
#352 = FILL_AREA_STYLE ('',( #237 ) ) ;
#353 = UNCERTAINTY_MEASURE_WITH_UNIT (LENGTH_MEASURE( 1.000000000000000082E-05 ), #231, 'distance_accuracy_value', 'NONE');
#354 = PRESENTATION_LAYER_ASSIGNMENT (  '', '', ( #278 ) ) ;
#355 = VERTEX_POINT ( 'NONE', #251 ) ;
#356 = AXIS2_PLACEMENT_3D ( 'NONE', #192, #365, #138 ) ;
#357 =( LENGTH_UNIT ( ) NAMED_UNIT ( * ) SI_UNIT ( $, .METRE. ) );
#358 = ORIENTED_EDGE ( 'NONE', *, *, #210, .F. ) ;
#359 = CARTESIAN_POINT ( 'NONE',  ( -2.296212748401288034E-17, 0.1875000000000000555, 0.000000000000000000 ) ) ;
#360 = STYLED_ITEM ( 'NONE', ( #21 ), #341 ) ;
#361 = DIRECTION ( 'NONE',  ( -1.228329711887257701E-16, 1.000000000000000000, -0.000000000000000000 ) ) ;
#362 = CLOSED_SHELL ( 'NONE', ( #49, #327, #143, #227, #341 ) ) ;
#363 = AXIS2_PLACEMENT_3D ( 'NONE', #343, #78, #26 ) ;
#364 = DIRECTION ( 'NONE',  ( 0.000000000000000000, 0.000000000000000000, -1.000000000000000000 ) ) ;
#365 = DIRECTION ( 'NONE',  ( 1.228329711887257701E-16, -1.000000000000000000, 0.000000000000000000 ) ) ;
#366 = DIRECTION ( 'NONE',  ( 0.000000000000000000, -0.000000000000000000, 1.000000000000000000 ) ) ;
#367 =( CONVERSION_BASED_UNIT ( 'INCH', #344 ) LENGTH_UNIT ( ) NAMED_UNIT ( #285 ) );
#368 =( NAMED_UNIT ( * ) SI_UNIT ( $, .STERADIAN. ) SOLID_ANGLE_UNIT ( ) );
#369 = SURFACE_STYLE_FILL_AREA ( #24 ) ;
#370 = CIRCLE ( 'NONE', #179, 0.1874999999999996669 ) ;
#371 = AXIS2_PLACEMENT_3D ( 'NONE', #218, #119, #160 ) ;
#372 = DIRECTION ( 'NONE',  ( -1.000000000000000000, 0.000000000000000000, 0.000000000000000000 ) ) ;
#373 = EDGE_CURVE ( 'NONE', #355, #113, #349, .T. ) ;
ENDSEC;
END-ISO-10303-21;
