ISO-10303-21;
HEADER;
FILE_DESCRIPTION (( 'STEP AP214' ),
    '1' );
FILE_NAME ('83406.STEP',
    '2023-06-23T09:44:49',
    ( '' ),
    ( '' ),
    'SwSTEP 2.0',
    'SolidWorks 2023',
    '' );
FILE_SCHEMA (( 'AUTOMOTIVE_DESIGN' ));
ENDSEC;

DATA;
#1 = EDGE_CURVE ( 'NONE', #141, #249, #84, .T. ) ;
#2 = SURFACE_SIDE_STYLE ('',( #132 ) ) ;
#3 = DIRECTION ( 'NONE',  ( -0.000000000000000000, -1.000000000000000000, -0.000000000000000000 ) ) ;
#4 = STYLED_ITEM ( 'NONE', ( #36 ), #15 ) ;
#5 =( NAMED_UNIT ( * ) PLANE_ANGLE_UNIT ( ) SI_UNIT ( $, .RADIAN. ) );
#6 =( NAMED_UNIT ( * ) SI_UNIT ( $, .STERADIAN. ) SOLID_ANGLE_UNIT ( ) );
#7 = ORIENTED_EDGE ( 'NONE', *, *, #270, .F. ) ;
#8 = DIMENSIONAL_EXPONENTS ( 1.000000000000000000, 0.000000000000000000, 0.000000000000000000, 0.000000000000000000, 0.000000000000000000, 0.000000000000000000, 0.000000000000000000 ) ;
#9 = ORIENTED_EDGE ( 'NONE', *, *, #1, .T. ) ;
#10 = ORIENTED_EDGE ( 'NONE', *, *, #171, .T. ) ;
#11 = LENGTH_MEASURE_WITH_UNIT ( LENGTH_MEASURE( 0.02539999999999999897 ), #87 );
#12 = CARTESIAN_POINT ( 'NONE',  ( 0.000000000000000000, 0.6250000000000000000, -0.06250000000000000000 ) ) ;
#13 = CARTESIAN_POINT ( 'NONE',  ( 0.000000000000000000, 0.000000000000000000, 0.000000000000000000 ) ) ;
#14 = COLOUR_RGB ( '',0.7921568627450980005, 0.8196078431372548767, 0.9333333333333333481 ) ;
#15 = ADVANCED_FACE ( 'NONE', ( #285 ), #150, .T. ) ;
#16 = CARTESIAN_POINT ( 'NONE',  ( 0.000000000000000000, 0.6250000000000000000, 0.000000000000000000 ) ) ;
#17 = DIRECTION ( 'NONE',  ( -0.000000000000000000, -1.000000000000000000, -0.000000000000000000 ) ) ;
#18 = CARTESIAN_POINT ( 'NONE',  ( 0.000000000000000000, 0.000000000000000000, -0.06250000000000000000 ) ) ;
#19 = CARTESIAN_POINT ( 'NONE',  ( 0.000000000000000000, 0.000000000000000000, 0.000000000000000000 ) ) ;
#20 = MECHANICAL_DESIGN_GEOMETRIC_PRESENTATION_REPRESENTATION (  '', ( #257 ), #289 ) ;
#21 = COLOUR_RGB ( '',1.000000000000000000, 0.000000000000000000, 0.000000000000000000 ) ;
#22 = CARTESIAN_POINT ( 'NONE',  ( 0.06250000000000000000, 2.500000000000000000, 7.654042494670956004E-18 ) ) ;
#23 = MANIFOLD_SOLID_BREP ( 'Revolve - Cutting Edge', #34 ) ;
#24 = AXIS2_PLACEMENT_3D ( 'NONE', #206, #68, #230 ) ;
#25 = AXIS2_PLACEMENT_3D ( 'NONE', #59, #239, #94 ) ;
#26 =( GEOMETRIC_REPRESENTATION_CONTEXT ( 3 ) GLOBAL_UNCERTAINTY_ASSIGNED_CONTEXT ( ( #202 ) ) GLOBAL_UNIT_ASSIGNED_CONTEXT ( ( #112, #278, #235 ) ) REPRESENTATION_CONTEXT ( 'NONE', 'WORKASPACE' ) );
#27 = DIRECTION ( 'NONE',  ( 3.265724797726278260E-17, 1.000000000000000000, -0.000000000000000000 ) ) ;
#28 = UNCERTAINTY_MEASURE_WITH_UNIT (LENGTH_MEASURE( 1.000000000000000082E-05 ), #110, 'distance_accuracy_value', 'NONE');
#29 = CYLINDRICAL_SURFACE ( 'NONE', #25, 0.06250000000000000000 ) ;
#30 =( CONVERSION_BASED_UNIT ( 'INCH', #244 ) LENGTH_UNIT ( ) NAMED_UNIT ( #58 ) );
#31 = VERTEX_POINT ( 'NONE', #159 ) ;
#32 = DIRECTION ( 'NONE',  ( 3.265724797726278260E-17, 1.000000000000000000, -0.000000000000000000 ) ) ;
#33 = DIRECTION ( 'NONE',  ( 0.000000000000000000, 0.000000000000000000, -1.000000000000000000 ) ) ;
#34 = CLOSED_SHELL ( 'NONE', ( #149, #306, #15, #277 ) ) ;
#35 = ORIENTED_EDGE ( 'NONE', *, *, #174, .F. ) ;
#36 = PRESENTATION_STYLE_ASSIGNMENT (( #287 ) ) ;
#37 = ORIENTED_EDGE ( 'NONE', *, *, #133, .F. ) ;
#38 = FILL_AREA_STYLE ('',( #279 ) ) ;
#39 = CIRCLE ( 'NONE', #83, 0.06250000000000000000 ) ;
#40 = FILL_AREA_STYLE ('',( #303 ) ) ;
#41 =( GEOMETRIC_REPRESENTATION_CONTEXT ( 3 ) GLOBAL_UNCERTAINTY_ASSIGNED_CONTEXT ( ( #293 ) ) GLOBAL_UNIT_ASSIGNED_CONTEXT ( ( #30, #169, #241 ) ) REPRESENTATION_CONTEXT ( 'NONE', 'WORKASPACE' ) );
#42 =( CONVERSION_BASED_UNIT ( 'INCH', #214 ) LENGTH_UNIT ( ) NAMED_UNIT ( #288 ) );
#43 = DIRECTION ( 'NONE',  ( 0.000000000000000000, 0.000000000000000000, -1.000000000000000000 ) ) ;
#44 = STYLED_ITEM ( 'NONE', ( #295 ), #149 ) ;
#45 = CIRCLE ( 'NONE', #145, 0.06250000000000000000 ) ;
#46 = FILL_AREA_STYLE_COLOUR ( '', #14 ) ;
#47 = COLOUR_RGB ( '',1.000000000000000000, 0.000000000000000000, 0.000000000000000000 ) ;
#48 = ORIENTED_EDGE ( 'NONE', *, *, #50, .F. ) ;
#49 = DIRECTION ( 'NONE',  ( 0.000000000000000000, -1.000000000000000000, -0.000000000000000000 ) ) ;
#50 = EDGE_CURVE ( 'NONE', #294, #62, #167, .T. ) ;
#51 = AXIS2_PLACEMENT_3D ( 'NONE', #13, #116, #113 ) ;
#52 =( LENGTH_UNIT ( ) NAMED_UNIT ( * ) SI_UNIT ( $, .METRE. ) );
#53 = DIMENSIONAL_EXPONENTS ( 1.000000000000000000, 0.000000000000000000, 0.000000000000000000, 0.000000000000000000, 0.000000000000000000, 0.000000000000000000, 0.000000000000000000 ) ;
#54 = UNCERTAINTY_MEASURE_WITH_UNIT (LENGTH_MEASURE( 1.000000000000000082E-05 ), #275, 'distance_accuracy_value', 'NONE');
#55 = PRESENTATION_LAYER_ASSIGNMENT (  '', '', ( #4 ) ) ;
#56 =( GEOMETRIC_REPRESENTATION_CONTEXT ( 3 ) GLOBAL_UNCERTAINTY_ASSIGNED_CONTEXT ( ( #99 ) ) GLOBAL_UNIT_ASSIGNED_CONTEXT ( ( #228, #70, #188 ) ) REPRESENTATION_CONTEXT ( 'NONE', 'WORKASPACE' ) );
#57 = ORIENTED_EDGE ( 'NONE', *, *, #133, .T. ) ;
#58 = DIMENSIONAL_EXPONENTS ( 1.000000000000000000, 0.000000000000000000, 0.000000000000000000, 0.000000000000000000, 0.000000000000000000, 0.000000000000000000, 0.000000000000000000 ) ;
#59 = CARTESIAN_POINT ( 'NONE',  ( 0.000000000000000000, 0.000000000000000000, 0.000000000000000000 ) ) ;
#60 = VERTEX_POINT ( 'NONE', #233 ) ;
#61 = DIRECTION ( 'NONE',  ( 3.265724797726278260E-17, 1.000000000000000000, -0.000000000000000000 ) ) ;
#62 = VERTEX_POINT ( 'NONE', #140 ) ;
#63 = CARTESIAN_POINT ( 'NONE',  ( 6.123233995736772199E-17, 2.500000000000000000, 0.000000000000000000 ) ) ;
#64 = DIRECTION ( 'NONE',  ( -1.000000000000000000, 0.000000000000000000, 0.000000000000000000 ) ) ;
#65 =( LENGTH_UNIT ( ) NAMED_UNIT ( * ) SI_UNIT ( $, .METRE. ) );
#66 = FILL_AREA_STYLE ('',( #173 ) ) ;
#67 = EDGE_LOOP ( 'NONE', ( #229, #162 ) ) ;
#68 = DIRECTION ( 'NONE',  ( 3.265724797726278260E-17, 1.000000000000000000, -0.000000000000000000 ) ) ;
#69 = SURFACE_STYLE_USAGE ( .BOTH. , #189 ) ;
#70 =( NAMED_UNIT ( * ) PLANE_ANGLE_UNIT ( ) SI_UNIT ( $, .RADIAN. ) );
#71 = PRODUCT_DEFINITION ( 'UNKNOWN', '', #177, #222 ) ;
#72 = CARTESIAN_POINT ( 'NONE',  ( -0.06249999999999990286, 2.500000000000000000, 0.000000000000000000 ) ) ;
#73 = CIRCLE ( 'NONE', #280, 0.06249999999999993755 ) ;
#74 = MECHANICAL_DESIGN_GEOMETRIC_PRESENTATION_REPRESENTATION (  '', ( #44 ), #26 ) ;
#75 = PRODUCT_CONTEXT ( 'NONE', #253, 'mechanical' ) ;
#76 = DIRECTION ( 'NONE',  ( 3.265724797726278260E-17, 1.000000000000000000, -0.000000000000000000 ) ) ;
#77 = CLOSED_SHELL ( 'NONE', ( #143, #128, #266, #218 ) ) ;
#78 = DIRECTION ( 'NONE',  ( 0.000000000000000000, 0.000000000000000000, -1.000000000000000000 ) ) ;
#79 = AXIS2_PLACEMENT_3D ( 'NONE', #196, #286, #109 ) ;
#80 = SHAPE_DEFINITION_REPRESENTATION ( #122, #81 ) ;
#81 = ADVANCED_BREP_SHAPE_REPRESENTATION ( '83406', ( #23, #142, #300 ), #131 ) ;
#82 = SURFACE_STYLE_FILL_AREA ( #38 ) ;
#83 = AXIS2_PLACEMENT_3D ( 'NONE', #301, #27, #120 ) ;
#84 = CIRCLE ( 'NONE', #119, 0.06250000000000000000 ) ;
#85 =( NAMED_UNIT ( * ) SI_UNIT ( $, .STERADIAN. ) SOLID_ANGLE_UNIT ( ) );
#86 = DIRECTION ( 'NONE',  ( -0.000000000000000000, -1.000000000000000000, -0.000000000000000000 ) ) ;
#87 =( LENGTH_UNIT ( ) NAMED_UNIT ( * ) SI_UNIT ( $, .METRE. ) );
#88 = PRESENTATION_LAYER_ASSIGNMENT (  '', '', ( #273 ) ) ;
#89 = ORIENTED_EDGE ( 'NONE', *, *, #146, .T. ) ;
#90 = SURFACE_STYLE_FILL_AREA ( #40 ) ;
#91 = EDGE_LOOP ( 'NONE', ( #111, #57, #137, #48 ) ) ;
#92 = DIRECTION ( 'NONE',  ( 0.000000000000000000, 0.000000000000000000, -1.000000000000000000 ) ) ;
#93 = STYLED_ITEM ( 'NONE', ( #219 ), #142 ) ;
#94 = DIRECTION ( 'NONE',  ( 0.000000000000000000, 0.000000000000000000, -1.000000000000000000 ) ) ;
#95 = DIRECTION ( 'NONE',  ( 0.000000000000000000, 0.000000000000000000, 1.000000000000000000 ) ) ;
#96 = APPLICATION_PROTOCOL_DEFINITION ( 'draft international standard', 'automotive_design', 1998, #253 ) ;
#97 = FACE_OUTER_BOUND ( 'NONE', #91, .T. ) ;
#98 = PRESENTATION_LAYER_ASSIGNMENT (  '', '', ( #152 ) ) ;
#99 = UNCERTAINTY_MEASURE_WITH_UNIT (LENGTH_MEASURE( 1.000000000000000082E-05 ), #228, 'distance_accuracy_value', 'NONE');
#100 = CARTESIAN_POINT ( 'NONE',  ( 0.000000000000000000, 0.6250000000000000000, 0.000000000000000000 ) ) ;
#101 = PLANE ( 'NONE',  #79 ) ;
#102 =( LENGTH_UNIT ( ) NAMED_UNIT ( * ) SI_UNIT ( $, .METRE. ) );
#103 =( NAMED_UNIT ( * ) PLANE_ANGLE_UNIT ( ) SI_UNIT ( $, .RADIAN. ) );
#104 = ORIENTED_EDGE ( 'NONE', *, *, #283, .T. ) ;
#105 = CYLINDRICAL_SURFACE ( 'NONE', #272, 0.06249999999999996531 ) ;
#106 = DIMENSIONAL_EXPONENTS ( 1.000000000000000000, 0.000000000000000000, 0.000000000000000000, 0.000000000000000000, 0.000000000000000000, 0.000000000000000000, 0.000000000000000000 ) ;
#107 = EDGE_LOOP ( 'NONE', ( #164, #252, #227, #139 ) ) ;
#108 = LINE ( 'NONE', #115, #147 ) ;
#109 = DIRECTION ( 'NONE',  ( 1.000000000000000000, -3.265724797726278260E-17, 0.000000000000000000 ) ) ;
#110 =( CONVERSION_BASED_UNIT ( 'INCH', #156 ) LENGTH_UNIT ( ) NAMED_UNIT ( #163 ) );
#111 = ORIENTED_EDGE ( 'NONE', *, *, #283, .F. ) ;
#112 =( CONVERSION_BASED_UNIT ( 'INCH', #11 ) LENGTH_UNIT ( ) NAMED_UNIT ( #242 ) );
#113 = DIRECTION ( 'NONE',  ( 0.000000000000000000, 0.000000000000000000, -1.000000000000000000 ) ) ;
#114 = ORIENTED_EDGE ( 'NONE', *, *, #258, .T. ) ;
#115 = CARTESIAN_POINT ( 'NONE',  ( 0.000000000000000000, 0.000000000000000000, -0.06250000000000000000 ) ) ;
#116 = DIRECTION ( 'NONE',  ( -0.000000000000000000, -1.000000000000000000, -0.000000000000000000 ) ) ;
#117 = PRESENTATION_STYLE_ASSIGNMENT (( #168 ) ) ;
#118 = DIRECTION ( 'NONE',  ( -0.000000000000000000, -1.000000000000000000, -0.000000000000000000 ) ) ;
#119 = AXIS2_PLACEMENT_3D ( 'NONE', #236, #17, #92 ) ;
#120 = DIRECTION ( 'NONE',  ( -1.000000000000000000, 0.000000000000000000, 0.000000000000000000 ) ) ;
#121 = CARTESIAN_POINT ( 'NONE',  ( 0.06250000000000000000, 0.6250000000000000000, 7.654042494670956004E-18 ) ) ;
#122 = PRODUCT_DEFINITION_SHAPE ( 'NONE', 'NONE',  #71 ) ;
#123 = EDGE_CURVE ( 'NONE', #231, #141, #108, .T. ) ;
#124 = CARTESIAN_POINT ( 'NONE',  ( 0.000000000000000000, 0.000000000000000000, 0.000000000000000000 ) ) ;
#125 =( GEOMETRIC_REPRESENTATION_CONTEXT ( 3 ) GLOBAL_UNCERTAINTY_ASSIGNED_CONTEXT ( ( #251 ) ) GLOBAL_UNIT_ASSIGNED_CONTEXT ( ( #42, #5, #176 ) ) REPRESENTATION_CONTEXT ( 'NONE', 'WORKASPACE' ) );
#126 = SURFACE_SIDE_STYLE ('',( #82 ) ) ;
#127 = LENGTH_MEASURE_WITH_UNIT ( LENGTH_MEASURE( 0.02539999999999999897 ), #52 );
#128 = ADVANCED_FACE ( 'NONE', ( #208 ), #304, .F. ) ;
#129 = VECTOR ( 'NONE', #144, 39.37007874015748143 ) ;
#130 = CIRCLE ( 'NONE', #151, 0.06250000000000000000 ) ;
#131 =( GEOMETRIC_REPRESENTATION_CONTEXT ( 3 ) GLOBAL_UNCERTAINTY_ASSIGNED_CONTEXT ( ( #28 ) ) GLOBAL_UNIT_ASSIGNED_CONTEXT ( ( #110, #264, #6 ) ) REPRESENTATION_CONTEXT ( 'NONE', 'WORKASPACE' ) );
#132 = SURFACE_STYLE_FILL_AREA ( #210 ) ;
#133 = EDGE_CURVE ( 'NONE', #302, #60, #130, .T. ) ;
#134 =( LENGTH_UNIT ( ) NAMED_UNIT ( * ) SI_UNIT ( $, .METRE. ) );
#135 = ORIENTED_EDGE ( 'NONE', *, *, #123, .T. ) ;
#136 = DIRECTION ( 'NONE',  ( -1.000000000000000000, 0.000000000000000000, 0.000000000000000000 ) ) ;
#137 = ORIENTED_EDGE ( 'NONE', *, *, #174, .T. ) ;
#138 = FACE_OUTER_BOUND ( 'NONE', #107, .T. ) ;
#139 = ORIENTED_EDGE ( 'NONE', *, *, #123, .F. ) ;
#140 = CARTESIAN_POINT ( 'NONE',  ( -0.06249999999999988204, 2.500000000000000000, 0.000000000000000000 ) ) ;
#141 = VERTEX_POINT ( 'NONE', #18 ) ;
#142 = MANIFOLD_SOLID_BREP ( 'Revolve - Tool Body (Straight Shanked)', #77 ) ;
#143 = ADVANCED_FACE ( 'NONE', ( #155 ), #105, .T. ) ;
#144 = DIRECTION ( 'NONE',  ( 3.265724797726278260E-17, 1.000000000000000000, -0.000000000000000000 ) ) ;
#145 = AXIS2_PLACEMENT_3D ( 'NONE', #225, #86, #160 ) ;
#146 = EDGE_CURVE ( 'NONE', #249, #141, #45, .T. ) ;
#147 = VECTOR ( 'NONE', #245, 39.37007874015748143 ) ;
#148 = PLANE ( 'NONE',  #195 ) ;
#149 = ADVANCED_FACE ( 'NONE', ( #138 ), #29, .T. ) ;
#150 = CYLINDRICAL_SURFACE ( 'NONE', #51, 0.06250000000000000000 ) ;
#151 = AXIS2_PLACEMENT_3D ( 'NONE', #181, #268, #165 ) ;
#152 = STYLED_ITEM ( 'NONE', ( #117 ), #306 ) ;
#153 =( LENGTH_UNIT ( ) NAMED_UNIT ( * ) SI_UNIT ( $, .METRE. ) );
#154 = EDGE_LOOP ( 'NONE', ( #10, #104, #187, #35 ) ) ;
#155 = FACE_OUTER_BOUND ( 'NONE', #154, .T. ) ;
#156 = LENGTH_MEASURE_WITH_UNIT ( LENGTH_MEASURE( 0.02539999999999999897 ), #153 );
#157 = SURFACE_STYLE_FILL_AREA ( #66 ) ;
#158 = ORIENTED_EDGE ( 'NONE', *, *, #238, .F. ) ;
#159 = CARTESIAN_POINT ( 'NONE',  ( 7.654042494670957545E-18, 0.6250000000000000000, 0.06250000000000000000 ) ) ;
#160 = DIRECTION ( 'NONE',  ( 0.000000000000000000, 0.000000000000000000, -1.000000000000000000 ) ) ;
#161 = AXIS2_PLACEMENT_3D ( 'NONE', #124, #49, #43 ) ;
#162 = ORIENTED_EDGE ( 'NONE', *, *, #50, .T. ) ;
#163 = DIMENSIONAL_EXPONENTS ( 1.000000000000000000, 0.000000000000000000, 0.000000000000000000, 0.000000000000000000, 0.000000000000000000, 0.000000000000000000, 0.000000000000000000 ) ;
#164 = ORIENTED_EDGE ( 'NONE', *, *, #238, .T. ) ;
#165 = DIRECTION ( 'NONE',  ( -1.000000000000000000, 0.000000000000000000, 0.000000000000000000 ) ) ;
#166 = LINE ( 'NONE', #307, #282 ) ;
#167 = CIRCLE ( 'NONE', #24, 0.06249999999999993755 ) ;
#168 = SURFACE_STYLE_USAGE ( .BOTH. , #126 ) ;
#169 =( NAMED_UNIT ( * ) PLANE_ANGLE_UNIT ( ) SI_UNIT ( $, .RADIAN. ) );
#170 = CARTESIAN_POINT ( 'NONE',  ( 0.06250000000000002776, 2.500000000000000000, 7.654042494670954463E-18 ) ) ;
#171 = EDGE_CURVE ( 'NONE', #60, #302, #39, .T. ) ;
#172 = FILL_AREA_STYLE ('',( #296 ) ) ;
#173 = FILL_AREA_STYLE_COLOUR ( '', #281 ) ;
#174 = EDGE_CURVE ( 'NONE', #60, #62, #185, .T. ) ;
#175 = DIRECTION ( 'NONE',  ( 3.265724797726278260E-17, 1.000000000000000000, -0.000000000000000000 ) ) ;
#176 =( NAMED_UNIT ( * ) SI_UNIT ( $, .STERADIAN. ) SOLID_ANGLE_UNIT ( ) );
#177 = PRODUCT_DEFINITION_FORMATION_WITH_SPECIFIED_SOURCE ( 'ANY', '', #198, .NOT_KNOWN. ) ;
#178 = CYLINDRICAL_SURFACE ( 'NONE', #265, 0.06249999999999996531 ) ;
#179 = APPLICATION_PROTOCOL_DEFINITION ( 'draft international standard', 'automotive_design', 1998, #263 ) ;
#180 =( NAMED_UNIT ( * ) PLANE_ANGLE_UNIT ( ) SI_UNIT ( $, .RADIAN. ) );
#181 = CARTESIAN_POINT ( 'NONE',  ( 0.000000000000000000, 0.6250000000000000000, 0.000000000000000000 ) ) ;
#182 = FILL_AREA_STYLE ('',( #200 ) ) ;
#183 = DIRECTION ( 'NONE',  ( 0.000000000000000000, 1.000000000000000000, 0.000000000000000000 ) ) ;
#184 = EDGE_LOOP ( 'NONE', ( #158, #201 ) ) ;
#185 = LINE ( 'NONE', #72, #203 ) ;
#186 = AXIS2_PLACEMENT_3D ( 'NONE', #100, #3, #78 ) ;
#187 = ORIENTED_EDGE ( 'NONE', *, *, #226, .F. ) ;
#188 =( NAMED_UNIT ( * ) SI_UNIT ( $, .STERADIAN. ) SOLID_ANGLE_UNIT ( ) );
#189 = SURFACE_SIDE_STYLE ('',( #90 ) ) ;
#190 = CARTESIAN_POINT ( 'NONE',  ( 3.332799517026356512E-35, 0.6250000000000000000, 0.000000000000000000 ) ) ;
#191 = AXIS2_PLACEMENT_3D ( 'NONE', #190, #32, #276 ) ;
#192 = DIRECTION ( 'NONE',  ( 1.000000000000000000, 0.000000000000000000, 0.000000000000000000 ) ) ;
#193 = PRESENTATION_LAYER_ASSIGNMENT (  '', '', ( #44 ) ) ;
#194 = COLOUR_RGB ( '',0.7921568627450980005, 0.8196078431372548767, 0.9333333333333333481 ) ;
#195 = AXIS2_PLACEMENT_3D ( 'NONE', #16, #183, #309 ) ;
#196 = CARTESIAN_POINT ( 'NONE',  ( 0.06250000000000000000, 2.500000000000000000, 0.000000000000000000 ) ) ;
#197 = SURFACE_STYLE_USAGE ( .BOTH. , #2 ) ;
#198 = PRODUCT ( '83406', '83406', '', ( #75 ) ) ;
#199 = SURFACE_STYLE_USAGE ( .BOTH. , #262 ) ;
#200 = FILL_AREA_STYLE_COLOUR ( '', #299 ) ;
#201 = ORIENTED_EDGE ( 'NONE', *, *, #258, .F. ) ;
#202 = UNCERTAINTY_MEASURE_WITH_UNIT (LENGTH_MEASURE( 1.000000000000000082E-05 ), #112, 'distance_accuracy_value', 'NONE');
#203 = VECTOR ( 'NONE', #76, 39.37007874015748143 ) ;
#204 = CIRCLE ( 'NONE', #186, 0.06250000000000000000 ) ;
#205 = CARTESIAN_POINT ( 'NONE',  ( 0.000000000000000000, 0.6250000000000000000, 0.000000000000000000 ) ) ;
#206 = CARTESIAN_POINT ( 'NONE',  ( 6.123233995736772199E-17, 2.500000000000000000, 0.000000000000000000 ) ) ;
#207 = EDGE_LOOP ( 'NONE', ( #9, #89 ) ) ;
#208 = FACE_OUTER_BOUND ( 'NONE', #232, .T. ) ;
#209 = PRESENTATION_STYLE_ASSIGNMENT (( #69 ) ) ;
#210 = FILL_AREA_STYLE ('',( #46 ) ) ;
#211 = FACE_OUTER_BOUND ( 'NONE', #207, .T. ) ;
#212 = CIRCLE ( 'NONE', #297, 0.06250000000000000000 ) ;
#213 = FACE_OUTER_BOUND ( 'NONE', #184, .T. ) ;
#214 = LENGTH_MEASURE_WITH_UNIT ( LENGTH_MEASURE( 0.02539999999999999897 ), #134 );
#215 = SURFACE_STYLE_FILL_AREA ( #172 ) ;
#216 = MECHANICAL_DESIGN_GEOMETRIC_PRESENTATION_REPRESENTATION (  '', ( #273 ), #284 ) ;
#217 =( CONVERSION_BASED_UNIT ( 'INCH', #127 ) LENGTH_UNIT ( ) NAMED_UNIT ( #53 ) );
#218 = ADVANCED_FACE ( 'NONE', ( #221 ), #101, .F. ) ;
#219 = PRESENTATION_STYLE_ASSIGNMENT (( #197 ) ) ;
#220 = UNCERTAINTY_MEASURE_WITH_UNIT (LENGTH_MEASURE( 1.000000000000000082E-05 ), #217, 'distance_accuracy_value', 'NONE');
#221 = FACE_OUTER_BOUND ( 'NONE', #67, .T. ) ;
#222 = PRODUCT_DEFINITION_CONTEXT ( 'detailed design', #263, 'design' ) ;
#223 = EDGE_LOOP ( 'NONE', ( #7, #114, #135, #255 ) ) ;
#224 = CARTESIAN_POINT ( 'NONE',  ( 6.123233995736772199E-17, 2.500000000000000000, 0.000000000000000000 ) ) ;
#225 = CARTESIAN_POINT ( 'NONE',  ( 0.000000000000000000, 0.000000000000000000, 0.000000000000000000 ) ) ;
#226 = EDGE_CURVE ( 'NONE', #62, #294, #73, .T. ) ;
#227 = ORIENTED_EDGE ( 'NONE', *, *, #1, .F. ) ;
#228 =( CONVERSION_BASED_UNIT ( 'INCH', #237 ) LENGTH_UNIT ( ) NAMED_UNIT ( #8 ) );
#229 = ORIENTED_EDGE ( 'NONE', *, *, #226, .T. ) ;
#230 = DIRECTION ( 'NONE',  ( -1.000000000000000000, 0.000000000000000000, 0.000000000000000000 ) ) ;
#231 = VERTEX_POINT ( 'NONE', #12 ) ;
#232 = EDGE_LOOP ( 'NONE', ( #292, #37 ) ) ;
#233 = CARTESIAN_POINT ( 'NONE',  ( -0.06250000000000000000, 0.6250000000000000000, 0.000000000000000000 ) ) ;
#234 = PRESENTATION_LAYER_ASSIGNMENT (  '', '', ( #93 ) ) ;
#235 =( NAMED_UNIT ( * ) SI_UNIT ( $, .STERADIAN. ) SOLID_ANGLE_UNIT ( ) );
#236 = CARTESIAN_POINT ( 'NONE',  ( 0.000000000000000000, 0.000000000000000000, 0.000000000000000000 ) ) ;
#237 = LENGTH_MEASURE_WITH_UNIT ( LENGTH_MEASURE( 0.02539999999999999897 ), #261 );
#238 = EDGE_CURVE ( 'NONE', #231, #31, #212, .T. ) ;
#239 = DIRECTION ( 'NONE',  ( -0.000000000000000000, -1.000000000000000000, -0.000000000000000000 ) ) ;
#240 = MECHANICAL_DESIGN_GEOMETRIC_PRESENTATION_REPRESENTATION (  '', ( #93 ), #125 ) ;
#241 =( NAMED_UNIT ( * ) SI_UNIT ( $, .STERADIAN. ) SOLID_ANGLE_UNIT ( ) );
#242 = DIMENSIONAL_EXPONENTS ( 1.000000000000000000, 0.000000000000000000, 0.000000000000000000, 0.000000000000000000, 0.000000000000000000, 0.000000000000000000, 0.000000000000000000 ) ;
#243 = DIRECTION ( 'NONE',  ( 3.265724797726278260E-17, 1.000000000000000000, -0.000000000000000000 ) ) ;
#244 = LENGTH_MEASURE_WITH_UNIT ( LENGTH_MEASURE( 0.02539999999999999897 ), #102 );
#245 = DIRECTION ( 'NONE',  ( -0.000000000000000000, -1.000000000000000000, -0.000000000000000000 ) ) ;
#246 = DIRECTION ( 'NONE',  ( -0.000000000000000000, -1.000000000000000000, -0.000000000000000000 ) ) ;
#247 = MECHANICAL_DESIGN_GEOMETRIC_PRESENTATION_REPRESENTATION (  '', ( #4 ), #41 ) ;
#248 = PLANE ( 'NONE',  #161 ) ;
#249 = VERTEX_POINT ( 'NONE', #271 ) ;
#250 = PRODUCT_RELATED_PRODUCT_CATEGORY ( 'part', '', ( #198 ) ) ;
#251 = UNCERTAINTY_MEASURE_WITH_UNIT (LENGTH_MEASURE( 1.000000000000000082E-05 ), #42, 'distance_accuracy_value', 'NONE');
#252 = ORIENTED_EDGE ( 'NONE', *, *, #270, .T. ) ;
#253 = APPLICATION_CONTEXT ( 'automotive_design' ) ;
#254 = SURFACE_SIDE_STYLE ('',( #157 ) ) ;
#255 = ORIENTED_EDGE ( 'NONE', *, *, #146, .F. ) ;
#256 = LINE ( 'NONE', #170, #129 ) ;
#257 = STYLED_ITEM ( 'NONE', ( #209 ), #23 ) ;
#258 = EDGE_CURVE ( 'NONE', #31, #231, #204, .T. ) ;
#259 = LENGTH_MEASURE_WITH_UNIT ( LENGTH_MEASURE( 0.02539999999999999897 ), #65 );
#260 = MECHANICAL_DESIGN_GEOMETRIC_PRESENTATION_REPRESENTATION (  '', ( #152 ), #56 ) ;
#261 =( LENGTH_UNIT ( ) NAMED_UNIT ( * ) SI_UNIT ( $, .METRE. ) );
#262 = SURFACE_SIDE_STYLE ('',( #215 ) ) ;
#263 = APPLICATION_CONTEXT ( 'automotive_design' ) ;
#264 =( NAMED_UNIT ( * ) PLANE_ANGLE_UNIT ( ) SI_UNIT ( $, .RADIAN. ) );
#265 = AXIS2_PLACEMENT_3D ( 'NONE', #224, #175, #305 ) ;
#266 = ADVANCED_FACE ( 'NONE', ( #97 ), #178, .T. ) ;
#267 = SURFACE_STYLE_USAGE ( .BOTH. , #269 ) ;
#268 = DIRECTION ( 'NONE',  ( 3.265724797726278260E-17, 1.000000000000000000, -0.000000000000000000 ) ) ;
#269 = SURFACE_SIDE_STYLE ('',( #290 ) ) ;
#270 = EDGE_CURVE ( 'NONE', #31, #249, #166, .T. ) ;
#271 = CARTESIAN_POINT ( 'NONE',  ( 7.654042494670957545E-18, 0.000000000000000000, 0.06250000000000000000 ) ) ;
#272 = AXIS2_PLACEMENT_3D ( 'NONE', #63, #243, #136 ) ;
#273 = STYLED_ITEM ( 'NONE', ( #298 ), #277 ) ;
#274 = CARTESIAN_POINT ( 'NONE',  ( 6.123233995736772199E-17, 2.500000000000000000, 0.000000000000000000 ) ) ;
#275 =( CONVERSION_BASED_UNIT ( 'INCH', #259 ) LENGTH_UNIT ( ) NAMED_UNIT ( #106 ) );
#276 = DIRECTION ( 'NONE',  ( -1.000000000000000000, 3.265724797726278260E-17, 0.000000000000000000 ) ) ;
#277 = ADVANCED_FACE ( 'NONE', ( #211 ), #248, .T. ) ;
#278 =( NAMED_UNIT ( * ) PLANE_ANGLE_UNIT ( ) SI_UNIT ( $, .RADIAN. ) );
#279 = FILL_AREA_STYLE_COLOUR ( '', #21 ) ;
#280 = AXIS2_PLACEMENT_3D ( 'NONE', #274, #61, #64 ) ;
#281 = COLOUR_RGB ( '',1.000000000000000000, 0.000000000000000000, 0.000000000000000000 ) ;
#282 = VECTOR ( 'NONE', #118, 39.37007874015748143 ) ;
#283 = EDGE_CURVE ( 'NONE', #302, #294, #256, .T. ) ;
#284 =( GEOMETRIC_REPRESENTATION_CONTEXT ( 3 ) GLOBAL_UNCERTAINTY_ASSIGNED_CONTEXT ( ( #54 ) ) GLOBAL_UNIT_ASSIGNED_CONTEXT ( ( #275, #103, #291 ) ) REPRESENTATION_CONTEXT ( 'NONE', 'WORKASPACE' ) );
#285 = FACE_OUTER_BOUND ( 'NONE', #223, .T. ) ;
#286 = DIRECTION ( 'NONE',  ( -3.265724797726278260E-17, -1.000000000000000000, 0.000000000000000000 ) ) ;
#287 = SURFACE_STYLE_USAGE ( .BOTH. , #254 ) ;
#288 = DIMENSIONAL_EXPONENTS ( 1.000000000000000000, 0.000000000000000000, 0.000000000000000000, 0.000000000000000000, 0.000000000000000000, 0.000000000000000000, 0.000000000000000000 ) ;
#289 =( GEOMETRIC_REPRESENTATION_CONTEXT ( 3 ) GLOBAL_UNCERTAINTY_ASSIGNED_CONTEXT ( ( #220 ) ) GLOBAL_UNIT_ASSIGNED_CONTEXT ( ( #217, #180, #85 ) ) REPRESENTATION_CONTEXT ( 'NONE', 'WORKASPACE' ) );
#290 = SURFACE_STYLE_FILL_AREA ( #182 ) ;
#291 =( NAMED_UNIT ( * ) SI_UNIT ( $, .STERADIAN. ) SOLID_ANGLE_UNIT ( ) );
#292 = ORIENTED_EDGE ( 'NONE', *, *, #171, .F. ) ;
#293 = UNCERTAINTY_MEASURE_WITH_UNIT (LENGTH_MEASURE( 1.000000000000000082E-05 ), #30, 'distance_accuracy_value', 'NONE');
#294 = VERTEX_POINT ( 'NONE', #22 ) ;
#295 = PRESENTATION_STYLE_ASSIGNMENT (( #267 ) ) ;
#296 = FILL_AREA_STYLE_COLOUR ( '', #47 ) ;
#297 = AXIS2_PLACEMENT_3D ( 'NONE', #205, #246, #33 ) ;
#298 = PRESENTATION_STYLE_ASSIGNMENT (( #199 ) ) ;
#299 = COLOUR_RGB ( '',1.000000000000000000, 0.000000000000000000, 0.000000000000000000 ) ;
#300 = AXIS2_PLACEMENT_3D ( 'NONE', #19, #95, #192 ) ;
#301 = CARTESIAN_POINT ( 'NONE',  ( 0.000000000000000000, 0.6250000000000000000, 0.000000000000000000 ) ) ;
#302 = VERTEX_POINT ( 'NONE', #121 ) ;
#303 = FILL_AREA_STYLE_COLOUR ( '', #194 ) ;
#304 = PLANE ( 'NONE',  #191 ) ;
#305 = DIRECTION ( 'NONE',  ( -1.000000000000000000, 0.000000000000000000, 0.000000000000000000 ) ) ;
#306 = ADVANCED_FACE ( 'NONE', ( #213 ), #148, .T. ) ;
#307 = CARTESIAN_POINT ( 'NONE',  ( 7.654042494670957545E-18, 0.000000000000000000, 0.06250000000000000000 ) ) ;
#308 = PRESENTATION_LAYER_ASSIGNMENT (  '', '', ( #257 ) ) ;
#309 = DIRECTION ( 'NONE',  ( 0.000000000000000000, -0.000000000000000000, 1.000000000000000000 ) ) ;
ENDSEC;
END-ISO-10303-21;
