ISO-10303-21;
HEADER;
FILE_DESCRIPTION (( 'STEP AP214' ),
    '1' );
FILE_NAME ('Micro_SME-009-2.STEP',
    '2021-09-02T09:51:46',
    ( '' ),
    ( '' ),
    'SwSTEP 2.0',
    'SolidWorks 2020',
    '' );
FILE_SCHEMA (( 'AUTOMOTIVE_DESIGN' ));
ENDSEC;

DATA;
#1 = LINE ( 'NONE', #163, #99 ) ;
#2 = APPLICATION_CONTEXT ( 'automotive_design' ) ;
#3 = DIRECTION ( 'NONE',  ( -1.224646799147353700E-16, -0.0000000000000000000, -1.000000000000000000 ) ) ;
#4 = ORIENTED_EDGE ( 'NONE', *, *, #244, .T. ) ;
#5 = AXIS2_PLACEMENT_3D ( 'NONE', #85, #135, #39 ) ;
#6 = EDGE_CURVE ( 'NONE', #167, #27, #33, .T. ) ;
#7 = ORIENTED_EDGE ( 'NONE', *, *, #38, .T. ) ;
#8 = DIRECTION ( 'NONE',  ( -0.0000000000000000000, -0.0000000000000000000, -1.000000000000000000 ) ) ;
#9 =( NAMED_UNIT ( * ) SI_UNIT ( $, .STERADIAN. ) SOLID_ANGLE_UNIT ( ) );
#10 = ORIENTED_EDGE ( 'NONE', *, *, #150, .F. ) ;
#11 = CIRCLE ( 'NONE', #139, 0.06250000000000002776 ) ;
#12 = CONICAL_SURFACE ( 'NONE', #37, 0.004495500000000001231, 0.1745329251994338637 ) ;
#13 = DIRECTION ( 'NONE',  ( 0.0000000000000000000, 0.0000000000000000000, 1.000000000000000000 ) ) ;
#14 = PRESENTATION_STYLE_ASSIGNMENT (( #102 ) ) ;
#15 = DIRECTION ( 'NONE',  ( -1.000000000000000000, 0.0000000000000000000, 1.224646799147353700E-16 ) ) ;
#16 = DIRECTION ( 'NONE',  ( 1.000000000000000000, 0.0000000000000000000, 0.0000000000000000000 ) ) ;
#17 = FILL_AREA_STYLE ('',( #82 ) ) ;
#18 = CARTESIAN_POINT ( 'NONE',  ( 0.06250000000000006939, 7.654042494670963708E-18, 0.3419598663060138266 ) ) ;
#19 = CARTESIAN_POINT ( 'NONE',  ( 4.187800557085168523E-17, 0.0000000000000000000, 0.3419598663060138266 ) ) ;
#20 = PRESENTATION_LAYER_ASSIGNMENT (  '', '', ( #233 ) ) ;
#21 = DIRECTION ( 'NONE',  ( -1.224646799147353700E-16, -0.0000000000000000000, -1.000000000000000000 ) ) ;
#22 = CARTESIAN_POINT ( 'NONE',  ( 0.0000000000000000000, 0.0000000000000000000, 1.500000000000000222 ) ) ;
#23 = CARTESIAN_POINT ( 'NONE',  ( 0.0000000000000000000, 0.0000000000000000000, 1.485000000000000764 ) ) ;
#24 = CIRCLE ( 'NONE', #210, 0.04750000000000064587 ) ;
#25 = ORIENTED_EDGE ( 'NONE', *, *, #162, .F. ) ;
#26 = SHAPE_DEFINITION_REPRESENTATION ( #174, #274 ) ;
#27 = VERTEX_POINT ( 'NONE', #168 ) ;
#28 = VERTEX_POINT ( 'NONE', #90 ) ;
#29 = CIRCLE ( 'NONE', #246, 0.004495499999999998629 ) ;
#30 = DIRECTION ( 'NONE',  ( -1.000000000000000000, 0.0000000000000000000, 1.224646799147353700E-16 ) ) ;
#31 = ORIENTED_EDGE ( 'NONE', *, *, #180, .T. ) ;
#32 = ADVANCED_FACE ( 'NONE', ( #211 ), #187, .T. ) ;
#33 = LINE ( 'NONE', #286, #160 ) ;
#34 = CIRCLE ( 'NONE', #227, 0.06250000000000002776 ) ;
#35 = CARTESIAN_POINT ( 'NONE',  ( 1.592040838891559496E-18, 0.0000000000000000000, 0.01299999999999999767 ) ) ;
#36 = FACE_OUTER_BOUND ( 'NONE', #142, .T. ) ;
#37 = AXIS2_PLACEMENT_3D ( 'NONE', #136, #225, #110 ) ;
#38 = EDGE_CURVE ( 'NONE', #27, #265, #119, .T. ) ;
#39 = DIRECTION ( 'NONE',  ( 1.000000000000000000, 0.0000000000000000000, 0.0000000000000000000 ) ) ;
#40 = DIRECTION ( 'NONE',  ( -1.224646799147353700E-16, -0.0000000000000000000, -1.000000000000000000 ) ) ;
#41 = CARTESIAN_POINT ( 'NONE',  ( 0.04750000000000064587, 6.735557395310483192E-18, 1.500000000000000222 ) ) ;
#42 = DIRECTION ( 'NONE',  ( 1.000000000000000000, 0.0000000000000000000, 0.0000000000000000000 ) ) ;
#43 = EDGE_LOOP ( 'NONE', ( #260, #214, #52, #98 ) ) ;
#44 = LINE ( 'NONE', #298, #176 ) ;
#45 = ORIENTED_EDGE ( 'NONE', *, *, #244, .F. ) ;
#46 = FILL_AREA_STYLE_COLOUR ( '', #277 ) ;
#47 = ORIENTED_EDGE ( 'NONE', *, *, #122, .T. ) ;
#48 = CARTESIAN_POINT ( 'NONE',  ( 0.0000000000000000000, 0.0000000000000000000, 0.0000000000000000000 ) ) ;
#49 = MECHANICAL_DESIGN_GEOMETRIC_PRESENTATION_REPRESENTATION (  '', ( #233 ), #74 ) ;
#50 = ADVANCED_FACE ( 'NONE', ( #95 ), #288, .F. ) ;
#51 = FILL_AREA_STYLE ('',( #46 ) ) ;
#52 = ORIENTED_EDGE ( 'NONE', *, *, #297, .T. ) ;
#53 = ORIENTED_EDGE ( 'NONE', *, *, #216, .T. ) ;
#54 = DIRECTION ( 'NONE',  ( 1.000000000000000000, 0.0000000000000000000, 0.0000000000000000000 ) ) ;
#55 = AXIS2_PLACEMENT_3D ( 'NONE', #175, #243, #151 ) ;
#56 = CYLINDRICAL_SURFACE ( 'NONE', #117, 0.06250000000000002776 ) ;
#57 = EDGE_CURVE ( 'NONE', #27, #69, #11, .T. ) ;
#58 = DIRECTION ( 'NONE',  ( -1.224646799147353700E-16, -0.0000000000000000000, -1.000000000000000000 ) ) ;
#59 = CARTESIAN_POINT ( 'NONE',  ( 0.004495500000000002966, 0.0000000000000000000, 0.01299999999999999767 ) ) ;
#60 = ADVANCED_FACE ( 'NONE', ( #217 ), #111, .T. ) ;
#61 =( NAMED_UNIT ( * ) SI_UNIT ( $, .STERADIAN. ) SOLID_ANGLE_UNIT ( ) );
#62 =( NAMED_UNIT ( * ) PLANE_ANGLE_UNIT ( ) SI_UNIT ( $, .RADIAN. ) );
#63 = CARTESIAN_POINT ( 'NONE',  ( -0.06249999999999997918, 0.0000000000000000000, 0.3419598663060138266 ) ) ;
#64 = CYLINDRICAL_SURFACE ( 'NONE', #272, 0.06250000000000002776 ) ;
#65 = LINE ( 'NONE', #255, #83 ) ;
#66 = ADVANCED_FACE ( 'NONE', ( #100 ), #275, .T. ) ;
#67 = DIRECTION ( 'NONE',  ( -1.224646799147353700E-16, -0.0000000000000000000, -1.000000000000000000 ) ) ;
#68 =( LENGTH_UNIT ( ) NAMED_UNIT ( * ) SI_UNIT ( $, .METRE. ) );
#69 = VERTEX_POINT ( 'NONE', #78 ) ;
#70 = CIRCLE ( 'NONE', #264, 0.004495500000000001231 ) ;
#71 = ORIENTED_EDGE ( 'NONE', *, *, #241, .T. ) ;
#72 = VERTEX_POINT ( 'NONE', #59 ) ;
#73 = ORIENTED_EDGE ( 'NONE', *, *, #193, .F. ) ;
#74 =( GEOMETRIC_REPRESENTATION_CONTEXT ( 3 ) GLOBAL_UNCERTAINTY_ASSIGNED_CONTEXT ( ( #183 ) ) GLOBAL_UNIT_ASSIGNED_CONTEXT ( ( #143, #235, #9 ) ) REPRESENTATION_CONTEXT ( 'NONE', 'WORKASPACE' ) );
#75 = ORIENTED_EDGE ( 'NONE', *, *, #238, .T. ) ;
#76 = PRODUCT ( 'Micro_SME-009-2', 'Micro_SME-009-2', '', ( #230 ) ) ;
#77 = ADVANCED_FACE ( 'NONE', ( #36 ), #156, .T. ) ;
#78 = CARTESIAN_POINT ( 'NONE',  ( 0.06250000000000002776, 7.654042494670959086E-18, 1.485000000000000764 ) ) ;
#79 = AXIS2_PLACEMENT_3D ( 'NONE', #48, #146, #30 ) ;
#80 = PRESENTATION_LAYER_ASSIGNMENT (  '', '', ( #87 ) ) ;
#81 =( CONVERSION_BASED_UNIT ( 'INCH', #128 ) LENGTH_UNIT ( ) NAMED_UNIT ( #171 ) );
#82 = FILL_AREA_STYLE_COLOUR ( '', #93 ) ;
#83 = VECTOR ( 'NONE', #89, 39.37007874015747433 ) ;
#84 =( LENGTH_UNIT ( ) NAMED_UNIT ( * ) SI_UNIT ( $, .METRE. ) );
#85 = CARTESIAN_POINT ( 'NONE',  ( 0.0000000000000000000, 0.0000000000000000000, 1.500000000000000222 ) ) ;
#86 = DIRECTION ( 'NONE',  ( -1.000000000000000000, 0.0000000000000000000, 0.0000000000000000000 ) ) ;
#87 = STYLED_ITEM ( 'NONE', ( #14 ), #145 ) ;
#88 = ADVANCED_FACE ( 'NONE', ( #271 ), #56, .T. ) ;
#89 = DIRECTION ( 'NONE',  ( -0.1736481776669311639, 2.126576849575783008E-17, 0.9848077530122080203 ) ) ;
#90 = CARTESIAN_POINT ( 'NONE',  ( -0.004495499999999999496, 4.102291231613827213E-18, 0.01299999999999999767 ) ) ;
#91 = UNCERTAINTY_MEASURE_WITH_UNIT (LENGTH_MEASURE( 1.000000000000000082E-05 ), #133, 'distance_accuracy_value', 'NONE');
#92 = ORIENTED_EDGE ( 'NONE', *, *, #38, .F. ) ;
#93 = COLOUR_RGB ( '',0.7921568627450980005, 0.8196078431372548767, 0.9333333333333333481 ) ;
#94 = ORIENTED_EDGE ( 'NONE', *, *, #105, .T. ) ;
#95 = FACE_OUTER_BOUND ( 'NONE', #144, .T. ) ;
#96 = DIMENSIONAL_EXPONENTS ( 1.000000000000000000, 0.0000000000000000000, 0.0000000000000000000, 0.0000000000000000000, 0.0000000000000000000, 0.0000000000000000000, 0.0000000000000000000 ) ;
#97 = CARTESIAN_POINT ( 'NONE',  ( 0.0000000000000000000, 0.0000000000000000000, 0.0000000000000000000 ) ) ;
#98 = ORIENTED_EDGE ( 'NONE', *, *, #122, .F. ) ;
#99 = VECTOR ( 'NONE', #181, 39.37007874015748143 ) ;
#100 = FACE_OUTER_BOUND ( 'NONE', #292, .T. ) ;
#101 = CARTESIAN_POINT ( 'NONE',  ( 1.592040838891559496E-18, 0.0000000000000000000, 0.01299999999999999767 ) ) ;
#102 = SURFACE_STYLE_USAGE ( .BOTH. , #293 ) ;
#103 = PRODUCT_DEFINITION_FORMATION_WITH_SPECIFIED_SOURCE ( 'ANY', '', #76, .NOT_KNOWN. ) ;
#104 = DIRECTION ( 'NONE',  ( 1.000000000000000000, 0.0000000000000000000, 0.0000000000000000000 ) ) ;
#105 = EDGE_CURVE ( 'NONE', #28, #72, #70, .T. ) ;
#106 = DIRECTION ( 'NONE',  ( -1.224646799147353700E-16, -0.0000000000000000000, -1.000000000000000000 ) ) ;
#107 = DIRECTION ( 'NONE',  ( 1.000000000000000000, 0.0000000000000000000, 0.0000000000000000000 ) ) ;
#108 = CARTESIAN_POINT ( 'NONE',  ( -0.004495499999999998629, 0.0000000000000000000, 1.101079937113385289E-18 ) ) ;
#109 = FACE_OUTER_BOUND ( 'NONE', #43, .T. ) ;
#110 = DIRECTION ( 'NONE',  ( 1.000000000000000000, 0.0000000000000000000, 0.0000000000000000000 ) ) ;
#111 = CONICAL_SURFACE ( 'NONE', #290, 0.004495500000000001231, 0.1745329251994338637 ) ;
#112 = CIRCLE ( 'NONE', #5, 0.04750000000000064587 ) ;
#113 = SURFACE_STYLE_USAGE ( .BOTH. , #194 ) ;
#114 = ORIENTED_EDGE ( 'NONE', *, *, #6, .T. ) ;
#115 = DIRECTION ( 'NONE',  ( 0.0000000000000000000, 0.0000000000000000000, 1.000000000000000000 ) ) ;
#116 = EDGE_LOOP ( 'NONE', ( #45, #149, #7, #213 ) ) ;
#117 = AXIS2_PLACEMENT_3D ( 'NONE', #218, #245, #154 ) ;
#118 =( NAMED_UNIT ( * ) SI_UNIT ( $, .STERADIAN. ) SOLID_ANGLE_UNIT ( ) );
#119 = LINE ( 'NONE', #212, #295 ) ;
#120 = LENGTH_MEASURE_WITH_UNIT ( LENGTH_MEASURE( 0.02539999999999999897 ), #68 );
#121 = ORIENTED_EDGE ( 'NONE', *, *, #279, .F. ) ;
#122 = EDGE_CURVE ( 'NONE', #263, #208, #134, .T. ) ;
#123 = ORIENTED_EDGE ( 'NONE', *, *, #193, .T. ) ;
#124 = DIMENSIONAL_EXPONENTS ( 1.000000000000000000, 0.0000000000000000000, 0.0000000000000000000, 0.0000000000000000000, 0.0000000000000000000, 0.0000000000000000000, 0.0000000000000000000 ) ;
#125 =( GEOMETRIC_REPRESENTATION_CONTEXT ( 3 ) GLOBAL_UNCERTAINTY_ASSIGNED_CONTEXT ( ( #91 ) ) GLOBAL_UNIT_ASSIGNED_CONTEXT ( ( #133, #62, #118 ) ) REPRESENTATION_CONTEXT ( 'NONE', 'WORKASPACE' ) );
#126 = SURFACE_STYLE_FILL_AREA ( #17 ) ;
#127 = DIRECTION ( 'NONE',  ( 0.0000000000000000000, 0.0000000000000000000, 1.000000000000000000 ) ) ;
#128 = LENGTH_MEASURE_WITH_UNIT ( LENGTH_MEASURE( 0.02539999999999999897 ), #200 );
#129 = CIRCLE ( 'NONE', #252, 0.06250000000000002776 ) ;
#130 = CARTESIAN_POINT ( 'NONE',  ( 6.742170102956384843E-35, 0.0000000000000000000, 5.505399685566926447E-19 ) ) ;
#131 = CARTESIAN_POINT ( 'NONE',  ( -0.04750000000000064587, 0.0000000000000000000, 1.500000000000000222 ) ) ;
#132 = DIRECTION ( 'NONE',  ( -1.224646799147353700E-16, -0.0000000000000000000, -1.000000000000000000 ) ) ;
#133 =( CONVERSION_BASED_UNIT ( 'INCH', #250 ) LENGTH_UNIT ( ) NAMED_UNIT ( #124 ) );
#134 = CIRCLE ( 'NONE', #152, 0.004495499999999998629 ) ;
#135 = DIRECTION ( 'NONE',  ( 0.0000000000000000000, 0.0000000000000000000, 1.000000000000000000 ) ) ;
#136 = CARTESIAN_POINT ( 'NONE',  ( 1.592040838891559496E-18, 0.0000000000000000000, 0.01299999999999999767 ) ) ;
#137 = ORIENTED_EDGE ( 'NONE', *, *, #279, .T. ) ;
#138 = PRESENTATION_STYLE_ASSIGNMENT (( #113 ) ) ;
#139 = AXIS2_PLACEMENT_3D ( 'NONE', #239, #197, #104 ) ;
#140 = AXIS2_PLACEMENT_3D ( 'NONE', #22, #182, #158 ) ;
#141 = APPLICATION_PROTOCOL_DEFINITION ( 'draft international standard', 'automotive_design', 1998, #206 ) ;
#142 = EDGE_LOOP ( 'NONE', ( #73, #31, #249, #169 ) ) ;
#143 =( CONVERSION_BASED_UNIT ( 'INCH', #120 ) LENGTH_UNIT ( ) NAMED_UNIT ( #96 ) );
#144 = EDGE_LOOP ( 'NONE', ( #285, #47 ) ) ;
#145 = MANIFOLD_SOLID_BREP ( 'Cut-Revolve1', #209 ) ;
#146 = DIRECTION ( 'NONE',  ( -1.224646799147353700E-16, -0.0000000000000000000, -1.000000000000000000 ) ) ;
#147 = SURFACE_STYLE_FILL_AREA ( #51 ) ;
#148 = ORIENTED_EDGE ( 'NONE', *, *, #238, .F. ) ;
#149 = ORIENTED_EDGE ( 'NONE', *, *, #229, .T. ) ;
#150 = EDGE_CURVE ( 'NONE', #72, #28, #185, .T. ) ;
#151 = DIRECTION ( 'NONE',  ( -1.000000000000000000, 0.0000000000000000000, 0.0000000000000000000 ) ) ;
#152 = AXIS2_PLACEMENT_3D ( 'NONE', #130, #58, #15 ) ;
#153 = CARTESIAN_POINT ( 'NONE',  ( 0.0000000000000000000, 0.0000000000000000000, 0.0000000000000000000 ) ) ;
#154 = DIRECTION ( 'NONE',  ( -1.000000000000000000, 0.0000000000000000000, 0.0000000000000000000 ) ) ;
#155 = AXIS2_PLACEMENT_3D ( 'NONE', #273, #127, #276 ) ;
#156 = CONICAL_SURFACE ( 'NONE', #55, 0.04750000000000064587, 0.7853981633974466137 ) ;
#157 = DIRECTION ( 'NONE',  ( -1.224646799147353700E-16, -0.0000000000000000000, -1.000000000000000000 ) ) ;
#158 = DIRECTION ( 'NONE',  ( -1.000000000000000000, 0.0000000000000000000, 0.0000000000000000000 ) ) ;
#159 = FACE_OUTER_BOUND ( 'NONE', #237, .T. ) ;
#160 = VECTOR ( 'NONE', #261, 39.37007874015748854 ) ;
#161 = DIRECTION ( 'NONE',  ( -0.0000000000000000000, -0.0000000000000000000, -1.000000000000000000 ) ) ;
#162 = EDGE_CURVE ( 'NONE', #167, #232, #24, .T. ) ;
#163 = CARTESIAN_POINT ( 'NONE',  ( 0.004495500000000002966, 0.0000000000000000000, 0.01299999999999999767 ) ) ;
#164 = DIRECTION ( 'NONE',  ( -1.000000000000000000, 0.0000000000000000000, 1.224646799147353700E-16 ) ) ;
#165 = EDGE_LOOP ( 'NONE', ( #234, #25, #114, #192 ) ) ;
#166 =( GEOMETRIC_REPRESENTATION_CONTEXT ( 3 ) GLOBAL_UNCERTAINTY_ASSIGNED_CONTEXT ( ( #259 ) ) GLOBAL_UNIT_ASSIGNED_CONTEXT ( ( #81, #177, #61 ) ) REPRESENTATION_CONTEXT ( 'NONE', 'WORKASPACE' ) );
#167 = VERTEX_POINT ( 'NONE', #131 ) ;
#168 = CARTESIAN_POINT ( 'NONE',  ( -0.06250000000000002776, 0.0000000000000000000, 1.485000000000000764 ) ) ;
#169 = ORIENTED_EDGE ( 'NONE', *, *, #6, .F. ) ;
#170 = AXIS2_PLACEMENT_3D ( 'NONE', #253, #221, #205 ) ;
#171 = DIMENSIONAL_EXPONENTS ( 1.000000000000000000, 0.0000000000000000000, 0.0000000000000000000, 0.0000000000000000000, 0.0000000000000000000, 0.0000000000000000000, 0.0000000000000000000 ) ;
#172 = EDGE_LOOP ( 'NONE', ( #258, #10, #75, #71 ) ) ;
#173 = DIRECTION ( 'NONE',  ( 0.7071067811865462405, 8.659560562354916834E-17, -0.7071067811865486830 ) ) ;
#174 = PRODUCT_DEFINITION_SHAPE ( 'NONE', 'NONE',  #251 ) ;
#175 = CARTESIAN_POINT ( 'NONE',  ( 0.0000000000000000000, 0.0000000000000000000, 1.500000000000000222 ) ) ;
#176 = VECTOR ( 'NONE', #40, 39.37007874015748143 ) ;
#177 =( NAMED_UNIT ( * ) PLANE_ANGLE_UNIT ( ) SI_UNIT ( $, .RADIAN. ) );
#178 = CARTESIAN_POINT ( 'NONE',  ( 0.04750000000000064587, 5.817072295950006528E-18, 1.500000000000000222 ) ) ;
#179 = AXIS2_PLACEMENT_3D ( 'NONE', #19, #21, #224 ) ;
#180 = EDGE_CURVE ( 'NONE', #232, #69, #199, .T. ) ;
#181 = DIRECTION ( 'NONE',  ( 0.1736481776669313581, 0.0000000000000000000, 0.9848077530122077983 ) ) ;
#182 = DIRECTION ( 'NONE',  ( 0.0000000000000000000, 0.0000000000000000000, -1.000000000000000000 ) ) ;
#183 = UNCERTAINTY_MEASURE_WITH_UNIT (LENGTH_MEASURE( 1.000000000000000082E-05 ), #143, 'distance_accuracy_value', 'NONE');
#184 = CARTESIAN_POINT ( 'NONE',  ( 0.06250000000000002776, 7.654042494670959086E-18, 1.500000000000000222 ) ) ;
#185 = CIRCLE ( 'NONE', #190, 0.004495500000000001231 ) ;
#186 = FACE_OUTER_BOUND ( 'NONE', #116, .T. ) ;
#187 = CYLINDRICAL_SURFACE ( 'NONE', #79, 0.004495499999999999496 ) ;
#188 = VECTOR ( 'NONE', #173, 39.37007874015748854 ) ;
#189 = ORIENTED_EDGE ( 'NONE', *, *, #57, .T. ) ;
#190 = AXIS2_PLACEMENT_3D ( 'NONE', #220, #157, #247 ) ;
#191 = ORIENTED_EDGE ( 'NONE', *, *, #296, .F. ) ;
#192 = ORIENTED_EDGE ( 'NONE', *, *, #229, .F. ) ;
#193 = EDGE_CURVE ( 'NONE', #232, #167, #112, .T. ) ;
#194 = SURFACE_SIDE_STYLE ('',( #147 ) ) ;
#195 = EDGE_LOOP ( 'NONE', ( #189, #4, #121, #92 ) ) ;
#196 = MECHANICAL_DESIGN_GEOMETRIC_PRESENTATION_REPRESENTATION (  '', ( #87 ), #166 ) ;
#197 = DIRECTION ( 'NONE',  ( 0.0000000000000000000, 0.0000000000000000000, -1.000000000000000000 ) ) ;
#198 = DIRECTION ( 'NONE',  ( 1.224646799147353700E-16, 0.0000000000000000000, 1.000000000000000000 ) ) ;
#199 = LINE ( 'NONE', #178, #188 ) ;
#200 =( LENGTH_UNIT ( ) NAMED_UNIT ( * ) SI_UNIT ( $, .METRE. ) );
#201 = VECTOR ( 'NONE', #132, 39.37007874015748143 ) ;
#202 = DIRECTION ( 'NONE',  ( 0.0000000000000000000, 0.0000000000000000000, -1.000000000000000000 ) ) ;
#203 = FACE_OUTER_BOUND ( 'NONE', #165, .T. ) ;
#204 = ADVANCED_FACE ( 'NONE', ( #203 ), #222, .T. ) ;
#205 = DIRECTION ( 'NONE',  ( -1.000000000000000000, 0.0000000000000000000, 1.224646799147353700E-16 ) ) ;
#206 = APPLICATION_CONTEXT ( 'automotive_design' ) ;
#207 = CARTESIAN_POINT ( 'NONE',  ( 4.187800557085168523E-17, 0.0000000000000000000, 0.3419598663060138266 ) ) ;
#208 = VERTEX_POINT ( 'NONE', #108 ) ;
#209 = CLOSED_SHELL ( 'NONE', ( #32, #270, #77, #88, #226, #66, #204, #60, #223, #50 ) ) ;
#210 = AXIS2_PLACEMENT_3D ( 'NONE', #219, #13, #16 ) ;
#211 = FACE_OUTER_BOUND ( 'NONE', #228, .T. ) ;
#212 = CARTESIAN_POINT ( 'NONE',  ( -0.06250000000000002776, 0.0000000000000000000, 1.500000000000000222 ) ) ;
#213 = ORIENTED_EDGE ( 'NONE', *, *, #241, .F. ) ;
#214 = ORIENTED_EDGE ( 'NONE', *, *, #150, .T. ) ;
#215 = VECTOR ( 'NONE', #278, 39.37007874015748143 ) ;
#216 = EDGE_CURVE ( 'NONE', #72, #263, #299, .T. ) ;
#217 = FACE_OUTER_BOUND ( 'NONE', #172, .T. ) ;
#218 = CARTESIAN_POINT ( 'NONE',  ( 0.0000000000000000000, 0.0000000000000000000, 1.500000000000000222 ) ) ;
#219 = CARTESIAN_POINT ( 'NONE',  ( 0.0000000000000000000, 0.0000000000000000000, 1.500000000000000222 ) ) ;
#220 = CARTESIAN_POINT ( 'NONE',  ( 1.592040838891559496E-18, 0.0000000000000000000, 0.01299999999999999767 ) ) ;
#221 = DIRECTION ( 'NONE',  ( -1.224646799147353700E-16, -0.0000000000000000000, -1.000000000000000000 ) ) ;
#222 = CONICAL_SURFACE ( 'NONE', #140, 0.04750000000000064587, 0.7853981633974466137 ) ;
#223 = ADVANCED_FACE ( 'NONE', ( #109 ), #248, .T. ) ;
#224 = DIRECTION ( 'NONE',  ( 1.000000000000000000, 0.0000000000000000000, 0.0000000000000000000 ) ) ;
#225 = DIRECTION ( 'NONE',  ( 1.224646799147353700E-16, 0.0000000000000000000, 1.000000000000000000 ) ) ;
#226 = ADVANCED_FACE ( 'NONE', ( #186 ), #64, .T. ) ;
#227 = AXIS2_PLACEMENT_3D ( 'NONE', #23, #202, #42 ) ;
#228 = EDGE_LOOP ( 'NONE', ( #94, #53, #191, #236 ) ) ;
#229 = EDGE_CURVE ( 'NONE', #69, #27, #34, .T. ) ;
#230 = PRODUCT_CONTEXT ( 'NONE', #206, 'mechanical' ) ;
#231 = VERTEX_POINT ( 'NONE', #18 ) ;
#232 = VERTEX_POINT ( 'NONE', #41 ) ;
#233 = STYLED_ITEM ( 'NONE', ( #138 ), #274 ) ;
#234 = ORIENTED_EDGE ( 'NONE', *, *, #180, .F. ) ;
#235 =( NAMED_UNIT ( * ) PLANE_ANGLE_UNIT ( ) SI_UNIT ( $, .RADIAN. ) );
#236 = ORIENTED_EDGE ( 'NONE', *, *, #297, .F. ) ;
#237 = EDGE_LOOP ( 'NONE', ( #256, #268, #137, #148 ) ) ;
#238 = EDGE_CURVE ( 'NONE', #72, #231, #1, .T. ) ;
#239 = CARTESIAN_POINT ( 'NONE',  ( 0.0000000000000000000, 0.0000000000000000000, 1.485000000000000764 ) ) ;
#240 = CIRCLE ( 'NONE', #179, 0.06250000000000002776 ) ;
#241 = EDGE_CURVE ( 'NONE', #231, #265, #240, .T. ) ;
#242 = DIRECTION ( 'NONE',  ( -1.000000000000000000, 0.0000000000000000000, 0.0000000000000000000 ) ) ;
#243 = DIRECTION ( 'NONE',  ( 0.0000000000000000000, 0.0000000000000000000, -1.000000000000000000 ) ) ;
#244 = EDGE_CURVE ( 'NONE', #69, #231, #283, .T. ) ;
#245 = DIRECTION ( 'NONE',  ( -0.0000000000000000000, -0.0000000000000000000, -1.000000000000000000 ) ) ;
#246 = AXIS2_PLACEMENT_3D ( 'NONE', #284, #67, #164 ) ;
#247 = DIRECTION ( 'NONE',  ( -1.000000000000000000, 0.0000000000000000000, 0.0000000000000000000 ) ) ;
#248 = CYLINDRICAL_SURFACE ( 'NONE', #170, 0.004495499999999999496 ) ;
#249 = ORIENTED_EDGE ( 'NONE', *, *, #57, .F. ) ;
#250 = LENGTH_MEASURE_WITH_UNIT ( LENGTH_MEASURE( 0.02539999999999999897 ), #84 );
#251 = PRODUCT_DEFINITION ( 'UNKNOWN', '', #103, #254 ) ;
#252 = AXIS2_PLACEMENT_3D ( 'NONE', #207, #3, #107 ) ;
#253 = CARTESIAN_POINT ( 'NONE',  ( 0.0000000000000000000, 0.0000000000000000000, 0.0000000000000000000 ) ) ;
#254 = PRODUCT_DEFINITION_CONTEXT ( 'detailed design', #2, 'design' ) ;
#255 = CARTESIAN_POINT ( 'NONE',  ( -0.004495499999999999496, 5.505399685566927410E-19, 0.01299999999999999767 ) ) ;
#256 = ORIENTED_EDGE ( 'NONE', *, *, #105, .F. ) ;
#257 = CARTESIAN_POINT ( 'NONE',  ( 0.0000000000000000000, 0.0000000000000000000, 1.500000000000000222 ) ) ;
#258 = ORIENTED_EDGE ( 'NONE', *, *, #267, .F. ) ;
#259 = UNCERTAINTY_MEASURE_WITH_UNIT (LENGTH_MEASURE( 1.000000000000000082E-05 ), #81, 'distance_accuracy_value', 'NONE');
#260 = ORIENTED_EDGE ( 'NONE', *, *, #216, .F. ) ;
#261 = DIRECTION ( 'NONE',  ( -0.7071067811865462405, 0.0000000000000000000, -0.7071067811865486830 ) ) ;
#262 = PRODUCT_RELATED_PRODUCT_CATEGORY ( 'part', '', ( #76 ) ) ;
#263 = VERTEX_POINT ( 'NONE', #280 ) ;
#264 = AXIS2_PLACEMENT_3D ( 'NONE', #101, #106, #242 ) ;
#265 = VERTEX_POINT ( 'NONE', #63 ) ;
#266 = APPLICATION_PROTOCOL_DEFINITION ( 'draft international standard', 'automotive_design', 1998, #2 ) ;
#267 = EDGE_CURVE ( 'NONE', #28, #265, #65, .T. ) ;
#268 = ORIENTED_EDGE ( 'NONE', *, *, #267, .T. ) ;
#269 = DIRECTION ( 'NONE',  ( 1.000000000000000000, 0.0000000000000000000, -0.0000000000000000000 ) ) ;
#270 = ADVANCED_FACE ( 'NONE', ( #159 ), #12, .T. ) ;
#271 = FACE_OUTER_BOUND ( 'NONE', #195, .T. ) ;
#272 = AXIS2_PLACEMENT_3D ( 'NONE', #257, #161, #86 ) ;
#273 = CARTESIAN_POINT ( 'NONE',  ( 0.0000000000000000000, 0.0000000000000000000, 1.500000000000000222 ) ) ;
#274 = ADVANCED_BREP_SHAPE_REPRESENTATION ( 'Micro_SME-009-2', ( #145, #291 ), #125 ) ;
#275 = PLANE ( 'NONE',  #155 ) ;
#276 = DIRECTION ( 'NONE',  ( 1.000000000000000000, 0.0000000000000000000, -0.0000000000000000000 ) ) ;
#277 = COLOUR_RGB ( '',0.7921568627450980005, 0.8196078431372548767, 0.9333333333333333481 ) ;
#278 = DIRECTION ( 'NONE',  ( -0.0000000000000000000, -0.0000000000000000000, -1.000000000000000000 ) ) ;
#279 = EDGE_CURVE ( 'NONE', #265, #231, #129, .T. ) ;
#280 = CARTESIAN_POINT ( 'NONE',  ( 0.004495499999999998629, 5.505399685566924522E-19, -1.184750211852384294E-34 ) ) ;
#281 = CARTESIAN_POINT ( 'NONE',  ( 0.004495499999999999496, 5.505399685566925485E-19, -5.505399685566927410E-19 ) ) ;
#282 = AXIS2_PLACEMENT_3D ( 'NONE', #153, #294, #269 ) ;
#283 = LINE ( 'NONE', #184, #215 ) ;
#284 = CARTESIAN_POINT ( 'NONE',  ( 6.742170102956384843E-35, 0.0000000000000000000, 5.505399685566926447E-19 ) ) ;
#285 = ORIENTED_EDGE ( 'NONE', *, *, #296, .T. ) ;
#286 = CARTESIAN_POINT ( 'NONE',  ( -0.04750000000000064587, 0.0000000000000000000, 1.500000000000000222 ) ) ;
#287 = ORIENTED_EDGE ( 'NONE', *, *, #162, .T. ) ;
#288 = PLANE ( 'NONE',  #282 ) ;
#289 = DIRECTION ( 'NONE',  ( 1.000000000000000000, 0.0000000000000000000, 0.0000000000000000000 ) ) ;
#290 = AXIS2_PLACEMENT_3D ( 'NONE', #35, #198, #54 ) ;
#291 = AXIS2_PLACEMENT_3D ( 'NONE', #97, #115, #289 ) ;
#292 = EDGE_LOOP ( 'NONE', ( #287, #123 ) ) ;
#293 = SURFACE_SIDE_STYLE ('',( #126 ) ) ;
#294 = DIRECTION ( 'NONE',  ( 0.0000000000000000000, 0.0000000000000000000, 1.000000000000000000 ) ) ;
#295 = VECTOR ( 'NONE', #8, 39.37007874015748143 ) ;
#296 = EDGE_CURVE ( 'NONE', #208, #263, #29, .T. ) ;
#297 = EDGE_CURVE ( 'NONE', #28, #208, #44, .T. ) ;
#298 = CARTESIAN_POINT ( 'NONE',  ( -0.004495499999999999496, 0.0000000000000000000, 5.505399685566927410E-19 ) ) ;
#299 = LINE ( 'NONE', #281, #201 ) ;
ENDSEC;
END-ISO-10303-21;
