ISO-10303-21;
HEADER;
FILE_DESCRIPTION (( 'STEP AP214' ),
    '1' );
FILE_NAME ('Micro_SBM-625-2X.STEP',
    '2021-09-02T17:03:15',
    ( '' ),
    ( '' ),
    'SwSTEP 2.0',
    'SolidWorks 2020',
    '' );
FILE_SCHEMA (( 'AUTOMOTIVE_DESIGN' ));
ENDSEC;

DATA;
#1 = CARTESIAN_POINT ( 'NONE',  ( -0.3437499999999997224, 4.209723372069023183E-17, 2.049999999999995826 ) ) ;
#2 = CYLINDRICAL_SURFACE ( 'NONE', #6, 0.3125000000000000000 ) ;
#3 = DIRECTION ( 'NONE',  ( 0.0000000000000000000, 1.000000000000000000, 0.0000000000000000000 ) ) ;
#4 = AXIS2_PLACEMENT_3D ( 'NONE', #256, #151, #341 ) ;
#5 = UNCERTAINTY_MEASURE_WITH_UNIT (LENGTH_MEASURE( 1.000000000000000082E-05 ), #255, 'distance_accuracy_value', 'NONE');
#6 = AXIS2_PLACEMENT_3D ( 'NONE', #126, #201, #171 ) ;
#7 = DIRECTION ( 'NONE',  ( -0.0000000000000000000, -0.0000000000000000000, -1.000000000000000000 ) ) ;
#8 = ORIENTED_EDGE ( 'NONE', *, *, #345, .T. ) ;
#9 = AXIS2_PLACEMENT_3D ( 'NONE', #175, #204, #150 ) ;
#10 = ORIENTED_EDGE ( 'NONE', *, *, #307, .T. ) ;
#11 = DIRECTION ( 'NONE',  ( 1.000000000000000000, 0.0000000000000000000, 0.0000000000000000000 ) ) ;
#12 = EDGE_LOOP ( 'NONE', ( #221, #224, #142, #62 ) ) ;
#13 = ADVANCED_FACE ( 'NONE', ( #167 ), #114, .T. ) ;
#14 =( NAMED_UNIT ( * ) PLANE_ANGLE_UNIT ( ) SI_UNIT ( $, .RADIAN. ) );
#15 = DIRECTION ( 'NONE',  ( -0.0000000000000000000, -0.0000000000000000000, -1.000000000000000000 ) ) ;
#16 = ORIENTED_EDGE ( 'NONE', *, *, #313, .T. ) ;
#17 = ORIENTED_EDGE ( 'NONE', *, *, #186, .T. ) ;
#18 = DIRECTION ( 'NONE',  ( -1.000000000000000000, 0.0000000000000000000, 0.0000000000000000000 ) ) ;
#19 = VERTEX_POINT ( 'NONE', #42 ) ;
#20 = DIRECTION ( 'NONE',  ( -1.000000000000000000, 0.0000000000000000000, 0.0000000000000000000 ) ) ;
#21 = APPLICATION_CONTEXT ( 'automotive_design' ) ;
#22 = DIMENSIONAL_EXPONENTS ( 1.000000000000000000, 0.0000000000000000000, 0.0000000000000000000, 0.0000000000000000000, 0.0000000000000000000, 0.0000000000000000000, 0.0000000000000000000 ) ;
#23 = CARTESIAN_POINT ( 'NONE',  ( -0.2499999999999998890, 3.444319122601930356E-17, 1.000000000000000000 ) ) ;
#24 = COLOUR_RGB ( '',0.7921568627450980005, 0.8196078431372548767, 0.9333333333333333481 ) ;
#25 = EDGE_CURVE ( 'NONE', #19, #252, #335, .T. ) ;
#26 = FACE_OUTER_BOUND ( 'NONE', #218, .T. ) ;
#27 = DIRECTION ( 'NONE',  ( -0.0000000000000000000, -0.0000000000000000000, -1.000000000000000000 ) ) ;
#28 = PRODUCT_DEFINITION_SHAPE ( 'NONE', 'NONE',  #235 ) ;
#29 = FACE_OUTER_BOUND ( 'NONE', #161, .T. ) ;
#30 = AXIS2_PLACEMENT_3D ( 'NONE', #32, #320, #183 ) ;
#31 = PRESENTATION_STYLE_ASSIGNMENT (( #79 ) ) ;
#32 = CARTESIAN_POINT ( 'NONE',  ( 0.0000000000000000000, 0.0000000000000000000, 2.049999999999995826 ) ) ;
#33 = AXIS2_PLACEMENT_3D ( 'NONE', #338, #68, #339 ) ;
#34 = STYLED_ITEM ( 'NONE', ( #163 ), #319 ) ;
#35 = EDGE_LOOP ( 'NONE', ( #41, #102, #109, #240 ) ) ;
#36 = DIRECTION ( 'NONE',  ( -0.0000000000000000000, -0.0000000000000000000, -1.000000000000000000 ) ) ;
#37 = EDGE_CURVE ( 'NONE', #19, #45, #158, .T. ) ;
#38 = APPLICATION_PROTOCOL_DEFINITION ( 'draft international standard', 'automotive_design', 1998, #21 ) ;
#39 = DIRECTION ( 'NONE',  ( 0.0000000000000000000, 0.0000000000000000000, -1.000000000000000000 ) ) ;
#40 = APPLICATION_CONTEXT ( 'automotive_design' ) ;
#41 = ORIENTED_EDGE ( 'NONE', *, *, #37, .T. ) ;
#42 = CARTESIAN_POINT ( 'NONE',  ( 0.0000000000000000000, 0.2499999999999999167, 0.5000000000000001110 ) ) ;
#43 = LINE ( 'NONE', #225, #116 ) ;
#44 = PRESENTATION_LAYER_ASSIGNMENT (  '', '', ( #182 ) ) ;
#45 = VERTEX_POINT ( 'NONE', #195 ) ;
#46 = CARTESIAN_POINT ( 'NONE',  ( -0.2499999999999998890, 0.0000000000000000000, 0.0000000000000000000 ) ) ;
#47 = DIRECTION ( 'NONE',  ( -1.000000000000000000, 0.0000000000000000000, 0.0000000000000000000 ) ) ;
#48 = DIMENSIONAL_EXPONENTS ( 1.000000000000000000, 0.0000000000000000000, 0.0000000000000000000, 0.0000000000000000000, 0.0000000000000000000, 0.0000000000000000000, 0.0000000000000000000 ) ;
#49 = AXIS2_PLACEMENT_3D ( 'NONE', #333, #222, #282 ) ;
#50 = CARTESIAN_POINT ( 'NONE',  ( 0.2974999999999997646, 3.735172737399425174E-17, 4.000000000000000000 ) ) ;
#51 = SPHERICAL_SURFACE ( 'NONE', #4, 0.3125000000000000000 ) ;
#52 = CARTESIAN_POINT ( 'NONE',  ( 0.0000000000000000000, 0.0000000000000000000, 0.5000000000000001110 ) ) ;
#53 = AXIS2_PLACEMENT_3D ( 'NONE', #64, #165, #206 ) ;
#54 = ORIENTED_EDGE ( 'NONE', *, *, #303, .F. ) ;
#55 =( CONVERSION_BASED_UNIT ( 'INCH', #318 ) LENGTH_UNIT ( ) NAMED_UNIT ( #22 ) );
#56 = EDGE_CURVE ( 'NONE', #140, #45, #43, .T. ) ;
#57 = ORIENTED_EDGE ( 'NONE', *, *, #219, .T. ) ;
#58 = FILL_AREA_STYLE_COLOUR ( '', #24 ) ;
#59 = EDGE_LOOP ( 'NONE', ( #106, #82 ) ) ;
#60 = VECTOR ( 'NONE', #94, 39.37007874015748854 ) ;
#61 = CARTESIAN_POINT ( 'NONE',  ( 0.0000000000000000000, 0.0000000000000000000, 4.000000000000000000 ) ) ;
#62 = ORIENTED_EDGE ( 'NONE', *, *, #284, .F. ) ;
#63 = DIRECTION ( 'NONE',  ( -0.0000000000000000000, -0.0000000000000000000, -1.000000000000000000 ) ) ;
#64 = CARTESIAN_POINT ( 'NONE',  ( 0.0000000000000000000, 0.0000000000000000000, 3.984999999999999876 ) ) ;
#65 = AXIS2_PLACEMENT_3D ( 'NONE', #312, #311, #99 ) ;
#66 = ORIENTED_EDGE ( 'NONE', *, *, #313, .F. ) ;
#67 = ADVANCED_FACE ( 'NONE', ( #223 ), #166, .T. ) ;
#68 = DIRECTION ( 'NONE',  ( 0.0000000000000000000, 0.0000000000000000000, -1.000000000000000000 ) ) ;
#69 = DIRECTION ( 'NONE',  ( -1.000000000000000000, 0.0000000000000000000, 0.0000000000000000000 ) ) ;
#70 = FACE_OUTER_BOUND ( 'NONE', #35, .T. ) ;
#71 = DIRECTION ( 'NONE',  ( -1.000000000000000000, 0.0000000000000000000, 0.0000000000000000000 ) ) ;
#72 = CARTESIAN_POINT ( 'NONE',  ( 0.0000000000000000000, 0.0000000000000000000, 0.5000000000000001110 ) ) ;
#73 = DIRECTION ( 'NONE',  ( 1.000000000000000000, 0.0000000000000000000, 0.0000000000000000000 ) ) ;
#74 = AXIS2_PLACEMENT_3D ( 'NONE', #298, #112, #275 ) ;
#75 = LINE ( 'NONE', #46, #309 ) ;
#76 = DIRECTION ( 'NONE',  ( 0.0000000000000000000, 0.0000000000000000000, 1.000000000000000000 ) ) ;
#77 = CIRCLE ( 'NONE', #227, 0.2499999999999998890 ) ;
#78 = ORIENTED_EDGE ( 'NONE', *, *, #149, .T. ) ;
#79 = SURFACE_STYLE_USAGE ( .BOTH. , #185 ) ;
#80 = CONICAL_SURFACE ( 'NONE', #192, 0.3437499999999997224, 0.08904958263449799793 ) ;
#81 = EDGE_CURVE ( 'NONE', #134, #278, #250, .T. ) ;
#82 = ORIENTED_EDGE ( 'NONE', *, *, #81, .T. ) ;
#83 = CARTESIAN_POINT ( 'NONE',  ( 0.0000000000000000000, 0.0000000000000000000, 0.5000000000000001110 ) ) ;
#84 = ORIENTED_EDGE ( 'NONE', *, *, #146, .F. ) ;
#85 = CLOSED_SHELL ( 'NONE', ( #67, #113, #178, #323, #194, #164, #277, #13, #253, #273, #93 ) ) ;
#86 = AXIS2_PLACEMENT_3D ( 'NONE', #314, #258, #73 ) ;
#87 = DIRECTION ( 'NONE',  ( 0.0000000000000000000, 0.0000000000000000000, 1.000000000000000000 ) ) ;
#88 = DIRECTION ( 'NONE',  ( -1.000000000000000000, 0.0000000000000000000, 0.0000000000000000000 ) ) ;
#89 = CARTESIAN_POINT ( 'NONE',  ( 0.2499999999999998890, 0.0000000000000000000, 1.000000000000000000 ) ) ;
#90 = SURFACE_SIDE_STYLE ('',( #220 ) ) ;
#91 = AXIS2_PLACEMENT_3D ( 'NONE', #326, #210, #180 ) ;
#92 = CARTESIAN_POINT ( 'NONE',  ( 3.061616997868381785E-17, -0.2499999999999999167, 0.5000000000000001110 ) ) ;
#93 = ADVANCED_FACE ( 'NONE', ( #249 ), #105, .T. ) ;
#94 = DIRECTION ( 'NONE',  ( -0.08893193797450570093, 1.089102131824493708E-17, 0.9960377053144617854 ) ) ;
#95 = DIMENSIONAL_EXPONENTS ( 1.000000000000000000, 0.0000000000000000000, 0.0000000000000000000, 0.0000000000000000000, 0.0000000000000000000, 0.0000000000000000000, 0.0000000000000000000 ) ;
#96 = CARTESIAN_POINT ( 'NONE',  ( 0.0000000000000000000, 0.0000000000000000000, 4.000000000000000000 ) ) ;
#97 = EDGE_CURVE ( 'NONE', #193, #252, #147, .T. ) ;
#98 = PRODUCT_DEFINITION_CONTEXT ( 'detailed design', #40, 'design' ) ;
#99 = DIRECTION ( 'NONE',  ( -1.000000000000000000, 0.0000000000000000000, 0.0000000000000000000 ) ) ;
#100 = CIRCLE ( 'NONE', #86, 0.2974999999999997646 ) ;
#101 = DIRECTION ( 'NONE',  ( 0.08893193797450570093, 0.0000000000000000000, 0.9960377053144617854 ) ) ;
#102 = ORIENTED_EDGE ( 'NONE', *, *, #300, .T. ) ;
#103 = EDGE_CURVE ( 'NONE', #156, #247, #111, .T. ) ;
#104 = LINE ( 'NONE', #190, #191 ) ;
#105 = CONICAL_SURFACE ( 'NONE', #316, 0.2974999999999997646, 0.7853981633974482790 ) ;
#106 = ORIENTED_EDGE ( 'NONE', *, *, #127, .T. ) ;
#107 = FACE_OUTER_BOUND ( 'NONE', #59, .T. ) ;
#108 = EDGE_CURVE ( 'NONE', #247, #156, #286, .T. ) ;
#109 = ORIENTED_EDGE ( 'NONE', *, *, #97, .T. ) ;
#110 = ORIENTED_EDGE ( 'NONE', *, *, #239, .F. ) ;
#111 = CIRCLE ( 'NONE', #202, 0.3125000000000000000 ) ;
#112 = DIRECTION ( 'NONE',  ( 1.000000000000000000, 1.224646799147353207E-16, -0.0000000000000000000 ) ) ;
#113 = ADVANCED_FACE ( 'NONE', ( #121 ), #145, .T. ) ;
#114 = CYLINDRICAL_SURFACE ( 'NONE', #226, 0.2499999999999998890 ) ;
#115 = DIRECTION ( 'NONE',  ( 0.0000000000000000000, 0.0000000000000000000, 1.000000000000000000 ) ) ;
#116 = VECTOR ( 'NONE', #63, 39.37007874015748143 ) ;
#117 = DIRECTION ( 'NONE',  ( -0.0000000000000000000, -0.0000000000000000000, -1.000000000000000000 ) ) ;
#118 = DIRECTION ( 'NONE',  ( -1.000000000000000000, 0.0000000000000000000, 0.0000000000000000000 ) ) ;
#119 = DIRECTION ( 'NONE',  ( 0.0000000000000000000, 0.0000000000000000000, 1.000000000000000000 ) ) ;
#120 =( NAMED_UNIT ( * ) SI_UNIT ( $, .STERADIAN. ) SOLID_ANGLE_UNIT ( ) );
#121 = FACE_OUTER_BOUND ( 'NONE', #276, .T. ) ;
#122 = CARTESIAN_POINT ( 'NONE',  ( 0.0000000000000000000, 0.0000000000000000000, 0.0000000000000000000 ) ) ;
#123 = FACE_OUTER_BOUND ( 'NONE', #130, .T. ) ;
#124 = UNCERTAINTY_MEASURE_WITH_UNIT (LENGTH_MEASURE( 1.000000000000000082E-05 ), #267, 'distance_accuracy_value', 'NONE');
#125 = CONICAL_SURFACE ( 'NONE', #30, 0.3437499999999997224, 0.08904958263449799793 ) ;
#126 = CARTESIAN_POINT ( 'NONE',  ( 0.0000000000000000000, 0.0000000000000000000, 4.000000000000000000 ) ) ;
#127 = EDGE_CURVE ( 'NONE', #278, #134, #100, .T. ) ;
#128 = LINE ( 'NONE', #292, #302 ) ;
#129 = DIRECTION ( 'NONE',  ( -0.0000000000000000000, -0.0000000000000000000, -1.000000000000000000 ) ) ;
#130 = EDGE_LOOP ( 'NONE', ( #189, #169, #16, #327 ) ) ;
#131 = CARTESIAN_POINT ( 'NONE',  ( -0.3125000000000000000, 3.827021247335478926E-17, 1.699999999999999956 ) ) ;
#132 = VERTEX_POINT ( 'NONE', #233 ) ;
#133 = CARTESIAN_POINT ( 'NONE',  ( 0.3437499999999997224, 0.0000000000000000000, 2.049999999999995826 ) ) ;
#134 = VERTEX_POINT ( 'NONE', #50 ) ;
#135 = SURFACE_STYLE_USAGE ( .BOTH. , #90 ) ;
#136 = ORIENTED_EDGE ( 'NONE', *, *, #103, .F. ) ;
#137 = VECTOR ( 'NONE', #101, 39.37007874015748854 ) ;
#138 = ORIENTED_EDGE ( 'NONE', *, *, #127, .F. ) ;
#139 = EDGE_CURVE ( 'NONE', #200, #140, #77, .T. ) ;
#140 = VERTEX_POINT ( 'NONE', #89 ) ;
#141 = DIRECTION ( 'NONE',  ( 1.000000000000000000, 0.0000000000000000000, 0.0000000000000000000 ) ) ;
#142 = ORIENTED_EDGE ( 'NONE', *, *, #108, .F. ) ;
#143 = CARTESIAN_POINT ( 'NONE',  ( 0.0000000000000000000, 0.0000000000000000000, 1.000000000000000000 ) ) ;
#144 = SHAPE_DEFINITION_REPRESENTATION ( #28, #319 ) ;
#145 = CYLINDRICAL_SURFACE ( 'NONE', #245, 0.3125000000000000000 ) ;
#146 = EDGE_CURVE ( 'NONE', #134, #156, #287, .T. ) ;
#147 = CIRCLE ( 'NONE', #74, 0.3125000000000000000 ) ;
#148 = CARTESIAN_POINT ( 'NONE',  ( -0.3125000000000000000, 0.0000000000000000000, 3.984999999999999876 ) ) ;
#149 = EDGE_CURVE ( 'NONE', #200, #321, #75, .T. ) ;
#150 = DIRECTION ( 'NONE',  ( 1.000000000000000000, 0.0000000000000000000, 0.0000000000000000000 ) ) ;
#151 = DIRECTION ( 'NONE',  ( 1.000000000000000000, 0.0000000000000000000, 0.0000000000000000000 ) ) ;
#152 = CIRCLE ( 'NONE', #91, 0.2499999999999998890 ) ;
#153 = PRODUCT_DEFINITION_FORMATION_WITH_SPECIFIED_SOURCE ( 'ANY', '', #181, .NOT_KNOWN. ) ;
#154 = EDGE_CURVE ( 'NONE', #279, #132, #170, .T. ) ;
#155 = LENGTH_MEASURE_WITH_UNIT ( LENGTH_MEASURE( 0.02539999999999999897 ), #293 );
#156 = VERTEX_POINT ( 'NONE', #177 ) ;
#157 =( LENGTH_UNIT ( ) NAMED_UNIT ( * ) SI_UNIT ( $, .METRE. ) );
#158 = CIRCLE ( 'NONE', #343, 0.2499999999999998890 ) ;
#159 = VECTOR ( 'NONE', #308, 39.37007874015748143 ) ;
#160 = DIRECTION ( 'NONE',  ( -0.7071067811865475727, 0.0000000000000000000, -0.7071067811865474617 ) ) ;
#161 = EDGE_LOOP ( 'NONE', ( #54, #334, #8, #229 ) ) ;
#162 = EDGE_LOOP ( 'NONE', ( #84, #138, #294, #136 ) ) ;
#163 = PRESENTATION_STYLE_ASSIGNMENT (( #135 ) ) ;
#164 = ADVANCED_FACE ( 'NONE', ( #123 ), #237, .T. ) ;
#165 = DIRECTION ( 'NONE',  ( 0.0000000000000000000, 0.0000000000000000000, -1.000000000000000000 ) ) ;
#166 = CONICAL_SURFACE ( 'NONE', #33, 0.2974999999999997646, 0.7853981633974482790 ) ;
#167 = FACE_OUTER_BOUND ( 'NONE', #187, .T. ) ;
#168 = CARTESIAN_POINT ( 'NONE',  ( 0.0000000000000000000, 0.0000000000000000000, 4.000000000000000000 ) ) ;
#169 = ORIENTED_EDGE ( 'NONE', *, *, #239, .T. ) ;
#170 = CIRCLE ( 'NONE', #9, 0.3125000000000000000 ) ;
#171 = DIRECTION ( 'NONE',  ( -1.000000000000000000, 0.0000000000000000000, 0.0000000000000000000 ) ) ;
#172 = DIRECTION ( 'NONE',  ( -0.0000000000000000000, -0.0000000000000000000, -1.000000000000000000 ) ) ;
#173 = EDGE_CURVE ( 'NONE', #140, #200, #198, .T. ) ;
#174 = PRODUCT_CONTEXT ( 'NONE', #21, 'mechanical' ) ;
#175 = CARTESIAN_POINT ( 'NONE',  ( 0.0000000000000000000, 0.0000000000000000000, 1.699999999999999956 ) ) ;
#176 = VECTOR ( 'NONE', #160, 39.37007874015748143 ) ;
#177 = CARTESIAN_POINT ( 'NONE',  ( 0.3125000000000000000, 3.827021247335478926E-17, 3.984999999999999876 ) ) ;
#178 = ADVANCED_FACE ( 'NONE', ( #26 ), #208, .T. ) ;
#179 = CARTESIAN_POINT ( 'NONE',  ( 0.0000000000000000000, 0.0000000000000000000, 1.699999999999999956 ) ) ;
#180 = DIRECTION ( 'NONE',  ( -1.000000000000000000, 0.0000000000000000000, 0.0000000000000000000 ) ) ;
#181 = PRODUCT ( 'Micro_SBM-625-2X', 'Micro_SBM-625-2X', '', ( #174 ) ) ;
#182 = STYLED_ITEM ( 'NONE', ( #31 ), #262 ) ;
#183 = DIRECTION ( 'NONE',  ( 1.000000000000000000, 0.0000000000000000000, 0.0000000000000000000 ) ) ;
#184 = ORIENTED_EDGE ( 'NONE', *, *, #149, .F. ) ;
#185 = SURFACE_SIDE_STYLE ('',( #274 ) ) ;
#186 = EDGE_CURVE ( 'NONE', #132, #279, #269, .T. ) ;
#187 = EDGE_LOOP ( 'NONE', ( #228, #214, #78, #110, #265 ) ) ;
#188 =( NAMED_UNIT ( * ) PLANE_ANGLE_UNIT ( ) SI_UNIT ( $, .RADIAN. ) );
#189 = ORIENTED_EDGE ( 'NONE', *, *, #97, .F. ) ;
#190 = CARTESIAN_POINT ( 'NONE',  ( 0.3125000000000000000, 3.827021247335478926E-17, 4.000000000000000000 ) ) ;
#191 = VECTOR ( 'NONE', #36, 39.37007874015748143 ) ;
#192 = AXIS2_PLACEMENT_3D ( 'NONE', #324, #296, #11 ) ;
#193 = VERTEX_POINT ( 'NONE', #92 ) ;
#194 = ADVANCED_FACE ( 'NONE', ( #70 ), #51, .T. ) ;
#195 = CARTESIAN_POINT ( 'NONE',  ( 0.2499999999999998890, 3.061616997868381785E-17, 0.5000000000000001110 ) ) ;
#196 = DIRECTION ( 'NONE',  ( 1.000000000000000000, 0.0000000000000000000, 0.0000000000000000000 ) ) ;
#197 = ORIENTED_EDGE ( 'NONE', *, *, #154, .F. ) ;
#198 = CIRCLE ( 'NONE', #65, 0.2499999999999998890 ) ;
#199 = ORIENTED_EDGE ( 'NONE', *, *, #303, .T. ) ;
#200 = VERTEX_POINT ( 'NONE', #23 ) ;
#201 = DIRECTION ( 'NONE',  ( -0.0000000000000000000, -0.0000000000000000000, -1.000000000000000000 ) ) ;
#202 = AXIS2_PLACEMENT_3D ( 'NONE', #332, #39, #196 ) ;
#203 = FILL_AREA_STYLE ('',( #344 ) ) ;
#204 = DIRECTION ( 'NONE',  ( 0.0000000000000000000, 0.0000000000000000000, 1.000000000000000000 ) ) ;
#205 = DIRECTION ( 'NONE',  ( -0.0000000000000000000, -0.0000000000000000000, -1.000000000000000000 ) ) ;
#206 = DIRECTION ( 'NONE',  ( 1.000000000000000000, 0.0000000000000000000, 0.0000000000000000000 ) ) ;
#207 = AXIS2_PLACEMENT_3D ( 'NONE', #122, #205, #20 ) ;
#208 = CYLINDRICAL_SURFACE ( 'NONE', #207, 0.2499999999999998890 ) ;
#209 = FACE_OUTER_BOUND ( 'NONE', #280, .T. ) ;
#210 = DIRECTION ( 'NONE',  ( -0.0000000000000000000, -0.0000000000000000000, -1.000000000000000000 ) ) ;
#211 = ORIENTED_EDGE ( 'NONE', *, *, #139, .T. ) ;
#212 = AXIS2_PLACEMENT_3D ( 'NONE', #52, #7, #264 ) ;
#213 = LINE ( 'NONE', #133, #137 ) ;
#214 = ORIENTED_EDGE ( 'NONE', *, *, #173, .T. ) ;
#215 = CARTESIAN_POINT ( 'NONE',  ( -0.2499999999999998890, 0.0000000000000000000, 0.5000000000000001110 ) ) ;
#216 = ORIENTED_EDGE ( 'NONE', *, *, #219, .F. ) ;
#217 = CARTESIAN_POINT ( 'NONE',  ( -0.2974999999999997646, 0.0000000000000000000, 4.000000000000000000 ) ) ;
#218 = EDGE_LOOP ( 'NONE', ( #211, #272, #268, #66, #184 ) ) ;
#219 = EDGE_CURVE ( 'NONE', #200, #279, #263, .T. ) ;
#220 = SURFACE_STYLE_FILL_AREA ( #203 ) ;
#221 = ORIENTED_EDGE ( 'NONE', *, *, #81, .F. ) ;
#222 = DIRECTION ( 'NONE',  ( 0.0000000000000000000, 0.0000000000000000000, 1.000000000000000000 ) ) ;
#223 = FACE_OUTER_BOUND ( 'NONE', #12, .T. ) ;
#224 = ORIENTED_EDGE ( 'NONE', *, *, #146, .T. ) ;
#225 = CARTESIAN_POINT ( 'NONE',  ( 0.2499999999999998890, 3.061616997868381785E-17, 0.0000000000000000000 ) ) ;
#226 = AXIS2_PLACEMENT_3D ( 'NONE', #305, #117, #18 ) ;
#227 = AXIS2_PLACEMENT_3D ( 'NONE', #143, #254, #71 ) ;
#228 = ORIENTED_EDGE ( 'NONE', *, *, #56, .F. ) ;
#229 = ORIENTED_EDGE ( 'NONE', *, *, #154, .T. ) ;
#230 = CARTESIAN_POINT ( 'NONE',  ( 0.0000000000000000000, 0.0000000000000000000, 0.3125000000000000000 ) ) ;
#231 = AXIS2_PLACEMENT_3D ( 'NONE', #61, #76, #242 ) ;
#232 =( LENGTH_UNIT ( ) NAMED_UNIT ( * ) SI_UNIT ( $, .METRE. ) );
#233 = CARTESIAN_POINT ( 'NONE',  ( 0.3125000000000000000, 0.0000000000000000000, 1.699999999999999956 ) ) ;
#234 = CARTESIAN_POINT ( 'NONE',  ( 0.0000000000000000000, 1.913510623667739463E-17, 0.0000000000000000000 ) ) ;
#235 = PRODUCT_DEFINITION ( 'UNKNOWN', '', #153, #98 ) ;
#236 = CIRCLE ( 'NONE', #212, 0.2499999999999998890 ) ;
#237 = SPHERICAL_SURFACE ( 'NONE', #322, 0.3125000000000000000 ) ;
#238 =( NAMED_UNIT ( * ) SI_UNIT ( $, .STERADIAN. ) SOLID_ANGLE_UNIT ( ) );
#239 = EDGE_CURVE ( 'NONE', #193, #321, #342, .T. ) ;
#240 = ORIENTED_EDGE ( 'NONE', *, *, #25, .F. ) ;
#241 = AXIS2_PLACEMENT_3D ( 'NONE', #168, #87, #141 ) ;
#242 = DIRECTION ( 'NONE',  ( 1.000000000000000000, 0.0000000000000000000, -0.0000000000000000000 ) ) ;
#243 = ORIENTED_EDGE ( 'NONE', *, *, #173, .F. ) ;
#244 = LINE ( 'NONE', #217, #176 ) ;
#245 = AXIS2_PLACEMENT_3D ( 'NONE', #96, #27, #260 ) ;
#246 = ORIENTED_EDGE ( 'NONE', *, *, #139, .F. ) ;
#247 = VERTEX_POINT ( 'NONE', #148 ) ;
#248 = EDGE_LOOP ( 'NONE', ( #216, #243, #10, #197 ) ) ;
#249 = FACE_OUTER_BOUND ( 'NONE', #162, .T. ) ;
#250 = CIRCLE ( 'NONE', #241, 0.2974999999999997646 ) ;
#251 =( GEOMETRIC_REPRESENTATION_CONTEXT ( 3 ) GLOBAL_UNCERTAINTY_ASSIGNED_CONTEXT ( ( #124 ) ) GLOBAL_UNIT_ASSIGNED_CONTEXT ( ( #267, #14, #329 ) ) REPRESENTATION_CONTEXT ( 'NONE', 'WORKASPACE' ) );
#252 = VERTEX_POINT ( 'NONE', #234 ) ;
#253 = ADVANCED_FACE ( 'NONE', ( #29 ), #2, .T. ) ;
#254 = DIRECTION ( 'NONE',  ( -0.0000000000000000000, -0.0000000000000000000, -1.000000000000000000 ) ) ;
#255 =( CONVERSION_BASED_UNIT ( 'INCH', #310 ) LENGTH_UNIT ( ) NAMED_UNIT ( #95 ) );
#256 = CARTESIAN_POINT ( 'NONE',  ( 0.0000000000000000000, 0.0000000000000000000, 0.3125000000000000000 ) ) ;
#257 = MECHANICAL_DESIGN_GEOMETRIC_PRESENTATION_REPRESENTATION (  '', ( #182 ), #336 ) ;
#258 = DIRECTION ( 'NONE',  ( 0.0000000000000000000, 0.0000000000000000000, 1.000000000000000000 ) ) ;
#259 = PRODUCT_RELATED_PRODUCT_CATEGORY ( 'part', '', ( #181 ) ) ;
#260 = DIRECTION ( 'NONE',  ( -1.000000000000000000, 0.0000000000000000000, 0.0000000000000000000 ) ) ;
#261 = UNCERTAINTY_MEASURE_WITH_UNIT (LENGTH_MEASURE( 1.000000000000000082E-05 ), #55, 'distance_accuracy_value', 'NONE');
#262 = MANIFOLD_SOLID_BREP ( 'Cut-Revolve3', #85 ) ;
#263 = LINE ( 'NONE', #1, #60 ) ;
#264 = DIRECTION ( 'NONE',  ( -1.000000000000000000, 0.0000000000000000000, 0.0000000000000000000 ) ) ;
#265 = ORIENTED_EDGE ( 'NONE', *, *, #300, .F. ) ;
#266 = FACE_OUTER_BOUND ( 'NONE', #248, .T. ) ;
#267 =( CONVERSION_BASED_UNIT ( 'INCH', #155 ) LENGTH_UNIT ( ) NAMED_UNIT ( #48 ) );
#268 = ORIENTED_EDGE ( 'NONE', *, *, #37, .F. ) ;
#269 = CIRCLE ( 'NONE', #290, 0.3125000000000000000 ) ;
#270 = CARTESIAN_POINT ( 'NONE',  ( -0.2974999999999997646, 0.0000000000000000000, 4.000000000000000000 ) ) ;
#271 = PRESENTATION_LAYER_ASSIGNMENT (  '', '', ( #34 ) ) ;
#272 = ORIENTED_EDGE ( 'NONE', *, *, #56, .T. ) ;
#273 = ADVANCED_FACE ( 'NONE', ( #107 ), #281, .T. ) ;
#274 = SURFACE_STYLE_FILL_AREA ( #289 ) ;
#275 = DIRECTION ( 'NONE',  ( -1.224646799147353207E-16, 1.000000000000000000, 0.0000000000000000000 ) ) ;
#276 = EDGE_LOOP ( 'NONE', ( #330, #199, #17, #304 ) ) ;
#277 = ADVANCED_FACE ( 'NONE', ( #266 ), #80, .T. ) ;
#278 = VERTEX_POINT ( 'NONE', #270 ) ;
#279 = VERTEX_POINT ( 'NONE', #131 ) ;
#280 = EDGE_LOOP ( 'NONE', ( #246, #57, #297, #325 ) ) ;
#281 = PLANE ( 'NONE',  #231 ) ;
#282 = DIRECTION ( 'NONE',  ( 1.000000000000000000, 0.0000000000000000000, 0.0000000000000000000 ) ) ;
#283 = CARTESIAN_POINT ( 'NONE',  ( 0.2974999999999997646, 3.643324227463372038E-17, 4.000000000000000000 ) ) ;
#284 = EDGE_CURVE ( 'NONE', #278, #247, #244, .T. ) ;
#285 = DIRECTION ( 'NONE',  ( -0.0000000000000000000, -0.0000000000000000000, -1.000000000000000000 ) ) ;
#286 = CIRCLE ( 'NONE', #53, 0.3125000000000000000 ) ;
#287 = LINE ( 'NONE', #283, #159 ) ;
#288 = DIRECTION ( 'NONE',  ( 1.000000000000000000, 0.0000000000000000000, 0.0000000000000000000 ) ) ;
#289 = FILL_AREA_STYLE ('',( #58 ) ) ;
#290 = AXIS2_PLACEMENT_3D ( 'NONE', #179, #119, #288 ) ;
#291 =( GEOMETRIC_REPRESENTATION_CONTEXT ( 3 ) GLOBAL_UNCERTAINTY_ASSIGNED_CONTEXT ( ( #5 ) ) GLOBAL_UNIT_ASSIGNED_CONTEXT ( ( #255, #331, #120 ) ) REPRESENTATION_CONTEXT ( 'NONE', 'WORKASPACE' ) );
#292 = CARTESIAN_POINT ( 'NONE',  ( -0.3125000000000000000, 0.0000000000000000000, 4.000000000000000000 ) ) ;
#293 =( LENGTH_UNIT ( ) NAMED_UNIT ( * ) SI_UNIT ( $, .METRE. ) );
#294 = ORIENTED_EDGE ( 'NONE', *, *, #284, .T. ) ;
#295 = AXIS2_PLACEMENT_3D ( 'NONE', #72, #285, #47 ) ;
#296 = DIRECTION ( 'NONE',  ( 0.0000000000000000000, 0.0000000000000000000, 1.000000000000000000 ) ) ;
#297 = ORIENTED_EDGE ( 'NONE', *, *, #186, .F. ) ;
#298 = CARTESIAN_POINT ( 'NONE',  ( 0.0000000000000000000, 0.0000000000000000000, 0.3125000000000000000 ) ) ;
#299 = APPLICATION_PROTOCOL_DEFINITION ( 'draft international standard', 'automotive_design', 1998, #40 ) ;
#300 = EDGE_CURVE ( 'NONE', #45, #193, #152, .T. ) ;
#301 = DIRECTION ( 'NONE',  ( 0.0000000000000000000, 0.0000000000000000000, -1.000000000000000000 ) ) ;
#302 = VECTOR ( 'NONE', #129, 39.37007874015748143 ) ;
#303 = EDGE_CURVE ( 'NONE', #156, #132, #104, .T. ) ;
#304 = ORIENTED_EDGE ( 'NONE', *, *, #345, .F. ) ;
#305 = CARTESIAN_POINT ( 'NONE',  ( 0.0000000000000000000, 0.0000000000000000000, 0.0000000000000000000 ) ) ;
#306 = CARTESIAN_POINT ( 'NONE',  ( 0.0000000000000000000, 0.0000000000000000000, 4.000000000000000000 ) ) ;
#307 = EDGE_CURVE ( 'NONE', #140, #132, #213, .T. ) ;
#308 = DIRECTION ( 'NONE',  ( 0.7071067811865475727, 8.659560562354932858E-17, -0.7071067811865474617 ) ) ;
#309 = VECTOR ( 'NONE', #172, 39.37007874015748143 ) ;
#310 = LENGTH_MEASURE_WITH_UNIT ( LENGTH_MEASURE( 0.02539999999999999897 ), #232 );
#311 = DIRECTION ( 'NONE',  ( -0.0000000000000000000, -0.0000000000000000000, -1.000000000000000000 ) ) ;
#312 = CARTESIAN_POINT ( 'NONE',  ( 0.0000000000000000000, 0.0000000000000000000, 1.000000000000000000 ) ) ;
#313 = EDGE_CURVE ( 'NONE', #321, #19, #236, .T. ) ;
#314 = CARTESIAN_POINT ( 'NONE',  ( 0.0000000000000000000, 0.0000000000000000000, 4.000000000000000000 ) ) ;
#315 = AXIS2_PLACEMENT_3D ( 'NONE', #340, #118, #115 ) ;
#316 = AXIS2_PLACEMENT_3D ( 'NONE', #306, #301, #69 ) ;
#317 = DIRECTION ( 'NONE',  ( 1.000000000000000000, 0.0000000000000000000, 0.0000000000000000000 ) ) ;
#318 = LENGTH_MEASURE_WITH_UNIT ( LENGTH_MEASURE( 0.02539999999999999897 ), #157 );
#319 = ADVANCED_BREP_SHAPE_REPRESENTATION ( 'Micro_SBM-625-2X', ( #262, #49 ), #251 ) ;
#320 = DIRECTION ( 'NONE',  ( 0.0000000000000000000, 0.0000000000000000000, 1.000000000000000000 ) ) ;
#321 = VERTEX_POINT ( 'NONE', #215 ) ;
#322 = AXIS2_PLACEMENT_3D ( 'NONE', #230, #317, #3 ) ;
#323 = ADVANCED_FACE ( 'NONE', ( #209 ), #125, .T. ) ;
#324 = CARTESIAN_POINT ( 'NONE',  ( 0.0000000000000000000, 0.0000000000000000000, 2.049999999999995826 ) ) ;
#325 = ORIENTED_EDGE ( 'NONE', *, *, #307, .F. ) ;
#326 = CARTESIAN_POINT ( 'NONE',  ( 0.0000000000000000000, 0.0000000000000000000, 0.5000000000000001110 ) ) ;
#327 = ORIENTED_EDGE ( 'NONE', *, *, #25, .T. ) ;
#328 = MECHANICAL_DESIGN_GEOMETRIC_PRESENTATION_REPRESENTATION (  '', ( #34 ), #291 ) ;
#329 =( NAMED_UNIT ( * ) SI_UNIT ( $, .STERADIAN. ) SOLID_ANGLE_UNIT ( ) );
#330 = ORIENTED_EDGE ( 'NONE', *, *, #108, .T. ) ;
#331 =( NAMED_UNIT ( * ) PLANE_ANGLE_UNIT ( ) SI_UNIT ( $, .RADIAN. ) );
#332 = CARTESIAN_POINT ( 'NONE',  ( 0.0000000000000000000, 0.0000000000000000000, 3.984999999999999876 ) ) ;
#333 = CARTESIAN_POINT ( 'NONE',  ( 0.0000000000000000000, 0.0000000000000000000, 0.0000000000000000000 ) ) ;
#334 = ORIENTED_EDGE ( 'NONE', *, *, #103, .T. ) ;
#335 = CIRCLE ( 'NONE', #315, 0.3125000000000000000 ) ;
#336 =( GEOMETRIC_REPRESENTATION_CONTEXT ( 3 ) GLOBAL_UNCERTAINTY_ASSIGNED_CONTEXT ( ( #261 ) ) GLOBAL_UNIT_ASSIGNED_CONTEXT ( ( #55, #188, #238 ) ) REPRESENTATION_CONTEXT ( 'NONE', 'WORKASPACE' ) );
#337 = COLOUR_RGB ( '',0.7921568627450980005, 0.8196078431372548767, 0.9333333333333333481 ) ;
#338 = CARTESIAN_POINT ( 'NONE',  ( 0.0000000000000000000, 0.0000000000000000000, 4.000000000000000000 ) ) ;
#339 = DIRECTION ( 'NONE',  ( -1.000000000000000000, 0.0000000000000000000, 0.0000000000000000000 ) ) ;
#340 = CARTESIAN_POINT ( 'NONE',  ( 0.0000000000000000000, 0.0000000000000000000, 0.3125000000000000000 ) ) ;
#341 = DIRECTION ( 'NONE',  ( 0.0000000000000000000, 1.000000000000000000, 0.0000000000000000000 ) ) ;
#342 = CIRCLE ( 'NONE', #295, 0.2499999999999998890 ) ;
#343 = AXIS2_PLACEMENT_3D ( 'NONE', #83, #15, #88 ) ;
#344 = FILL_AREA_STYLE_COLOUR ( '', #337 ) ;
#345 = EDGE_CURVE ( 'NONE', #247, #279, #128, .T. ) ;
ENDSEC;
END-ISO-10303-21;
