ISO-10303-21;
HEADER;
FILE_DESCRIPTION (( 'STEP AP214' ),
    '1' );
FILE_NAME ('Micro_SFLM-050-70.STEP',
    '2021-09-02T05:42:42',
    ( '' ),
    ( '' ),
    'SwSTEP 2.0',
    'SolidWorks 2020',
    '' );
FILE_SCHEMA (( 'AUTOMOTIVE_DESIGN' ));
ENDSEC;

DATA;
#1 = LINE ( 'NONE', #187, #18 ) ;
#2 = CIRCLE ( 'NONE', #190, 0.1424804999999998989 ) ;
#3 = CYLINDRICAL_SURFACE ( 'NONE', #54, 0.1574804999999999955 ) ;
#4 = LINE ( 'NONE', #213, #186 ) ;
#5 = VERTEX_POINT ( 'NONE', #136 ) ;
#6 = ORIENTED_EDGE ( 'NONE', *, *, #264, .T. ) ;
#7 = AXIS2_PLACEMENT_3D ( 'NONE', #39, #89, #15 ) ;
#8 = ORIENTED_EDGE ( 'NONE', *, *, #151, .T. ) ;
#9 = SURFACE_SIDE_STYLE ('',( #262 ) ) ;
#10 = VERTEX_POINT ( 'NONE', #85 ) ;
#11 =( CONVERSION_BASED_UNIT ( 'INCH', #14 ) LENGTH_UNIT ( ) NAMED_UNIT ( #124 ) );
#12 = VECTOR ( 'NONE', #161, 39.37007874015748143 ) ;
#13 = MECHANICAL_DESIGN_GEOMETRIC_PRESENTATION_REPRESENTATION (  '', ( #55 ), #171 ) ;
#14 = LENGTH_MEASURE_WITH_UNIT ( LENGTH_MEASURE( 0.02539999999999999897 ), #220 );
#15 = DIRECTION ( 'NONE',  ( 1.000000000000000000, 0.0000000000000000000, 0.0000000000000000000 ) ) ;
#16 = ORIENTED_EDGE ( 'NONE', *, *, #298, .F. ) ;
#17 = SURFACE_SIDE_STYLE ('',( #177 ) ) ;
#18 = VECTOR ( 'NONE', #277, 39.37007874015748143 ) ;
#19 = ADVANCED_FACE ( 'NONE', ( #88 ), #146, .T. ) ;
#20 = CARTESIAN_POINT ( 'NONE',  ( 0.0000000000000000000, 0.0000000000000000000, 0.0000000000000000000 ) ) ;
#21 = EDGE_CURVE ( 'NONE', #237, #62, #105, .T. ) ;
#22 = LINE ( 'NONE', #248, #240 ) ;
#23 = AXIS2_PLACEMENT_3D ( 'NONE', #205, #93, #47 ) ;
#24 = DIRECTION ( 'NONE',  ( 0.0000000000000000000, 0.0000000000000000000, -1.000000000000000000 ) ) ;
#25 = MANIFOLD_SOLID_BREP ( 'Cut-Revolve1', #197 ) ;
#26 = CARTESIAN_POINT ( 'NONE',  ( 0.1424804999999998989, 1.744882882659143297E-17, 3.740156999999999954 ) ) ;
#27 = PRODUCT_RELATED_PRODUCT_CATEGORY ( 'part', '', ( #45 ) ) ;
#28 = LINE ( 'NONE', #163, #49 ) ;
#29 = DIRECTION ( 'NONE',  ( 0.0000000000000000000, 0.0000000000000000000, -1.000000000000000000 ) ) ;
#30 =( LENGTH_UNIT ( ) NAMED_UNIT ( * ) SI_UNIT ( $, .METRE. ) );
#31 = EDGE_LOOP ( 'NONE', ( #169, #261, #284, #245 ) ) ;
#32 = DIRECTION ( 'NONE',  ( -1.224646799147353207E-16, -0.0000000000000000000, -1.000000000000000000 ) ) ;
#33 = CIRCLE ( 'NONE', #73, 0.1424804999999998989 ) ;
#34 = ORIENTED_EDGE ( 'NONE', *, *, #193, .T. ) ;
#35 = FILL_AREA_STYLE ('',( #215 ) ) ;
#36 = ORIENTED_EDGE ( 'NONE', *, *, #235, .T. ) ;
#37 = AXIS2_PLACEMENT_3D ( 'NONE', #166, #32, #81 ) ;
#38 = DIRECTION ( 'NONE',  ( -1.000000000000000000, 0.0000000000000000000, 0.0000000000000000000 ) ) ;
#39 = CARTESIAN_POINT ( 'NONE',  ( 0.0000000000000000000, 0.0000000000000000000, 3.725156999999999829 ) ) ;
#40 = EDGE_CURVE ( 'NONE', #10, #221, #291, .T. ) ;
#41 = ORIENTED_EDGE ( 'NONE', *, *, #40, .T. ) ;
#42 = FACE_OUTER_BOUND ( 'NONE', #82, .T. ) ;
#43 = AXIS2_PLACEMENT_3D ( 'NONE', #120, #29, #258 ) ;
#44 = PRODUCT_DEFINITION_FORMATION_WITH_SPECIFIED_SOURCE ( 'ANY', '', #45, .NOT_KNOWN. ) ;
#45 = PRODUCT ( 'Micro_SFLM-050-70', 'Micro_SFLM-050-70', '', ( #63 ) ) ;
#46 = DIRECTION ( 'NONE',  ( -0.0000000000000000000, -0.0000000000000000000, -1.000000000000000000 ) ) ;
#47 = DIRECTION ( 'NONE',  ( -1.000000000000000000, 0.0000000000000000000, 1.224646799147353207E-16 ) ) ;
#48 = DIRECTION ( 'NONE',  ( 0.1736481776669313581, 0.0000000000000000000, 0.9848077530122077983 ) ) ;
#49 = VECTOR ( 'NONE', #48, 39.37007874015748143 ) ;
#50 = CARTESIAN_POINT ( 'NONE',  ( 0.0000000000000000000, 0.0000000000000000000, 3.740156999999999954 ) ) ;
#51 = CARTESIAN_POINT ( 'NONE',  ( 1.474662427518848307E-33, 0.0000000000000000000, 1.204153253448721512E-17 ) ) ;
#52 = LINE ( 'NONE', #95, #91 ) ;
#53 = VERTEX_POINT ( 'NONE', #222 ) ;
#54 = AXIS2_PLACEMENT_3D ( 'NONE', #181, #271, #216 ) ;
#55 = STYLED_ITEM ( 'NONE', ( #152 ), #129 ) ;
#56 = LENGTH_MEASURE_WITH_UNIT ( LENGTH_MEASURE( 0.02539999999999999897 ), #30 );
#57 = ORIENTED_EDGE ( 'NONE', *, *, #232, .T. ) ;
#58 =( NAMED_UNIT ( * ) PLANE_ANGLE_UNIT ( ) SI_UNIT ( $, .RADIAN. ) );
#59 = ORIENTED_EDGE ( 'NONE', *, *, #21, .T. ) ;
#60 = APPLICATION_PROTOCOL_DEFINITION ( 'draft international standard', 'automotive_design', 1998, #130 ) ;
#61 = CONICAL_SURFACE ( 'NONE', #211, 0.09832657499999998552, 0.1745329251994338637 ) ;
#62 = VERTEX_POINT ( 'NONE', #153 ) ;
#63 = PRODUCT_CONTEXT ( 'NONE', #226, 'mechanical' ) ;
#64 = VERTEX_POINT ( 'NONE', #200 ) ;
#65 = ORIENTED_EDGE ( 'NONE', *, *, #275, .T. ) ;
#66 = CARTESIAN_POINT ( 'NONE',  ( 0.0000000000000000000, 0.0000000000000000000, 3.740156999999999954 ) ) ;
#67 = FACE_OUTER_BOUND ( 'NONE', #236, .T. ) ;
#68 = AXIS2_PLACEMENT_3D ( 'NONE', #209, #189, #188 ) ;
#69 = AXIS2_PLACEMENT_3D ( 'NONE', #288, #84, #176 ) ;
#70 = FACE_OUTER_BOUND ( 'NONE', #127, .T. ) ;
#71 = DIRECTION ( 'NONE',  ( -1.224646799147353207E-16, -0.0000000000000000000, -1.000000000000000000 ) ) ;
#72 = CARTESIAN_POINT ( 'NONE',  ( 0.09832657499999998552, 1.204153253448721512E-17, -1.204153253448721512E-17 ) ) ;
#73 = AXIS2_PLACEMENT_3D ( 'NONE', #50, #297, #92 ) ;
#74 = PRESENTATION_LAYER_ASSIGNMENT (  '', '', ( #55 ) ) ;
#75 = ADVANCED_FACE ( 'NONE', ( #180 ), #270, .T. ) ;
#76 = CARTESIAN_POINT ( 'NONE',  ( 0.0000000000000000000, 0.0000000000000000000, 3.725156999999999829 ) ) ;
#77 = DIRECTION ( 'NONE',  ( -1.224646799147353207E-16, -0.0000000000000000000, -1.000000000000000000 ) ) ;
#78 = ADVANCED_FACE ( 'NONE', ( #42 ), #225, .T. ) ;
#79 = VECTOR ( 'NONE', #77, 39.37007874015748143 ) ;
#80 = EDGE_CURVE ( 'NONE', #237, #196, #22, .T. ) ;
#81 = DIRECTION ( 'NONE',  ( -1.000000000000000000, 0.0000000000000000000, 0.0000000000000000000 ) ) ;
#82 = EDGE_LOOP ( 'NONE', ( #59, #128, #243, #191 ) ) ;
#83 = ORIENTED_EDGE ( 'NONE', *, *, #264, .F. ) ;
#84 = DIRECTION ( 'NONE',  ( 0.0000000000000000000, 0.0000000000000000000, 1.000000000000000000 ) ) ;
#85 = CARTESIAN_POINT ( 'NONE',  ( 0.09832657500000009654, 0.0000000000000000000, 0.7874019999999999353 ) ) ;
#86 = ADVANCED_FACE ( 'NONE', ( #67 ), #117, .F. ) ;
#87 = PRESENTATION_LAYER_ASSIGNMENT (  '', '', ( #267 ) ) ;
#88 = FACE_OUTER_BOUND ( 'NONE', #137, .T. ) ;
#89 = DIRECTION ( 'NONE',  ( 0.0000000000000000000, 0.0000000000000000000, -1.000000000000000000 ) ) ;
#90 = CARTESIAN_POINT ( 'NONE',  ( 0.0000000000000000000, 0.0000000000000000000, 3.740156999999999954 ) ) ;
#91 = VECTOR ( 'NONE', #279, 39.37007874015747433 ) ;
#92 = DIRECTION ( 'NONE',  ( 1.000000000000000000, 0.0000000000000000000, 0.0000000000000000000 ) ) ;
#93 = DIRECTION ( 'NONE',  ( -1.224646799147353207E-16, -0.0000000000000000000, -1.000000000000000000 ) ) ;
#94 = DIRECTION ( 'NONE',  ( 0.0000000000000000000, 0.0000000000000000000, -1.000000000000000000 ) ) ;
#95 = CARTESIAN_POINT ( 'NONE',  ( -0.09832657499999988837, 1.204153253448721512E-17, 0.7874019999999999353 ) ) ;
#96 = DIMENSIONAL_EXPONENTS ( 1.000000000000000000, 0.0000000000000000000, 0.0000000000000000000, 0.0000000000000000000, 0.0000000000000000000, 0.0000000000000000000, 0.0000000000000000000 ) ;
#97 = DIRECTION ( 'NONE',  ( -0.7071067811865563435, 0.0000000000000000000, -0.7071067811865386910 ) ) ;
#98 = AXIS2_PLACEMENT_3D ( 'NONE', #299, #71, #160 ) ;
#99 =( CONVERSION_BASED_UNIT ( 'INCH', #56 ) LENGTH_UNIT ( ) NAMED_UNIT ( #96 ) );
#100 = ORIENTED_EDGE ( 'NONE', *, *, #151, .F. ) ;
#101 = ORIENTED_EDGE ( 'NONE', *, *, #132, .T. ) ;
#102 = SURFACE_STYLE_USAGE ( .BOTH. , #9 ) ;
#103 = CARTESIAN_POINT ( 'NONE',  ( -0.1424804999999998989, 0.0000000000000000000, 3.740156999999999954 ) ) ;
#104 =( NAMED_UNIT ( * ) SI_UNIT ( $, .STERADIAN. ) SOLID_ANGLE_UNIT ( ) );
#105 = CIRCLE ( 'NONE', #7, 0.1574804999999999955 ) ;
#106 =( CONVERSION_BASED_UNIT ( 'INCH', #150 ) LENGTH_UNIT ( ) NAMED_UNIT ( #282 ) );
#107 =( NAMED_UNIT ( * ) PLANE_ANGLE_UNIT ( ) SI_UNIT ( $, .RADIAN. ) );
#108 = FILL_AREA_STYLE ('',( #242 ) ) ;
#109 = SURFACE_STYLE_USAGE ( .BOTH. , #17 ) ;
#110 = CIRCLE ( 'NONE', #98, 0.1574804999999999955 ) ;
#111 = CARTESIAN_POINT ( 'NONE',  ( 9.642893389422242582E-17, 0.0000000000000000000, 0.7874019999999999353 ) ) ;
#112 = CARTESIAN_POINT ( 'NONE',  ( 0.0000000000000000000, 0.0000000000000000000, 3.740156999999999954 ) ) ;
#113 = DIRECTION ( 'NONE',  ( -1.000000000000000000, 0.0000000000000000000, 1.224646799147353207E-16 ) ) ;
#114 = DIRECTION ( 'NONE',  ( -1.000000000000000000, 0.0000000000000000000, 1.224646799147353207E-16 ) ) ;
#115 = CARTESIAN_POINT ( 'NONE',  ( 9.642893389422242582E-17, 0.0000000000000000000, 0.7874019999999999353 ) ) ;
#116 = DIRECTION ( 'NONE',  ( 0.7071067811865563435, 8.659560562355041327E-17, -0.7071067811865386910 ) ) ;
#117 = PLANE ( 'NONE',  #234 ) ;
#118 =( GEOMETRIC_REPRESENTATION_CONTEXT ( 3 ) GLOBAL_UNCERTAINTY_ASSIGNED_CONTEXT ( ( #168 ) ) GLOBAL_UNIT_ASSIGNED_CONTEXT ( ( #99, #58, #174 ) ) REPRESENTATION_CONTEXT ( 'NONE', 'WORKASPACE' ) );
#119 = PRODUCT_DEFINITION ( 'UNKNOWN', '', #44, #199 ) ;
#120 = CARTESIAN_POINT ( 'NONE',  ( 0.0000000000000000000, 0.0000000000000000000, 3.740156999999999954 ) ) ;
#121 = ORIENTED_EDGE ( 'NONE', *, *, #179, .F. ) ;
#122 = CARTESIAN_POINT ( 'NONE',  ( -0.09832657499999998552, 0.0000000000000000000, 1.204153253448721512E-17 ) ) ;
#123 = EDGE_LOOP ( 'NONE', ( #214, #41, #293, #212 ) ) ;
#124 = DIMENSIONAL_EXPONENTS ( 1.000000000000000000, 0.0000000000000000000, 0.0000000000000000000, 0.0000000000000000000, 0.0000000000000000000, 0.0000000000000000000, 0.0000000000000000000 ) ;
#125 = COLOUR_RGB ( '',0.7921568627450980005, 0.8196078431372548767, 0.9333333333333333481 ) ;
#126 = ADVANCED_FACE ( 'NONE', ( #273 ), #184, .T. ) ;
#127 = EDGE_LOOP ( 'NONE', ( #278, #57, #100, #16 ) ) ;
#128 = ORIENTED_EDGE ( 'NONE', *, *, #239, .T. ) ;
#129 = ADVANCED_BREP_SHAPE_REPRESENTATION ( 'Micro_SFLM-050-70', ( #25, #69 ), #118 ) ;
#130 = APPLICATION_CONTEXT ( 'automotive_design' ) ;
#131 = CARTESIAN_POINT ( 'NONE',  ( 9.642893389422242582E-17, 0.0000000000000000000, 0.7874019999999999353 ) ) ;
#132 = EDGE_CURVE ( 'NONE', #10, #5, #28, .T. ) ;
#133 = AXIS2_PLACEMENT_3D ( 'NONE', #131, #268, #218 ) ;
#134 = ORIENTED_EDGE ( 'NONE', *, *, #21, .F. ) ;
#135 =( NAMED_UNIT ( * ) SI_UNIT ( $, .STERADIAN. ) SOLID_ANGLE_UNIT ( ) );
#136 = CARTESIAN_POINT ( 'NONE',  ( 0.1574805000000001343, 1.928579902531249261E-17, 1.122880579411527524 ) ) ;
#137 = EDGE_LOOP ( 'NONE', ( #289, #6, #65, #194 ) ) ;
#138 = CARTESIAN_POINT ( 'NONE',  ( 0.0000000000000000000, 0.0000000000000000000, 0.0000000000000000000 ) ) ;
#139 = DIRECTION ( 'NONE',  ( 1.224646799147353207E-16, 0.0000000000000000000, 1.000000000000000000 ) ) ;
#140 = AXIS2_PLACEMENT_3D ( 'NONE', #111, #195, #38 ) ;
#141 = DIRECTION ( 'NONE',  ( -1.224646799147353207E-16, -0.0000000000000000000, -1.000000000000000000 ) ) ;
#142 = CARTESIAN_POINT ( 'NONE',  ( 0.09832657499999998552, 1.204153253448721512E-17, 0.0000000000000000000 ) ) ;
#143 = FACE_OUTER_BOUND ( 'NONE', #281, .T. ) ;
#144 = EDGE_CURVE ( 'NONE', #223, #64, #157, .T. ) ;
#145 = FACE_OUTER_BOUND ( 'NONE', #147, .T. ) ;
#146 = CONICAL_SURFACE ( 'NONE', #133, 0.09832657499999998552, 0.1745329251994338637 ) ;
#147 = EDGE_LOOP ( 'NONE', ( #173, #121, #241, #286 ) ) ;
#148 = VECTOR ( 'NONE', #116, 39.37007874015748143 ) ;
#149 = SHAPE_DEFINITION_REPRESENTATION ( #198, #129 ) ;
#150 = LENGTH_MEASURE_WITH_UNIT ( LENGTH_MEASURE( 0.02539999999999999897 ), #290 );
#151 = EDGE_CURVE ( 'NONE', #64, #223, #207, .T. ) ;
#152 = PRESENTATION_STYLE_ASSIGNMENT (( #102 ) ) ;
#153 = CARTESIAN_POINT ( 'NONE',  ( 0.1574804999999999955, 1.928579902531247412E-17, 3.725156999999999829 ) ) ;
#154 = AXIS2_PLACEMENT_3D ( 'NONE', #51, #228, #114 ) ;
#155 = UNCERTAINTY_MEASURE_WITH_UNIT (LENGTH_MEASURE( 1.000000000000000082E-05 ), #11, 'distance_accuracy_value', 'NONE');
#156 = DIRECTION ( 'NONE',  ( 0.0000000000000000000, 0.0000000000000000000, 1.000000000000000000 ) ) ;
#157 = CIRCLE ( 'NONE', #154, 0.09832657499999998552 ) ;
#158 = DIRECTION ( 'NONE',  ( 1.000000000000000000, 0.0000000000000000000, 0.0000000000000000000 ) ) ;
#159 = CARTESIAN_POINT ( 'NONE',  ( 0.0000000000000000000, 0.0000000000000000000, 3.740156999999999954 ) ) ;
#160 = DIRECTION ( 'NONE',  ( 1.000000000000000000, 0.0000000000000000000, 0.0000000000000000000 ) ) ;
#161 = DIRECTION ( 'NONE',  ( -1.224646799147353207E-16, -0.0000000000000000000, -1.000000000000000000 ) ) ;
#162 = ADVANCED_FACE ( 'NONE', ( #70 ), #276, .T. ) ;
#163 = CARTESIAN_POINT ( 'NONE',  ( 0.09832657500000009654, 0.0000000000000000000, 0.7874019999999999353 ) ) ;
#164 = EDGE_LOOP ( 'NONE', ( #83, #256, #101, #167 ) ) ;
#165 = AXIS2_PLACEMENT_3D ( 'NONE', #159, #24, #204 ) ;
#166 = CARTESIAN_POINT ( 'NONE',  ( 9.642893389422242582E-17, 0.0000000000000000000, 0.7874019999999999353 ) ) ;
#167 = ORIENTED_EDGE ( 'NONE', *, *, #227, .T. ) ;
#168 = UNCERTAINTY_MEASURE_WITH_UNIT (LENGTH_MEASURE( 1.000000000000000082E-05 ), #99, 'distance_accuracy_value', 'NONE');
#169 = ORIENTED_EDGE ( 'NONE', *, *, #239, .F. ) ;
#170 = CONICAL_SURFACE ( 'NONE', #43, 0.1424804999999998989, 0.7853981633974608245 ) ;
#171 =( GEOMETRIC_REPRESENTATION_CONTEXT ( 3 ) GLOBAL_UNCERTAINTY_ASSIGNED_CONTEXT ( ( #155 ) ) GLOBAL_UNIT_ASSIGNED_CONTEXT ( ( #11, #107, #104 ) ) REPRESENTATION_CONTEXT ( 'NONE', 'WORKASPACE' ) );
#172 = ADVANCED_FACE ( 'NONE', ( #143 ), #247, .T. ) ;
#173 = ORIENTED_EDGE ( 'NONE', *, *, #235, .F. ) ;
#174 =( NAMED_UNIT ( * ) SI_UNIT ( $, .STERADIAN. ) SOLID_ANGLE_UNIT ( ) );
#175 = DIRECTION ( 'NONE',  ( -1.000000000000000000, 0.0000000000000000000, 0.0000000000000000000 ) ) ;
#176 = DIRECTION ( 'NONE',  ( 1.000000000000000000, 0.0000000000000000000, 0.0000000000000000000 ) ) ;
#177 = SURFACE_STYLE_FILL_AREA ( #108 ) ;
#178 = AXIS2_PLACEMENT_3D ( 'NONE', #66, #156, #287 ) ;
#179 = EDGE_CURVE ( 'NONE', #257, #53, #2, .T. ) ;
#180 = FACE_OUTER_BOUND ( 'NONE', #246, .T. ) ;
#181 = CARTESIAN_POINT ( 'NONE',  ( 0.0000000000000000000, 0.0000000000000000000, 3.740156999999999954 ) ) ;
#182 = CARTESIAN_POINT ( 'NONE',  ( 0.0000000000000000000, 0.0000000000000000000, 0.0000000000000000000 ) ) ;
#183 = CARTESIAN_POINT ( 'NONE',  ( -0.1574804999999998567, 0.0000000000000000000, 1.122880579411527524 ) ) ;
#184 = CYLINDRICAL_SURFACE ( 'NONE', #285, 0.09832657499999998552 ) ;
#185 = ADVANCED_FACE ( 'NONE', ( #295 ), #61, .T. ) ;
#186 = VECTOR ( 'NONE', #97, 39.37007874015748143 ) ;
#187 = CARTESIAN_POINT ( 'NONE',  ( 0.1574804999999999955, 1.928579902531247412E-17, 3.740156999999999954 ) ) ;
#188 = DIRECTION ( 'NONE',  ( 1.000000000000000000, 0.0000000000000000000, 0.0000000000000000000 ) ) ;
#189 = DIRECTION ( 'NONE',  ( -1.224646799147353207E-16, -0.0000000000000000000, -1.000000000000000000 ) ) ;
#190 = AXIS2_PLACEMENT_3D ( 'NONE', #90, #249, #158 ) ;
#191 = ORIENTED_EDGE ( 'NONE', *, *, #80, .F. ) ;
#192 = ORIENTED_EDGE ( 'NONE', *, *, #259, .F. ) ;
#193 = EDGE_CURVE ( 'NONE', #53, #257, #33, .T. ) ;
#194 = ORIENTED_EDGE ( 'NONE', *, *, #132, .F. ) ;
#195 = DIRECTION ( 'NONE',  ( -1.224646799147353207E-16, -0.0000000000000000000, -1.000000000000000000 ) ) ;
#196 = VERTEX_POINT ( 'NONE', #183 ) ;
#197 = CLOSED_SHELL ( 'NONE', ( #162, #19, #172, #78, #254, #75, #269, #185, #126, #86 ) ) ;
#198 = PRODUCT_DEFINITION_SHAPE ( 'NONE', 'NONE',  #119 ) ;
#199 = PRODUCT_DEFINITION_CONTEXT ( 'detailed design', #130, 'design' ) ;
#200 = CARTESIAN_POINT ( 'NONE',  ( -0.09832657499999998552, 0.0000000000000000000, 2.408306506897443024E-17 ) ) ;
#201 = EDGE_CURVE ( 'NONE', #62, #237, #219, .T. ) ;
#202 = DIRECTION ( 'NONE',  ( -1.000000000000000000, 0.0000000000000000000, 1.224646799147353207E-16 ) ) ;
#203 =( GEOMETRIC_REPRESENTATION_CONTEXT ( 3 ) GLOBAL_UNCERTAINTY_ASSIGNED_CONTEXT ( ( #283 ) ) GLOBAL_UNIT_ASSIGNED_CONTEXT ( ( #106, #263, #135 ) ) REPRESENTATION_CONTEXT ( 'NONE', 'WORKASPACE' ) );
#204 = DIRECTION ( 'NONE',  ( -1.000000000000000000, 0.0000000000000000000, 0.0000000000000000000 ) ) ;
#205 = CARTESIAN_POINT ( 'NONE',  ( 1.474662427518848307E-33, 0.0000000000000000000, 1.204153253448721512E-17 ) ) ;
#206 = CARTESIAN_POINT ( 'NONE',  ( -0.1574804999999999955, 0.0000000000000000000, 3.725156999999999829 ) ) ;
#207 = CIRCLE ( 'NONE', #23, 0.09832657499999998552 ) ;
#208 = DIRECTION ( 'NONE',  ( 0.0000000000000000000, 0.0000000000000000000, 1.000000000000000000 ) ) ;
#209 = CARTESIAN_POINT ( 'NONE',  ( 1.375132107401052622E-16, 0.0000000000000000000, 1.122880579411527524 ) ) ;
#210 = ORIENTED_EDGE ( 'NONE', *, *, #193, .F. ) ;
#211 = AXIS2_PLACEMENT_3D ( 'NONE', #115, #139, #229 ) ;
#212 = ORIENTED_EDGE ( 'NONE', *, *, #144, .F. ) ;
#213 = CARTESIAN_POINT ( 'NONE',  ( -0.1424804999999998989, 0.0000000000000000000, 3.740156999999999954 ) ) ;
#214 = ORIENTED_EDGE ( 'NONE', *, *, #232, .F. ) ;
#215 = FILL_AREA_STYLE_COLOUR ( '', #125 ) ;
#216 = DIRECTION ( 'NONE',  ( -1.000000000000000000, 0.0000000000000000000, 0.0000000000000000000 ) ) ;
#217 = ORIENTED_EDGE ( 'NONE', *, *, #144, .T. ) ;
#218 = DIRECTION ( 'NONE',  ( 1.000000000000000000, 0.0000000000000000000, 0.0000000000000000000 ) ) ;
#219 = CIRCLE ( 'NONE', #260, 0.1574804999999999955 ) ;
#220 =( LENGTH_UNIT ( ) NAMED_UNIT ( * ) SI_UNIT ( $, .METRE. ) );
#221 = VERTEX_POINT ( 'NONE', #274 ) ;
#222 = CARTESIAN_POINT ( 'NONE',  ( 0.1424804999999998989, 1.836731392595195200E-17, 3.740156999999999954 ) ) ;
#223 = VERTEX_POINT ( 'NONE', #142 ) ;
#224 = MECHANICAL_DESIGN_GEOMETRIC_PRESENTATION_REPRESENTATION (  '', ( #267 ), #203 ) ;
#225 = CYLINDRICAL_SURFACE ( 'NONE', #251, 0.1574804999999999955 ) ;
#226 = APPLICATION_CONTEXT ( 'automotive_design' ) ;
#227 = EDGE_CURVE ( 'NONE', #5, #196, #110, .T. ) ;
#228 = DIRECTION ( 'NONE',  ( -1.224646799147353207E-16, -0.0000000000000000000, -1.000000000000000000 ) ) ;
#229 = DIRECTION ( 'NONE',  ( 1.000000000000000000, 0.0000000000000000000, 0.0000000000000000000 ) ) ;
#230 = DIRECTION ( 'NONE',  ( -1.224646799147353207E-16, -0.0000000000000000000, -1.000000000000000000 ) ) ;
#231 = LINE ( 'NONE', #26, #148 ) ;
#232 = EDGE_CURVE ( 'NONE', #10, #223, #250, .T. ) ;
#233 = FACE_OUTER_BOUND ( 'NONE', #31, .T. ) ;
#234 = AXIS2_PLACEMENT_3D ( 'NONE', #182, #208, #252 ) ;
#235 = EDGE_CURVE ( 'NONE', #53, #62, #231, .T. ) ;
#236 = EDGE_LOOP ( 'NONE', ( #8, #217 ) ) ;
#237 = VERTEX_POINT ( 'NONE', #206 ) ;
#238 = LINE ( 'NONE', #122, #79 ) ;
#239 = EDGE_CURVE ( 'NONE', #62, #5, #1, .T. ) ;
#240 = VECTOR ( 'NONE', #46, 39.37007874015748143 ) ;
#241 = ORIENTED_EDGE ( 'NONE', *, *, #259, .T. ) ;
#242 = FILL_AREA_STYLE_COLOUR ( '', #244 ) ;
#243 = ORIENTED_EDGE ( 'NONE', *, *, #275, .F. ) ;
#244 = COLOUR_RGB ( '',0.7921568627450980005, 0.8196078431372548767, 0.9333333333333333481 ) ;
#245 = ORIENTED_EDGE ( 'NONE', *, *, #227, .F. ) ;
#246 = EDGE_LOOP ( 'NONE', ( #280, #34 ) ) ;
#247 = CONICAL_SURFACE ( 'NONE', #165, 0.1424804999999998989, 0.7853981633974608245 ) ;
#248 = CARTESIAN_POINT ( 'NONE',  ( -0.1574804999999999955, 0.0000000000000000000, 3.740156999999999954 ) ) ;
#249 = DIRECTION ( 'NONE',  ( 0.0000000000000000000, 0.0000000000000000000, 1.000000000000000000 ) ) ;
#250 = LINE ( 'NONE', #72, #12 ) ;
#251 = AXIS2_PLACEMENT_3D ( 'NONE', #112, #294, #175 ) ;
#252 = DIRECTION ( 'NONE',  ( 1.000000000000000000, 0.0000000000000000000, -0.0000000000000000000 ) ) ;
#253 = DIRECTION ( 'NONE',  ( 1.000000000000000000, 0.0000000000000000000, 0.0000000000000000000 ) ) ;
#254 = ADVANCED_FACE ( 'NONE', ( #233 ), #3, .T. ) ;
#255 = CIRCLE ( 'NONE', #68, 0.1574804999999999955 ) ;
#256 = ORIENTED_EDGE ( 'NONE', *, *, #40, .F. ) ;
#257 = VERTEX_POINT ( 'NONE', #103 ) ;
#258 = DIRECTION ( 'NONE',  ( -1.000000000000000000, 0.0000000000000000000, 0.0000000000000000000 ) ) ;
#259 = EDGE_CURVE ( 'NONE', #257, #237, #4, .T. ) ;
#260 = AXIS2_PLACEMENT_3D ( 'NONE', #76, #94, #253 ) ;
#261 = ORIENTED_EDGE ( 'NONE', *, *, #201, .T. ) ;
#262 = SURFACE_STYLE_FILL_AREA ( #35 ) ;
#263 =( NAMED_UNIT ( * ) PLANE_ANGLE_UNIT ( ) SI_UNIT ( $, .RADIAN. ) );
#264 = EDGE_CURVE ( 'NONE', #221, #196, #52, .T. ) ;
#265 = APPLICATION_PROTOCOL_DEFINITION ( 'draft international standard', 'automotive_design', 1998, #226 ) ;
#266 = PRESENTATION_STYLE_ASSIGNMENT (( #109 ) ) ;
#267 = STYLED_ITEM ( 'NONE', ( #266 ), #25 ) ;
#268 = DIRECTION ( 'NONE',  ( 1.224646799147353207E-16, 0.0000000000000000000, 1.000000000000000000 ) ) ;
#269 = ADVANCED_FACE ( 'NONE', ( #145 ), #170, .T. ) ;
#270 = PLANE ( 'NONE',  #178 ) ;
#271 = DIRECTION ( 'NONE',  ( -0.0000000000000000000, -0.0000000000000000000, -1.000000000000000000 ) ) ;
#272 = AXIS2_PLACEMENT_3D ( 'NONE', #20, #230, #202 ) ;
#273 = FACE_OUTER_BOUND ( 'NONE', #123, .T. ) ;
#274 = CARTESIAN_POINT ( 'NONE',  ( -0.09832657499999988837, 1.566366577989984077E-17, 0.7874019999999999353 ) ) ;
#275 = EDGE_CURVE ( 'NONE', #196, #5, #255, .T. ) ;
#276 = CYLINDRICAL_SURFACE ( 'NONE', #272, 0.09832657499999998552 ) ;
#277 = DIRECTION ( 'NONE',  ( -0.0000000000000000000, -0.0000000000000000000, -1.000000000000000000 ) ) ;
#278 = ORIENTED_EDGE ( 'NONE', *, *, #292, .T. ) ;
#279 = DIRECTION ( 'NONE',  ( -0.1736481776669311639, 2.126576849575783008E-17, 0.9848077530122080203 ) ) ;
#280 = ORIENTED_EDGE ( 'NONE', *, *, #179, .T. ) ;
#281 = EDGE_LOOP ( 'NONE', ( #210, #36, #134, #192 ) ) ;
#282 = DIMENSIONAL_EXPONENTS ( 1.000000000000000000, 0.0000000000000000000, 0.0000000000000000000, 0.0000000000000000000, 0.0000000000000000000, 0.0000000000000000000, 0.0000000000000000000 ) ;
#283 = UNCERTAINTY_MEASURE_WITH_UNIT (LENGTH_MEASURE( 1.000000000000000082E-05 ), #106, 'distance_accuracy_value', 'NONE');
#284 = ORIENTED_EDGE ( 'NONE', *, *, #80, .T. ) ;
#285 = AXIS2_PLACEMENT_3D ( 'NONE', #138, #141, #113 ) ;
#286 = ORIENTED_EDGE ( 'NONE', *, *, #201, .F. ) ;
#287 = DIRECTION ( 'NONE',  ( 1.000000000000000000, 0.0000000000000000000, -0.0000000000000000000 ) ) ;
#288 = CARTESIAN_POINT ( 'NONE',  ( 0.0000000000000000000, 0.0000000000000000000, 0.0000000000000000000 ) ) ;
#289 = ORIENTED_EDGE ( 'NONE', *, *, #292, .F. ) ;
#290 =( LENGTH_UNIT ( ) NAMED_UNIT ( * ) SI_UNIT ( $, .METRE. ) );
#291 = CIRCLE ( 'NONE', #140, 0.09832657499999998552 ) ;
#292 = EDGE_CURVE ( 'NONE', #221, #10, #296, .T. ) ;
#293 = ORIENTED_EDGE ( 'NONE', *, *, #298, .T. ) ;
#294 = DIRECTION ( 'NONE',  ( -0.0000000000000000000, -0.0000000000000000000, -1.000000000000000000 ) ) ;
#295 = FACE_OUTER_BOUND ( 'NONE', #164, .T. ) ;
#296 = CIRCLE ( 'NONE', #37, 0.09832657499999998552 ) ;
#297 = DIRECTION ( 'NONE',  ( 0.0000000000000000000, 0.0000000000000000000, 1.000000000000000000 ) ) ;
#298 = EDGE_CURVE ( 'NONE', #221, #64, #238, .T. ) ;
#299 = CARTESIAN_POINT ( 'NONE',  ( 1.375132107401052622E-16, 0.0000000000000000000, 1.122880579411527524 ) ) ;
ENDSEC;
END-ISO-10303-21;
