ISO-10303-21;
HEADER;
FILE_DESCRIPTION (( 'STEP AP214' ),
    '1' );
FILE_NAME ('Micro_RNC-375-24.STEP',
    '2021-09-03T17:38:17',
    ( '' ),
    ( '' ),
    'SwSTEP 2.0',
    'SolidWorks 2020',
    '' );
FILE_SCHEMA (( 'AUTOMOTIVE_DESIGN' ));
ENDSEC;

DATA;
#1 = DIRECTION ( 'NONE',  ( -1.000000000000000000, 0.0000000000000000000, 0.0000000000000000000 ) ) ;
#2 = EDGE_LOOP ( 'NONE', ( #160, #29 ) ) ;
#3 =( NAMED_UNIT ( * ) PLANE_ANGLE_UNIT ( ) SI_UNIT ( $, .RADIAN. ) );
#4 = DIRECTION ( 'NONE',  ( 0.7071067811865490160, 0.0000000000000000000, -0.7071067811865459074 ) ) ;
#5 = EDGE_CURVE ( 'NONE', #218, #95, #141, .T. ) ;
#6 = APPLICATION_CONTEXT ( 'automotive_design' ) ;
#7 = SURFACE_SIDE_STYLE ('',( #105 ) ) ;
#8 = DIRECTION ( 'NONE',  ( -1.000000000000000000, 0.0000000000000000000, 0.0000000000000000000 ) ) ;
#9 = ADVANCED_FACE ( 'NONE', ( #179 ), #104, .T. ) ;
#10 = ORIENTED_EDGE ( 'NONE', *, *, #240, .T. ) ;
#11 = CIRCLE ( 'NONE', #143, 0.003999999999999999216 ) ;
#12 = ADVANCED_FACE ( 'NONE', ( #159 ), #178, .T. ) ;
#13 = ADVANCED_FACE ( 'NONE', ( #140 ), #213, .T. ) ;
#14 = DIRECTION ( 'NONE',  ( -0.0000000000000000000, -0.0000000000000000000, -1.000000000000000000 ) ) ;
#15 = CARTESIAN_POINT ( 'NONE',  ( -0.003999999999999999216, 4.898587196589411612E-19, 0.0000000000000000000 ) ) ;
#16 = PRESENTATION_LAYER_ASSIGNMENT (  '', '', ( #223 ) ) ;
#17 = CARTESIAN_POINT ( 'NONE',  ( 0.0000000000000000000, 0.0000000000000000000, 4.000000000000000000 ) ) ;
#18 = CARTESIAN_POINT ( 'NONE',  ( 0.003999999999999999216, 0.0000000000000000000, 0.0000000000000000000 ) ) ;
#19 = DIRECTION ( 'NONE',  ( -0.0000000000000000000, -0.0000000000000000000, -1.000000000000000000 ) ) ;
#20 = AXIS2_PLACEMENT_3D ( 'NONE', #149, #52, #130 ) ;
#21 =( NAMED_UNIT ( * ) SI_UNIT ( $, .STERADIAN. ) SOLID_ANGLE_UNIT ( ) );
#22 =( CONVERSION_BASED_UNIT ( 'INCH', #191 ) LENGTH_UNIT ( ) NAMED_UNIT ( #217 ) );
#23 = ORIENTED_EDGE ( 'NONE', *, *, #242, .T. ) ;
#24 = FACE_OUTER_BOUND ( 'NONE', #2, .T. ) ;
#25 = AXIS2_PLACEMENT_3D ( 'NONE', #36, #244, #245 ) ;
#26 = DIRECTION ( 'NONE',  ( -1.000000000000000000, 0.0000000000000000000, 0.0000000000000000000 ) ) ;
#27 = PRODUCT_DEFINITION_SHAPE ( 'NONE', 'NONE',  #92 ) ;
#28 = CARTESIAN_POINT ( 'NONE',  ( -0.1875000000000000278, 0.0000000000000000000, 0.1834999999999992193 ) ) ;
#29 = ORIENTED_EDGE ( 'NONE', *, *, #34, .F. ) ;
#30 = SHAPE_DEFINITION_REPRESENTATION ( #27, #177 ) ;
#31 = CARTESIAN_POINT ( 'NONE',  ( 0.0000000000000000000, 0.0000000000000000000, 0.0000000000000000000 ) ) ;
#32 = CONICAL_SURFACE ( 'NONE', #147, 0.003999999999999999216, 0.7853981633974504994 ) ;
#33 = DIRECTION ( 'NONE',  ( 1.000000000000000000, 0.0000000000000000000, 0.0000000000000000000 ) ) ;
#34 = EDGE_CURVE ( 'NONE', #84, #218, #164, .T. ) ;
#35 = CIRCLE ( 'NONE', #215, 0.1875000000000000278 ) ;
#36 = CARTESIAN_POINT ( 'NONE',  ( 0.0000000000000000000, 0.0000000000000000000, 4.000000000000000000 ) ) ;
#37 = EDGE_CURVE ( 'NONE', #95, #199, #93, .T. ) ;
#38 = DIRECTION ( 'NONE',  ( -0.7071067811865490160, 8.659560562354951347E-17, 0.7071067811865459074 ) ) ;
#39 = FACE_OUTER_BOUND ( 'NONE', #43, .T. ) ;
#40 = ORIENTED_EDGE ( 'NONE', *, *, #49, .T. ) ;
#41 = ADVANCED_FACE ( 'NONE', ( #24 ), #111, .T. ) ;
#42 = ORIENTED_EDGE ( 'NONE', *, *, #203, .T. ) ;
#43 = EDGE_LOOP ( 'NONE', ( #56, #139, #10, #86 ) ) ;
#44 = CONICAL_SURFACE ( 'NONE', #186, 0.003999999999999999216, 0.7853981633974504994 ) ;
#45 = FILL_AREA_STYLE_COLOUR ( '', #216 ) ;
#46 = CARTESIAN_POINT ( 'NONE',  ( 0.0000000000000000000, 0.0000000000000000000, 4.000000000000000000 ) ) ;
#47 = ORIENTED_EDGE ( 'NONE', *, *, #5, .T. ) ;
#48 = DIMENSIONAL_EXPONENTS ( 1.000000000000000000, 0.0000000000000000000, 0.0000000000000000000, 0.0000000000000000000, 0.0000000000000000000, 0.0000000000000000000, 0.0000000000000000000 ) ;
#49 = EDGE_CURVE ( 'NONE', #118, #211, #90, .T. ) ;
#50 = LINE ( 'NONE', #72, #228 ) ;
#51 = SURFACE_STYLE_USAGE ( .BOTH. , #135 ) ;
#52 = DIRECTION ( 'NONE',  ( 0.0000000000000000000, 0.0000000000000000000, 1.000000000000000000 ) ) ;
#53 = CLOSED_SHELL ( 'NONE', ( #210, #80, #9, #12, #13, #161, #68, #41 ) ) ;
#54 = CARTESIAN_POINT ( 'NONE',  ( -0.1875000000000000278, 0.0000000000000000000, 3.816500000000000448 ) ) ;
#55 = EDGE_LOOP ( 'NONE', ( #122, #23 ) ) ;
#56 = ORIENTED_EDGE ( 'NONE', *, *, #242, .F. ) ;
#57 = DIRECTION ( 'NONE',  ( -0.0000000000000000000, -0.0000000000000000000, -1.000000000000000000 ) ) ;
#58 = VECTOR ( 'NONE', #165, 39.37007874015748854 ) ;
#59 = EDGE_LOOP ( 'NONE', ( #42, #201, #78, #172 ) ) ;
#60 = DIRECTION ( 'NONE',  ( 1.000000000000000000, 0.0000000000000000000, 0.0000000000000000000 ) ) ;
#61 = CARTESIAN_POINT ( 'NONE',  ( 0.0000000000000000000, 0.0000000000000000000, 3.816500000000000448 ) ) ;
#62 = ORIENTED_EDGE ( 'NONE', *, *, #196, .F. ) ;
#63 = ORIENTED_EDGE ( 'NONE', *, *, #174, .T. ) ;
#64 = AXIS2_PLACEMENT_3D ( 'NONE', #61, #233, #8 ) ;
#65 = MECHANICAL_DESIGN_GEOMETRIC_PRESENTATION_REPRESENTATION (  '', ( #148 ), #219 ) ;
#66 = EDGE_LOOP ( 'NONE', ( #62, #85, #88, #194 ) ) ;
#67 = CARTESIAN_POINT ( 'NONE',  ( 0.0000000000000000000, 0.0000000000000000000, 0.0000000000000000000 ) ) ;
#68 = ADVANCED_FACE ( 'NONE', ( #207 ), #32, .T. ) ;
#69 = DIRECTION ( 'NONE',  ( -0.0000000000000000000, -0.0000000000000000000, -1.000000000000000000 ) ) ;
#70 = CARTESIAN_POINT ( 'NONE',  ( -0.003999999999999999216, -1.172599310183590719E-17, 4.000000000000000000 ) ) ;
#71 = SURFACE_STYLE_USAGE ( .BOTH. , #7 ) ;
#72 = CARTESIAN_POINT ( 'NONE',  ( 0.1875000000000000278, 2.296212748401287726E-17, 4.000000000000000000 ) ) ;
#73 = MECHANICAL_DESIGN_GEOMETRIC_PRESENTATION_REPRESENTATION (  '', ( #223 ), #108 ) ;
#74 = CIRCLE ( 'NONE', #110, 0.003999999999999999216 ) ;
#75 = DIRECTION ( 'NONE',  ( -1.000000000000000000, 0.0000000000000000000, 0.0000000000000000000 ) ) ;
#76 = ORIENTED_EDGE ( 'NONE', *, *, #187, .T. ) ;
#77 =( CONVERSION_BASED_UNIT ( 'INCH', #249 ) LENGTH_UNIT ( ) NAMED_UNIT ( #48 ) );
#78 = ORIENTED_EDGE ( 'NONE', *, *, #240, .F. ) ;
#79 = PRODUCT_DEFINITION_CONTEXT ( 'detailed design', #6, 'design' ) ;
#80 = ADVANCED_FACE ( 'NONE', ( #39 ), #129, .T. ) ;
#81 = FILL_AREA_STYLE ('',( #45 ) ) ;
#82 = CIRCLE ( 'NONE', #239, 0.1875000000000000278 ) ;
#83 = DIRECTION ( 'NONE',  ( -1.000000000000000000, 0.0000000000000000000, 0.0000000000000000000 ) ) ;
#84 = VERTEX_POINT ( 'NONE', #70 ) ;
#85 = ORIENTED_EDGE ( 'NONE', *, *, #37, .T. ) ;
#86 = ORIENTED_EDGE ( 'NONE', *, *, #49, .F. ) ;
#87 = AXIS2_PLACEMENT_3D ( 'NONE', #46, #106, #236 ) ;
#88 = ORIENTED_EDGE ( 'NONE', *, *, #128, .T. ) ;
#89 = LINE ( 'NONE', #131, #175 ) ;
#90 = LINE ( 'NONE', #248, #109 ) ;
#91 =( LENGTH_UNIT ( ) NAMED_UNIT ( * ) SI_UNIT ( $, .METRE. ) );
#92 = PRODUCT_DEFINITION ( 'UNKNOWN', '', #182, #79 ) ;
#93 = CIRCLE ( 'NONE', #64, 0.1875000000000000278 ) ;
#94 = LINE ( 'NONE', #112, #58 ) ;
#95 = VERTEX_POINT ( 'NONE', #145 ) ;
#96 =( LENGTH_UNIT ( ) NAMED_UNIT ( * ) SI_UNIT ( $, .METRE. ) );
#97 = DIRECTION ( 'NONE',  ( -1.000000000000000000, 0.0000000000000000000, 0.0000000000000000000 ) ) ;
#98 = ORIENTED_EDGE ( 'NONE', *, *, #203, .F. ) ;
#99 = FACE_OUTER_BOUND ( 'NONE', #232, .T. ) ;
#100 = APPLICATION_PROTOCOL_DEFINITION ( 'draft international standard', 'automotive_design', 1998, #6 ) ;
#101 = CARTESIAN_POINT ( 'NONE',  ( 0.0000000000000000000, 0.0000000000000000000, 4.000000000000000000 ) ) ;
#102 = ORIENTED_EDGE ( 'NONE', *, *, #34, .T. ) ;
#103 = UNCERTAINTY_MEASURE_WITH_UNIT (LENGTH_MEASURE( 1.000000000000000082E-05 ), #189, 'distance_accuracy_value', 'NONE');
#104 = CYLINDRICAL_SURFACE ( 'NONE', #204, 0.1875000000000000278 ) ;
#105 = SURFACE_STYLE_FILL_AREA ( #81 ) ;
#106 = DIRECTION ( 'NONE',  ( 0.0000000000000000000, 0.0000000000000000000, -1.000000000000000000 ) ) ;
#107 = AXIS2_PLACEMENT_3D ( 'NONE', #163, #19, #167 ) ;
#108 =( GEOMETRIC_REPRESENTATION_CONTEXT ( 3 ) GLOBAL_UNCERTAINTY_ASSIGNED_CONTEXT ( ( #103 ) ) GLOBAL_UNIT_ASSIGNED_CONTEXT ( ( #189, #116, #21 ) ) REPRESENTATION_CONTEXT ( 'NONE', 'WORKASPACE' ) );
#109 = VECTOR ( 'NONE', #209, 39.37007874015748854 ) ;
#110 = AXIS2_PLACEMENT_3D ( 'NONE', #195, #237, #119 ) ;
#111 = PLANE ( 'NONE',  #25 ) ;
#112 = CARTESIAN_POINT ( 'NONE',  ( -0.003999999999999999216, -4.898587196589411612E-19, 4.000000000000000000 ) ) ;
#113 = PRODUCT ( 'Micro_RNC-375-24', 'Micro_RNC-375-24', '', ( #180 ) ) ;
#114 = VERTEX_POINT ( 'NONE', #205 ) ;
#115 = VECTOR ( 'NONE', #4, 39.37007874015748854 ) ;
#116 =( NAMED_UNIT ( * ) PLANE_ANGLE_UNIT ( ) SI_UNIT ( $, .RADIAN. ) );
#117 = AXIS2_PLACEMENT_3D ( 'NONE', #31, #235, #33 ) ;
#118 = VERTEX_POINT ( 'NONE', #18 ) ;
#119 = DIRECTION ( 'NONE',  ( -1.000000000000000000, 0.0000000000000000000, 0.0000000000000000000 ) ) ;
#120 = DIRECTION ( 'NONE',  ( -0.0000000000000000000, -0.0000000000000000000, -1.000000000000000000 ) ) ;
#121 = CARTESIAN_POINT ( 'NONE',  ( 0.003999999999999999216, 0.0000000000000000000, 4.000000000000000000 ) ) ;
#122 = ORIENTED_EDGE ( 'NONE', *, *, #150, .T. ) ;
#123 = CARTESIAN_POINT ( 'NONE',  ( 0.003999999999999999216, 0.0000000000000000000, 4.000000000000000000 ) ) ;
#124 = ORIENTED_EDGE ( 'NONE', *, *, #170, .F. ) ;
#125 = UNCERTAINTY_MEASURE_WITH_UNIT (LENGTH_MEASURE( 1.000000000000000082E-05 ), #22, 'distance_accuracy_value', 'NONE');
#126 = EDGE_CURVE ( 'NONE', #218, #84, #11, .T. ) ;
#127 = COLOUR_RGB ( '',0.7921568627450980005, 0.8196078431372548767, 0.9333333333333333481 ) ;
#128 = EDGE_CURVE ( 'NONE', #199, #246, #89, .T. ) ;
#129 = CONICAL_SURFACE ( 'NONE', #20, 0.003999999999999999216, 0.7853981633974504994 ) ;
#130 = DIRECTION ( 'NONE',  ( 1.000000000000000000, 0.0000000000000000000, 0.0000000000000000000 ) ) ;
#131 = CARTESIAN_POINT ( 'NONE',  ( -0.1875000000000000278, 0.0000000000000000000, 4.000000000000000000 ) ) ;
#132 =( GEOMETRIC_REPRESENTATION_CONTEXT ( 3 ) GLOBAL_UNCERTAINTY_ASSIGNED_CONTEXT ( ( #125 ) ) GLOBAL_UNIT_ASSIGNED_CONTEXT ( ( #22, #3, #173 ) ) REPRESENTATION_CONTEXT ( 'NONE', 'WORKASPACE' ) );
#133 = DIRECTION ( 'NONE',  ( 1.000000000000000000, 0.0000000000000000000, -0.0000000000000000000 ) ) ;
#134 = ORIENTED_EDGE ( 'NONE', *, *, #5, .F. ) ;
#135 = SURFACE_SIDE_STYLE ('',( #151 ) ) ;
#136 = DIRECTION ( 'NONE',  ( 0.0000000000000000000, 0.0000000000000000000, -1.000000000000000000 ) ) ;
#137 = AXIS2_PLACEMENT_3D ( 'NONE', #193, #198, #176 ) ;
#138 = CARTESIAN_POINT ( 'NONE',  ( 0.0000000000000000000, 0.0000000000000000000, 4.000000000000000000 ) ) ;
#139 = ORIENTED_EDGE ( 'NONE', *, *, #170, .T. ) ;
#140 = FACE_OUTER_BOUND ( 'NONE', #152, .T. ) ;
#141 = LINE ( 'NONE', #123, #115 ) ;
#142 = ORIENTED_EDGE ( 'NONE', *, *, #126, .T. ) ;
#143 = AXIS2_PLACEMENT_3D ( 'NONE', #183, #184, #75 ) ;
#144 = DIMENSIONAL_EXPONENTS ( 1.000000000000000000, 0.0000000000000000000, 0.0000000000000000000, 0.0000000000000000000, 0.0000000000000000000, 0.0000000000000000000, 0.0000000000000000000 ) ;
#145 = CARTESIAN_POINT ( 'NONE',  ( 0.1875000000000000278, 2.296212748401287726E-17, 3.816500000000000448 ) ) ;
#146 = FILL_AREA_STYLE_COLOUR ( '', #127 ) ;
#147 = AXIS2_PLACEMENT_3D ( 'NONE', #17, #136, #222 ) ;
#148 = STYLED_ITEM ( 'NONE', ( #154 ), #177 ) ;
#149 = CARTESIAN_POINT ( 'NONE',  ( 0.0000000000000000000, 0.0000000000000000000, 0.0000000000000000000 ) ) ;
#150 = EDGE_CURVE ( 'NONE', #118, #114, #190, .T. ) ;
#151 = SURFACE_STYLE_FILL_AREA ( #221 ) ;
#152 = EDGE_LOOP ( 'NONE', ( #124, #197, #40, #76 ) ) ;
#153 =( NAMED_UNIT ( * ) PLANE_ANGLE_UNIT ( ) SI_UNIT ( $, .RADIAN. ) );
#154 = PRESENTATION_STYLE_ASSIGNMENT (( #71 ) ) ;
#155 = DIRECTION ( 'NONE',  ( 0.0000000000000000000, 0.0000000000000000000, -1.000000000000000000 ) ) ;
#156 = DIRECTION ( 'NONE',  ( 0.0000000000000000000, 0.0000000000000000000, -1.000000000000000000 ) ) ;
#157 = DIRECTION ( 'NONE',  ( -0.0000000000000000000, -0.0000000000000000000, -1.000000000000000000 ) ) ;
#158 = UNCERTAINTY_MEASURE_WITH_UNIT (LENGTH_MEASURE( 1.000000000000000082E-05 ), #77, 'distance_accuracy_value', 'NONE');
#159 = FACE_OUTER_BOUND ( 'NONE', #66, .T. ) ;
#160 = ORIENTED_EDGE ( 'NONE', *, *, #126, .F. ) ;
#161 = ADVANCED_FACE ( 'NONE', ( #166 ), #241, .F. ) ;
#162 = PRESENTATION_LAYER_ASSIGNMENT (  '', '', ( #148 ) ) ;
#163 = CARTESIAN_POINT ( 'NONE',  ( 0.0000000000000000000, 0.0000000000000000000, 0.0000000000000000000 ) ) ;
#164 = CIRCLE ( 'NONE', #87, 0.003999999999999999216 ) ;
#165 = DIRECTION ( 'NONE',  ( -0.7071067811865490160, -8.659560562354951347E-17, -0.7071067811865459074 ) ) ;
#166 = FACE_OUTER_BOUND ( 'NONE', #55, .T. ) ;
#167 = DIRECTION ( 'NONE',  ( -1.000000000000000000, 0.0000000000000000000, 0.0000000000000000000 ) ) ;
#168 = AXIS2_PLACEMENT_3D ( 'NONE', #138, #120, #26 ) ;
#169 = CARTESIAN_POINT ( 'NONE',  ( 0.0000000000000000000, 0.0000000000000000000, 3.816500000000000448 ) ) ;
#170 = EDGE_CURVE ( 'NONE', #114, #246, #220, .T. ) ;
#171 =( LENGTH_UNIT ( ) NAMED_UNIT ( * ) SI_UNIT ( $, .METRE. ) );
#172 = ORIENTED_EDGE ( 'NONE', *, *, #128, .F. ) ;
#173 =( NAMED_UNIT ( * ) SI_UNIT ( $, .STERADIAN. ) SOLID_ANGLE_UNIT ( ) );
#174 = EDGE_CURVE ( 'NONE', #84, #199, #94, .T. ) ;
#175 = VECTOR ( 'NONE', #14, 39.37007874015748143 ) ;
#176 = DIRECTION ( 'NONE',  ( 1.000000000000000000, 0.0000000000000000000, 0.0000000000000000000 ) ) ;
#177 = ADVANCED_BREP_SHAPE_REPRESENTATION ( 'Micro_RNC-375-24', ( #200, #117 ), #132 ) ;
#178 = CYLINDRICAL_SURFACE ( 'NONE', #168, 0.1875000000000000278 ) ;
#179 = FACE_OUTER_BOUND ( 'NONE', #59, .T. ) ;
#180 = PRODUCT_CONTEXT ( 'NONE', #238, 'mechanical' ) ;
#181 = VECTOR ( 'NONE', #38, 39.37007874015748854 ) ;
#182 = PRODUCT_DEFINITION_FORMATION_WITH_SPECIFIED_SOURCE ( 'ANY', '', #113, .NOT_KNOWN. ) ;
#183 = CARTESIAN_POINT ( 'NONE',  ( 0.0000000000000000000, 0.0000000000000000000, 4.000000000000000000 ) ) ;
#184 = DIRECTION ( 'NONE',  ( 0.0000000000000000000, 0.0000000000000000000, -1.000000000000000000 ) ) ;
#185 = AXIS2_PLACEMENT_3D ( 'NONE', #67, #224, #133 ) ;
#186 = AXIS2_PLACEMENT_3D ( 'NONE', #231, #156, #60 ) ;
#187 = EDGE_CURVE ( 'NONE', #211, #246, #202, .T. ) ;
#188 = DIRECTION ( 'NONE',  ( -0.0000000000000000000, -0.0000000000000000000, -1.000000000000000000 ) ) ;
#189 =( CONVERSION_BASED_UNIT ( 'INCH', #225 ) LENGTH_UNIT ( ) NAMED_UNIT ( #144 ) );
#190 = CIRCLE ( 'NONE', #107, 0.003999999999999999216 ) ;
#191 = LENGTH_MEASURE_WITH_UNIT ( LENGTH_MEASURE( 0.02539999999999999897 ), #171 );
#192 = ORIENTED_EDGE ( 'NONE', *, *, #37, .F. ) ;
#193 = CARTESIAN_POINT ( 'NONE',  ( 0.0000000000000000000, 0.0000000000000000000, 0.0000000000000000000 ) ) ;
#194 = ORIENTED_EDGE ( 'NONE', *, *, #187, .F. ) ;
#195 = CARTESIAN_POINT ( 'NONE',  ( 0.0000000000000000000, 0.0000000000000000000, 0.0000000000000000000 ) ) ;
#196 = EDGE_CURVE ( 'NONE', #95, #211, #50, .T. ) ;
#197 = ORIENTED_EDGE ( 'NONE', *, *, #150, .F. ) ;
#198 = DIRECTION ( 'NONE',  ( 0.0000000000000000000, 0.0000000000000000000, 1.000000000000000000 ) ) ;
#199 = VERTEX_POINT ( 'NONE', #54 ) ;
#200 = MANIFOLD_SOLID_BREP ( 'Mirror1', #53 ) ;
#201 = ORIENTED_EDGE ( 'NONE', *, *, #196, .T. ) ;
#202 = CIRCLE ( 'NONE', #247, 0.1875000000000000278 ) ;
#203 = EDGE_CURVE ( 'NONE', #199, #95, #35, .T. ) ;
#204 = AXIS2_PLACEMENT_3D ( 'NONE', #101, #157, #83 ) ;
#205 = CARTESIAN_POINT ( 'NONE',  ( -0.003999999999999999216, 1.172599310183590719E-17, 0.0000000000000000000 ) ) ;
#206 = DIRECTION ( 'NONE',  ( -1.000000000000000000, 0.0000000000000000000, 0.0000000000000000000 ) ) ;
#207 = FACE_OUTER_BOUND ( 'NONE', #226, .T. ) ;
#208 = PRESENTATION_STYLE_ASSIGNMENT (( #51 ) ) ;
#209 = DIRECTION ( 'NONE',  ( 0.7071067811865490160, 0.0000000000000000000, 0.7071067811865459074 ) ) ;
#210 = ADVANCED_FACE ( 'NONE', ( #99 ), #44, .T. ) ;
#211 = VERTEX_POINT ( 'NONE', #234 ) ;
#212 = CARTESIAN_POINT ( 'NONE',  ( 0.0000000000000000000, 0.0000000000000000000, 0.1834999999999992193 ) ) ;
#213 = CONICAL_SURFACE ( 'NONE', #137, 0.003999999999999999216, 0.7853981633974504994 ) ;
#214 = ORIENTED_EDGE ( 'NONE', *, *, #174, .F. ) ;
#215 = AXIS2_PLACEMENT_3D ( 'NONE', #169, #155, #97 ) ;
#216 = COLOUR_RGB ( '',0.7921568627450980005, 0.8196078431372548767, 0.9333333333333333481 ) ;
#217 = DIMENSIONAL_EXPONENTS ( 1.000000000000000000, 0.0000000000000000000, 0.0000000000000000000, 0.0000000000000000000, 0.0000000000000000000, 0.0000000000000000000, 0.0000000000000000000 ) ;
#218 = VERTEX_POINT ( 'NONE', #121 ) ;
#219 =( GEOMETRIC_REPRESENTATION_CONTEXT ( 3 ) GLOBAL_UNCERTAINTY_ASSIGNED_CONTEXT ( ( #158 ) ) GLOBAL_UNIT_ASSIGNED_CONTEXT ( ( #77, #153, #227 ) ) REPRESENTATION_CONTEXT ( 'NONE', 'WORKASPACE' ) );
#220 = LINE ( 'NONE', #15, #181 ) ;
#221 = FILL_AREA_STYLE ('',( #146 ) ) ;
#222 = DIRECTION ( 'NONE',  ( 1.000000000000000000, 0.0000000000000000000, 0.0000000000000000000 ) ) ;
#223 = STYLED_ITEM ( 'NONE', ( #208 ), #200 ) ;
#224 = DIRECTION ( 'NONE',  ( 0.0000000000000000000, 0.0000000000000000000, 1.000000000000000000 ) ) ;
#225 = LENGTH_MEASURE_WITH_UNIT ( LENGTH_MEASURE( 0.02539999999999999897 ), #91 );
#226 = EDGE_LOOP ( 'NONE', ( #214, #102, #47, #98 ) ) ;
#227 =( NAMED_UNIT ( * ) SI_UNIT ( $, .STERADIAN. ) SOLID_ANGLE_UNIT ( ) );
#228 = VECTOR ( 'NONE', #69, 39.37007874015748143 ) ;
#229 = APPLICATION_PROTOCOL_DEFINITION ( 'draft international standard', 'automotive_design', 1998, #238 ) ;
#230 = PRODUCT_RELATED_PRODUCT_CATEGORY ( 'part', '', ( #113 ) ) ;
#231 = CARTESIAN_POINT ( 'NONE',  ( 0.0000000000000000000, 0.0000000000000000000, 4.000000000000000000 ) ) ;
#232 = EDGE_LOOP ( 'NONE', ( #142, #63, #192, #134 ) ) ;
#233 = DIRECTION ( 'NONE',  ( 0.0000000000000000000, 0.0000000000000000000, -1.000000000000000000 ) ) ;
#234 = CARTESIAN_POINT ( 'NONE',  ( 0.1875000000000000278, 2.296212748401287726E-17, 0.1834999999999992193 ) ) ;
#235 = DIRECTION ( 'NONE',  ( 0.0000000000000000000, 0.0000000000000000000, 1.000000000000000000 ) ) ;
#236 = DIRECTION ( 'NONE',  ( -1.000000000000000000, 0.0000000000000000000, 0.0000000000000000000 ) ) ;
#237 = DIRECTION ( 'NONE',  ( -0.0000000000000000000, -0.0000000000000000000, -1.000000000000000000 ) ) ;
#238 = APPLICATION_CONTEXT ( 'automotive_design' ) ;
#239 = AXIS2_PLACEMENT_3D ( 'NONE', #212, #57, #1 ) ;
#240 = EDGE_CURVE ( 'NONE', #246, #211, #82, .T. ) ;
#241 = PLANE ( 'NONE',  #185 ) ;
#242 = EDGE_CURVE ( 'NONE', #114, #118, #74, .T. ) ;
#243 = CARTESIAN_POINT ( 'NONE',  ( 0.0000000000000000000, 0.0000000000000000000, 0.1834999999999992193 ) ) ;
#244 = DIRECTION ( 'NONE',  ( 0.0000000000000000000, 0.0000000000000000000, 1.000000000000000000 ) ) ;
#245 = DIRECTION ( 'NONE',  ( 1.000000000000000000, 0.0000000000000000000, -0.0000000000000000000 ) ) ;
#246 = VERTEX_POINT ( 'NONE', #28 ) ;
#247 = AXIS2_PLACEMENT_3D ( 'NONE', #243, #188, #206 ) ;
#248 = CARTESIAN_POINT ( 'NONE',  ( 0.003999999999999999216, 0.0000000000000000000, 0.0000000000000000000 ) ) ;
#249 = LENGTH_MEASURE_WITH_UNIT ( LENGTH_MEASURE( 0.02539999999999999897 ), #96 );
ENDSEC;
END-ISO-10303-21;
