ISO-10303-21;
HEADER;
FILE_DESCRIPTION (( 'STEP AP214' ),
    '1' );
FILE_NAME ('Micro_KC-375-1125-187.STEP',
    '2021-09-03T19:33:10',
    ( '' ),
    ( '' ),
    'SwSTEP 2.0',
    'SolidWorks 2020',
    '' );
FILE_SCHEMA (( 'AUTOMOTIVE_DESIGN' ));
ENDSEC;

DATA;
#1 = CARTESIAN_POINT ( 'NONE',  ( 0.0000000000000000000, 0.0000000000000000000, 0.0000000000000000000 ) ) ;
#2 = ORIENTED_EDGE ( 'NONE', *, *, #69, .F. ) ;
#3 = EDGE_CURVE ( 'NONE', #10, #361, #235, .T. ) ;
#4 = DIRECTION ( 'NONE',  ( 1.000000000000000000, 0.0000000000000000000, 0.0000000000000000000 ) ) ;
#5 = ORIENTED_EDGE ( 'NONE', *, *, #74, .T. ) ;
#6 = DIRECTION ( 'NONE',  ( 0.0000000000000000000, 0.0000000000000000000, -1.000000000000000000 ) ) ;
#7 = PRODUCT_DEFINITION_SHAPE ( 'NONE', 'NONE',  #27 ) ;
#8 = ORIENTED_EDGE ( 'NONE', *, *, #130, .F. ) ;
#9 = FACE_OUTER_BOUND ( 'NONE', #62, .T. ) ;
#10 = VERTEX_POINT ( 'NONE', #221 ) ;
#11 = DIRECTION ( 'NONE',  ( 0.0000000000000000000, 0.0000000000000000000, -1.000000000000000000 ) ) ;
#12 = ORIENTED_EDGE ( 'NONE', *, *, #130, .T. ) ;
#13 = AXIS2_PLACEMENT_3D ( 'NONE', #264, #53, #202 ) ;
#14 = EDGE_CURVE ( 'NONE', #50, #332, #47, .T. ) ;
#15 = SURFACE_SIDE_STYLE ('',( #161 ) ) ;
#16 = DIRECTION ( 'NONE',  ( -0.0000000000000000000, -0.0000000000000000000, -1.000000000000000000 ) ) ;
#17 = CARTESIAN_POINT ( 'NONE',  ( 0.0000000000000000000, 0.0000000000000000000, 1.125000000000000222 ) ) ;
#18 = EDGE_CURVE ( 'NONE', #50, #361, #318, .T. ) ;
#19 =( NAMED_UNIT ( * ) SI_UNIT ( $, .STERADIAN. ) SOLID_ANGLE_UNIT ( ) );
#20 = ORIENTED_EDGE ( 'NONE', *, *, #258, .F. ) ;
#21 = AXIS2_PLACEMENT_3D ( 'NONE', #17, #371, #131 ) ;
#22 = AXIS2_PLACEMENT_3D ( 'NONE', #207, #6, #4 ) ;
#23 = LENGTH_MEASURE_WITH_UNIT ( LENGTH_MEASURE( 0.02539999999999999897 ), #314 );
#24 = DIRECTION ( 'NONE',  ( 0.0000000000000000000, 0.0000000000000000000, -1.000000000000000000 ) ) ;
#25 = EDGE_LOOP ( 'NONE', ( #309, #246 ) ) ;
#26 =( CONVERSION_BASED_UNIT ( 'INCH', #138 ) LENGTH_UNIT ( ) NAMED_UNIT ( #339 ) );
#27 = PRODUCT_DEFINITION ( 'UNKNOWN', '', #245, #282 ) ;
#28 = MECHANICAL_DESIGN_GEOMETRIC_PRESENTATION_REPRESENTATION (  '', ( #187 ), #173 ) ;
#29 = VECTOR ( 'NONE', #331, 39.37007874015748143 ) ;
#30 = FACE_OUTER_BOUND ( 'NONE', #310, .T. ) ;
#31 = CYLINDRICAL_SURFACE ( 'NONE', #112, 0.1875000000000000278 ) ;
#32 = LINE ( 'NONE', #90, #126 ) ;
#33 = AXIS2_PLACEMENT_3D ( 'NONE', #338, #250, #252 ) ;
#34 = CARTESIAN_POINT ( 'NONE',  ( 0.0000000000000000000, 0.0000000000000000000, 1.217499999999999583 ) ) ;
#35 = DIRECTION ( 'NONE',  ( -1.000000000000000000, 0.0000000000000000000, 0.0000000000000000000 ) ) ;
#36 = ORIENTED_EDGE ( 'NONE', *, *, #379, .F. ) ;
#37 = DIRECTION ( 'NONE',  ( -0.0000000000000000000, -0.0000000000000000000, -1.000000000000000000 ) ) ;
#38 = VERTEX_POINT ( 'NONE', #162 ) ;
#39 = DIRECTION ( 'NONE',  ( -0.0000000000000000000, -0.0000000000000000000, -1.000000000000000000 ) ) ;
#40 = AXIS2_PLACEMENT_3D ( 'NONE', #227, #294, #113 ) ;
#41 = ORIENTED_EDGE ( 'NONE', *, *, #330, .T. ) ;
#42 = CARTESIAN_POINT ( 'NONE',  ( 0.0000000000000000000, 0.0000000000000000000, 0.0000000000000000000 ) ) ;
#43 = ORIENTED_EDGE ( 'NONE', *, *, #86, .T. ) ;
#44 = CARTESIAN_POINT ( 'NONE',  ( 0.1875000000000000278, 2.296212748401287726E-17, 0.1869999999999999996 ) ) ;
#45 = ORIENTED_EDGE ( 'NONE', *, *, #275, .T. ) ;
#46 =( CONVERSION_BASED_UNIT ( 'INCH', #286 ) LENGTH_UNIT ( ) NAMED_UNIT ( #186 ) );
#47 = LINE ( 'NONE', #367, #196 ) ;
#48 = VECTOR ( 'NONE', #37, 39.37007874015748143 ) ;
#49 = CARTESIAN_POINT ( 'NONE',  ( 0.1875000000000000278, 2.296212748401287726E-17, 0.0000000000000000000 ) ) ;
#50 = VERTEX_POINT ( 'NONE', #342 ) ;
#51 = DIRECTION ( 'NONE',  ( 0.0000000000000000000, 0.0000000000000000000, 1.000000000000000000 ) ) ;
#52 = ORIENTED_EDGE ( 'NONE', *, *, #323, .F. ) ;
#53 = DIRECTION ( 'NONE',  ( 0.0000000000000000000, 0.0000000000000000000, 1.000000000000000000 ) ) ;
#54 = CARTESIAN_POINT ( 'NONE',  ( 0.1875000000000000278, 2.296212748401287726E-17, 2.484999999999999432 ) ) ;
#55 = COLOUR_RGB ( '',0.7921568627450980005, 0.8196078431372548767, 0.9333333333333333481 ) ;
#56 = DIRECTION ( 'NONE',  ( 1.000000000000000000, 0.0000000000000000000, 0.0000000000000000000 ) ) ;
#57 = ADVANCED_FACE ( 'NONE', ( #288 ), #369, .T. ) ;
#58 = VECTOR ( 'NONE', #159, 39.37007874015748854 ) ;
#59 = AXIS2_PLACEMENT_3D ( 'NONE', #319, #350, #289 ) ;
#60 = FACE_OUTER_BOUND ( 'NONE', #299, .T. ) ;
#61 = CARTESIAN_POINT ( 'NONE',  ( 0.1875000000000000278, 2.296212748401287726E-17, 2.500000000000000000 ) ) ;
#62 = EDGE_LOOP ( 'NONE', ( #8, #132, #216, #73 ) ) ;
#63 = ADVANCED_FACE ( 'NONE', ( #219 ), #295, .T. ) ;
#64 = DIRECTION ( 'NONE',  ( 1.000000000000000000, 0.0000000000000000000, 0.0000000000000000000 ) ) ;
#65 = DIRECTION ( 'NONE',  ( 1.000000000000000000, 0.0000000000000000000, -0.0000000000000000000 ) ) ;
#66 = AXIS2_PLACEMENT_3D ( 'NONE', #190, #51, #344 ) ;
#67 = AXIS2_PLACEMENT_3D ( 'NONE', #205, #114, #298 ) ;
#68 = ORIENTED_EDGE ( 'NONE', *, *, #156, .F. ) ;
#69 = EDGE_CURVE ( 'NONE', #50, #124, #354, .T. ) ;
#70 = CARTESIAN_POINT ( 'NONE',  ( 0.09500000000000015377, 0.0000000000000000000, 1.125000000000000222 ) ) ;
#71 = EDGE_LOOP ( 'NONE', ( #329, #41, #97, #68 ) ) ;
#72 = AXIS2_PLACEMENT_3D ( 'NONE', #287, #24, #77 ) ;
#73 = ORIENTED_EDGE ( 'NONE', *, *, #98, .F. ) ;
#74 = EDGE_CURVE ( 'NONE', #124, #50, #179, .T. ) ;
#75 = CIRCLE ( 'NONE', #13, 0.1724999999999995981 ) ;
#76 = FILL_AREA_STYLE ('',( #255 ) ) ;
#77 = DIRECTION ( 'NONE',  ( 1.000000000000000000, 0.0000000000000000000, 0.0000000000000000000 ) ) ;
#78 = DIRECTION ( 'NONE',  ( -1.000000000000000000, 0.0000000000000000000, 0.0000000000000000000 ) ) ;
#79 =( NAMED_UNIT ( * ) SI_UNIT ( $, .STERADIAN. ) SOLID_ANGLE_UNIT ( ) );
#80 = SURFACE_STYLE_FILL_AREA ( #105 ) ;
#81 = CIRCLE ( 'NONE', #146, 0.1724999999999995981 ) ;
#82 = AXIS2_PLACEMENT_3D ( 'NONE', #200, #168, #293 ) ;
#83 = DIRECTION ( 'NONE',  ( -0.0000000000000000000, -0.0000000000000000000, -1.000000000000000000 ) ) ;
#84 = DIRECTION ( 'NONE',  ( -0.0000000000000000000, -0.0000000000000000000, -1.000000000000000000 ) ) ;
#85 = CARTESIAN_POINT ( 'NONE',  ( -0.1724999999999995981, 0.0000000000000000000, 2.500000000000000000 ) ) ;
#86 = EDGE_CURVE ( 'NONE', #361, #10, #107, .T. ) ;
#87 = CARTESIAN_POINT ( 'NONE',  ( 0.1875000000000000278, 2.296212748401287726E-17, 2.500000000000000000 ) ) ;
#88 = PLANE ( 'NONE',  #82 ) ;
#89 = APPLICATION_CONTEXT ( 'automotive_design' ) ;
#90 = CARTESIAN_POINT ( 'NONE',  ( -0.1875000000000000278, 0.0000000000000000000, 2.500000000000000000 ) ) ;
#91 = VECTOR ( 'NONE', #83, 39.37007874015748143 ) ;
#92 = DIRECTION ( 'NONE',  ( 0.0000000000000000000, 0.0000000000000000000, 1.000000000000000000 ) ) ;
#93 = ORIENTED_EDGE ( 'NONE', *, *, #323, .T. ) ;
#94 = CYLINDRICAL_SURFACE ( 'NONE', #236, 0.1875000000000000278 ) ;
#95 = EDGE_LOOP ( 'NONE', ( #129, #211, #274, #278 ) ) ;
#96 = CARTESIAN_POINT ( 'NONE',  ( 0.0000000000000000000, 0.0000000000000000000, 2.500000000000000000 ) ) ;
#97 = ORIENTED_EDGE ( 'NONE', *, *, #249, .T. ) ;
#98 = EDGE_CURVE ( 'NONE', #178, #280, #316, .T. ) ;
#99 = ORIENTED_EDGE ( 'NONE', *, *, #258, .T. ) ;
#100 = ORIENTED_EDGE ( 'NONE', *, *, #120, .T. ) ;
#101 = DIMENSIONAL_EXPONENTS ( 1.000000000000000000, 0.0000000000000000000, 0.0000000000000000000, 0.0000000000000000000, 0.0000000000000000000, 0.0000000000000000000, 0.0000000000000000000 ) ;
#102 = VERTEX_POINT ( 'NONE', #313 ) ;
#103 = AXIS2_PLACEMENT_3D ( 'NONE', #111, #375, #290 ) ;
#104 = CARTESIAN_POINT ( 'NONE',  ( 0.0000000000000000000, 0.0000000000000000000, 2.500000000000000000 ) ) ;
#105 = FILL_AREA_STYLE ('',( #133 ) ) ;
#106 = CARTESIAN_POINT ( 'NONE',  ( 0.0000000000000000000, 0.0000000000000000000, 1.125000000000000222 ) ) ;
#107 = CIRCLE ( 'NONE', #223, 0.09500000000000001499 ) ;
#108 = AXIS2_PLACEMENT_3D ( 'NONE', #1, #181, #64 ) ;
#109 = LINE ( 'NONE', #320, #296 ) ;
#110 =( NAMED_UNIT ( * ) PLANE_ANGLE_UNIT ( ) SI_UNIT ( $, .RADIAN. ) );
#111 = CARTESIAN_POINT ( 'NONE',  ( 0.0000000000000000000, 0.0000000000000000000, 2.500000000000000000 ) ) ;
#112 = AXIS2_PLACEMENT_3D ( 'NONE', #346, #84, #137 ) ;
#113 = DIRECTION ( 'NONE',  ( -1.000000000000000000, 0.0000000000000000000, 0.0000000000000000000 ) ) ;
#114 = DIRECTION ( 'NONE',  ( 0.0000000000000000000, 0.0000000000000000000, 1.000000000000000000 ) ) ;
#115 = VERTEX_POINT ( 'NONE', #49 ) ;
#116 = VECTOR ( 'NONE', #183, 39.37007874015748143 ) ;
#117 = CARTESIAN_POINT ( 'NONE',  ( 0.0000000000000000000, 0.0000000000000000000, 2.500000000000000000 ) ) ;
#118 = ORIENTED_EDGE ( 'NONE', *, *, #3, .T. ) ;
#119 = DIRECTION ( 'NONE',  ( 0.0000000000000000000, 0.0000000000000000000, 1.000000000000000000 ) ) ;
#120 = EDGE_CURVE ( 'NONE', #165, #280, #372, .T. ) ;
#121 = MANIFOLD_SOLID_BREP ( 'Cut-Revolve1', #305 ) ;
#122 = ORIENTED_EDGE ( 'NONE', *, *, #18, .F. ) ;
#123 = DIRECTION ( 'NONE',  ( 0.0000000000000000000, 0.0000000000000000000, -1.000000000000000000 ) ) ;
#124 = VERTEX_POINT ( 'NONE', #292 ) ;
#125 = CARTESIAN_POINT ( 'NONE',  ( 0.0000000000000000000, 0.0000000000000000000, 1.125000000000000222 ) ) ;
#126 = VECTOR ( 'NONE', #39, 39.37007874015748143 ) ;
#127 = ORIENTED_EDGE ( 'NONE', *, *, #14, .T. ) ;
#128 =( NAMED_UNIT ( * ) PLANE_ANGLE_UNIT ( ) SI_UNIT ( $, .RADIAN. ) );
#129 = ORIENTED_EDGE ( 'NONE', *, *, #14, .F. ) ;
#130 = EDGE_CURVE ( 'NONE', #38, #178, #81, .T. ) ;
#131 = DIRECTION ( 'NONE',  ( -1.000000000000000000, 0.0000000000000000000, 0.0000000000000000000 ) ) ;
#132 = ORIENTED_EDGE ( 'NONE', *, *, #170, .T. ) ;
#133 = FILL_AREA_STYLE_COLOUR ( '', #244 ) ;
#134 = ADVANCED_FACE ( 'NONE', ( #260 ), #31, .T. ) ;
#135 = SURFACE_SIDE_STYLE ('',( #80 ) ) ;
#136 = DIRECTION ( 'NONE',  ( -0.0000000000000000000, -0.0000000000000000000, -1.000000000000000000 ) ) ;
#137 = DIRECTION ( 'NONE',  ( -1.000000000000000000, 0.0000000000000000000, 0.0000000000000000000 ) ) ;
#138 = LENGTH_MEASURE_WITH_UNIT ( LENGTH_MEASURE( 0.02539999999999999897 ), #321 );
#139 = ADVANCED_FACE ( 'NONE', ( #30 ), #231, .T. ) ;
#140 = DIRECTION ( 'NONE',  ( -1.000000000000000000, 0.0000000000000000000, 0.0000000000000000000 ) ) ;
#141 = VERTEX_POINT ( 'NONE', #349 ) ;
#142 = EDGE_CURVE ( 'NONE', #165, #102, #347, .T. ) ;
#143 = DIRECTION ( 'NONE',  ( 1.000000000000000000, 0.0000000000000000000, 0.0000000000000000000 ) ) ;
#144 = PRODUCT ( 'Micro_KC-375-1125-187', 'Micro_KC-375-1125-187', '', ( #195 ) ) ;
#145 = ORIENTED_EDGE ( 'NONE', *, *, #18, .T. ) ;
#146 = AXIS2_PLACEMENT_3D ( 'NONE', #191, #228, #171 ) ;
#147 = DIRECTION ( 'NONE',  ( -0.0000000000000000000, -0.0000000000000000000, -1.000000000000000000 ) ) ;
#148 = EDGE_LOOP ( 'NONE', ( #327, #182, #20, #256 ) ) ;
#149 = CARTESIAN_POINT ( 'NONE',  ( 0.0000000000000000000, 0.0000000000000000000, 0.1869999999999999996 ) ) ;
#150 = ORIENTED_EDGE ( 'NONE', *, *, #86, .F. ) ;
#151 = DIRECTION ( 'NONE',  ( -1.000000000000000000, 0.0000000000000000000, 0.0000000000000000000 ) ) ;
#152 = VERTEX_POINT ( 'NONE', #204 ) ;
#153 = APPLICATION_PROTOCOL_DEFINITION ( 'draft international standard', 'automotive_design', 1998, #89 ) ;
#154 = CIRCLE ( 'NONE', #265, 0.1875000000000000278 ) ;
#155 = DIRECTION ( 'NONE',  ( -0.0000000000000000000, -0.0000000000000000000, -1.000000000000000000 ) ) ;
#156 = EDGE_CURVE ( 'NONE', #152, #141, #109, .T. ) ;
#157 = SURFACE_STYLE_USAGE ( .BOTH. , #15 ) ;
#158 = DIRECTION ( 'NONE',  ( -0.0000000000000000000, -0.0000000000000000000, -1.000000000000000000 ) ) ;
#159 = DIRECTION ( 'NONE',  ( -0.7071067811865385799, 0.0000000000000000000, -0.7071067811865563435 ) ) ;
#160 = EDGE_CURVE ( 'NONE', #178, #38, #75, .T. ) ;
#161 = SURFACE_STYLE_FILL_AREA ( #76 ) ;
#162 = CARTESIAN_POINT ( 'NONE',  ( 0.1724999999999995981, 2.204364238465233357E-17, 2.500000000000000000 ) ) ;
#163 = CONICAL_SURFACE ( 'NONE', #253, 0.1724999999999995981, 0.7853981633974357335 ) ;
#164 = EDGE_LOOP ( 'NONE', ( #356, #268, #337, #234 ) ) ;
#165 = VERTEX_POINT ( 'NONE', #54 ) ;
#166 = CYLINDRICAL_SURFACE ( 'NONE', #59, 0.09500000000000008438 ) ;
#167 = DIRECTION ( 'NONE',  ( 0.7071067811865385799, 8.659560562354823157E-17, -0.7071067811865563435 ) ) ;
#168 = DIRECTION ( 'NONE',  ( 0.0000000000000000000, 0.0000000000000000000, 1.000000000000000000 ) ) ;
#169 = FACE_OUTER_BOUND ( 'NONE', #242, .T. ) ;
#170 = EDGE_CURVE ( 'NONE', #38, #165, #266, .T. ) ;
#171 = DIRECTION ( 'NONE',  ( 1.000000000000000000, 0.0000000000000000000, 0.0000000000000000000 ) ) ;
#172 = AXIS2_PLACEMENT_3D ( 'NONE', #106, #158, #78 ) ;
#173 =( GEOMETRIC_REPRESENTATION_CONTEXT ( 3 ) GLOBAL_UNCERTAINTY_ASSIGNED_CONTEXT ( ( #198 ) ) GLOBAL_UNIT_ASSIGNED_CONTEXT ( ( #26, #110, #374 ) ) REPRESENTATION_CONTEXT ( 'NONE', 'WORKASPACE' ) );
#174 = DIRECTION ( 'NONE',  ( 1.000000000000000000, 0.0000000000000000000, 0.0000000000000000000 ) ) ;
#175 = PLANE ( 'NONE',  #272 ) ;
#176 = ORIENTED_EDGE ( 'NONE', *, *, #156, .T. ) ;
#177 = LINE ( 'NONE', #70, #29 ) ;
#178 = VERTEX_POINT ( 'NONE', #85 ) ;
#179 = CIRCLE ( 'NONE', #21, 0.09500000000000015377 ) ;
#180 = STYLED_ITEM ( 'NONE', ( #247 ), #208 ) ;
#181 = DIRECTION ( 'NONE',  ( 0.0000000000000000000, 0.0000000000000000000, 1.000000000000000000 ) ) ;
#182 = ORIENTED_EDGE ( 'NONE', *, *, #142, .T. ) ;
#183 = DIRECTION ( 'NONE',  ( -0.0000000000000000000, -0.0000000000000000000, -1.000000000000000000 ) ) ;
#184 = ORIENTED_EDGE ( 'NONE', *, *, #69, .T. ) ;
#185 = ADVANCED_FACE ( 'NONE', ( #199 ), #378, .T. ) ;
#186 = DIMENSIONAL_EXPONENTS ( 1.000000000000000000, 0.0000000000000000000, 0.0000000000000000000, 0.0000000000000000000, 0.0000000000000000000, 0.0000000000000000000, 0.0000000000000000000 ) ;
#187 = STYLED_ITEM ( 'NONE', ( #225 ), #121 ) ;
#188 =( CONVERSION_BASED_UNIT ( 'INCH', #23 ) LENGTH_UNIT ( ) NAMED_UNIT ( #101 ) );
#189 = AXIS2_PLACEMENT_3D ( 'NONE', #117, #11, #237 ) ;
#190 = CARTESIAN_POINT ( 'NONE',  ( 0.0000000000000000000, 0.0000000000000000000, 1.125000000000000222 ) ) ;
#191 = CARTESIAN_POINT ( 'NONE',  ( 0.0000000000000000000, 0.0000000000000000000, 2.500000000000000000 ) ) ;
#192 = EDGE_CURVE ( 'NONE', #102, #332, #368, .T. ) ;
#193 = SHAPE_DEFINITION_REPRESENTATION ( #7, #208 ) ;
#194 = DIRECTION ( 'NONE',  ( -1.000000000000000000, 0.0000000000000000000, 0.0000000000000000000 ) ) ;
#195 = PRODUCT_CONTEXT ( 'NONE', #89, 'mechanical' ) ;
#196 = VECTOR ( 'NONE', #340, 39.37007874015748143 ) ;
#197 =( GEOMETRIC_REPRESENTATION_CONTEXT ( 3 ) GLOBAL_UNCERTAINTY_ASSIGNED_CONTEXT ( ( #261 ) ) GLOBAL_UNIT_ASSIGNED_CONTEXT ( ( #46, #284, #19 ) ) REPRESENTATION_CONTEXT ( 'NONE', 'WORKASPACE' ) );
#198 = UNCERTAINTY_MEASURE_WITH_UNIT (LENGTH_MEASURE( 1.000000000000000082E-05 ), #26, 'distance_accuracy_value', 'NONE');
#199 = FACE_OUTER_BOUND ( 'NONE', #71, .T. ) ;
#200 = CARTESIAN_POINT ( 'NONE',  ( 0.0000000000000000000, 0.0000000000000000000, 0.0000000000000000000 ) ) ;
#201 =( GEOMETRIC_REPRESENTATION_CONTEXT ( 3 ) GLOBAL_UNCERTAINTY_ASSIGNED_CONTEXT ( ( #376 ) ) GLOBAL_UNIT_ASSIGNED_CONTEXT ( ( #188, #128, #79 ) ) REPRESENTATION_CONTEXT ( 'NONE', 'WORKASPACE' ) );
#202 = DIRECTION ( 'NONE',  ( 1.000000000000000000, 0.0000000000000000000, 0.0000000000000000000 ) ) ;
#203 = ADVANCED_FACE ( 'NONE', ( #169 ), #166, .T. ) ;
#204 = CARTESIAN_POINT ( 'NONE',  ( -0.1875000000000000278, 0.0000000000000000000, 0.1869999999999999996 ) ) ;
#205 = CARTESIAN_POINT ( 'NONE',  ( 0.0000000000000000000, 0.0000000000000000000, 2.500000000000000000 ) ) ;
#206 = CIRCLE ( 'NONE', #348, 0.1875000000000000278 ) ;
#207 = CARTESIAN_POINT ( 'NONE',  ( 0.0000000000000000000, 0.0000000000000000000, 2.484999999999999432 ) ) ;
#208 = ADVANCED_BREP_SHAPE_REPRESENTATION ( 'Micro_KC-375-1125-187', ( #121, #33 ), #201 ) ;
#209 = EDGE_LOOP ( 'NONE', ( #2, #127, #99, #336 ) ) ;
#210 = CARTESIAN_POINT ( 'NONE',  ( 0.0000000000000000000, 0.0000000000000000000, 2.500000000000000000 ) ) ;
#211 = ORIENTED_EDGE ( 'NONE', *, *, #74, .F. ) ;
#212 = PLANE ( 'NONE',  #67 ) ;
#213 = ORIENTED_EDGE ( 'NONE', *, *, #192, .F. ) ;
#214 = CIRCLE ( 'NONE', #355, 0.1875000000000000278 ) ;
#215 = FACE_OUTER_BOUND ( 'NONE', #25, .T. ) ;
#216 = ORIENTED_EDGE ( 'NONE', *, *, #306, .F. ) ;
#217 = ADVANCED_FACE ( 'NONE', ( #262 ), #88, .F. ) ;
#218 = ORIENTED_EDGE ( 'NONE', *, *, #226, .T. ) ;
#219 = FACE_OUTER_BOUND ( 'NONE', #95, .T. ) ;
#220 = APPLICATION_PROTOCOL_DEFINITION ( 'draft international standard', 'automotive_design', 1998, #301 ) ;
#221 = CARTESIAN_POINT ( 'NONE',  ( 0.09500000000000001499, 1.163414459189986206E-17, 0.1869999999999999996 ) ) ;
#222 = ORIENTED_EDGE ( 'NONE', *, *, #330, .F. ) ;
#223 = AXIS2_PLACEMENT_3D ( 'NONE', #251, #285, #194 ) ;
#224 = AXIS2_PLACEMENT_3D ( 'NONE', #34, #136, #56 ) ;
#225 = PRESENTATION_STYLE_ASSIGNMENT (( #257 ) ) ;
#226 = EDGE_CURVE ( 'NONE', #280, #332, #32, .T. ) ;
#227 = CARTESIAN_POINT ( 'NONE',  ( 0.0000000000000000000, 0.0000000000000000000, 0.0000000000000000000 ) ) ;
#228 = DIRECTION ( 'NONE',  ( 0.0000000000000000000, 0.0000000000000000000, 1.000000000000000000 ) ) ;
#229 = ADVANCED_FACE ( 'NONE', ( #352, #215 ), #175, .T. ) ;
#230 = PRESENTATION_LAYER_ASSIGNMENT (  '', '', ( #180 ) ) ;
#231 = CYLINDRICAL_SURFACE ( 'NONE', #40, 0.09500000000000008438 ) ;
#232 = CARTESIAN_POINT ( 'NONE',  ( 0.1724999999999995981, 2.112515728529179297E-17, 2.500000000000000000 ) ) ;
#233 = CARTESIAN_POINT ( 'NONE',  ( 0.0000000000000000000, 0.0000000000000000000, 1.217499999999999583 ) ) ;
#234 = ORIENTED_EDGE ( 'NONE', *, *, #120, .F. ) ;
#235 = CIRCLE ( 'NONE', #271, 0.09500000000000001499 ) ;
#236 = AXIS2_PLACEMENT_3D ( 'NONE', #210, #335, #328 ) ;
#237 = DIRECTION ( 'NONE',  ( -1.000000000000000000, 0.0000000000000000000, 0.0000000000000000000 ) ) ;
#238 = EDGE_LOOP ( 'NONE', ( #52, #363 ) ) ;
#239 = LINE ( 'NONE', #61, #48 ) ;
#240 = ORIENTED_EDGE ( 'NONE', *, *, #3, .F. ) ;
#241 = LINE ( 'NONE', #362, #116 ) ;
#242 = EDGE_LOOP ( 'NONE', ( #184, #276, #150, #122 ) ) ;
#243 = ADVANCED_FACE ( 'NONE', ( #60 ), #212, .T. ) ;
#244 = COLOUR_RGB ( '',0.7921568627450980005, 0.8196078431372548767, 0.9333333333333333481 ) ;
#245 = PRODUCT_DEFINITION_FORMATION_WITH_SPECIFIED_SOURCE ( 'ANY', '', #144, .NOT_KNOWN. ) ;
#246 = ORIENTED_EDGE ( 'NONE', *, *, #275, .F. ) ;
#247 = PRESENTATION_STYLE_ASSIGNMENT (( #157 ) ) ;
#248 = CARTESIAN_POINT ( 'NONE',  ( -0.09500000000000008438, 0.0000000000000000000, 0.0000000000000000000 ) ) ;
#249 = EDGE_CURVE ( 'NONE', #115, #141, #279, .T. ) ;
#250 = DIRECTION ( 'NONE',  ( 0.0000000000000000000, 0.0000000000000000000, 1.000000000000000000 ) ) ;
#251 = CARTESIAN_POINT ( 'NONE',  ( 0.0000000000000000000, 0.0000000000000000000, 0.1869999999999999996 ) ) ;
#252 = DIRECTION ( 'NONE',  ( 1.000000000000000000, 0.0000000000000000000, 0.0000000000000000000 ) ) ;
#253 = AXIS2_PLACEMENT_3D ( 'NONE', #96, #123, #151 ) ;
#254 = DIRECTION ( 'NONE',  ( -1.000000000000000000, 0.0000000000000000000, 0.0000000000000000000 ) ) ;
#255 = FILL_AREA_STYLE_COLOUR ( '', #55 ) ;
#256 = ORIENTED_EDGE ( 'NONE', *, *, #226, .F. ) ;
#257 = SURFACE_STYLE_USAGE ( .BOTH. , #135 ) ;
#258 = EDGE_CURVE ( 'NONE', #332, #102, #214, .T. ) ;
#259 = AXIS2_PLACEMENT_3D ( 'NONE', #104, #365, #315 ) ;
#260 = FACE_OUTER_BOUND ( 'NONE', #270, .T. ) ;
#261 = UNCERTAINTY_MEASURE_WITH_UNIT (LENGTH_MEASURE( 1.000000000000000082E-05 ), #46, 'distance_accuracy_value', 'NONE');
#262 = FACE_OUTER_BOUND ( 'NONE', #238, .T. ) ;
#263 = EDGE_CURVE ( 'NONE', #152, #302, #297, .T. ) ;
#264 = CARTESIAN_POINT ( 'NONE',  ( 0.0000000000000000000, 0.0000000000000000000, 2.500000000000000000 ) ) ;
#265 = AXIS2_PLACEMENT_3D ( 'NONE', #307, #267, #35 ) ;
#266 = LINE ( 'NONE', #232, #343 ) ;
#267 = DIRECTION ( 'NONE',  ( -0.0000000000000000000, -0.0000000000000000000, -1.000000000000000000 ) ) ;
#268 = ORIENTED_EDGE ( 'NONE', *, *, #160, .F. ) ;
#269 = CARTESIAN_POINT ( 'NONE',  ( -0.1875000000000000278, 0.0000000000000000000, 1.217499999999999583 ) ) ;
#270 = EDGE_LOOP ( 'NONE', ( #359, #100, #218, #213 ) ) ;
#271 = AXIS2_PLACEMENT_3D ( 'NONE', #283, #155, #254 ) ;
#272 = AXIS2_PLACEMENT_3D ( 'NONE', #273, #300, #65 ) ;
#273 = CARTESIAN_POINT ( 'NONE',  ( 0.1875000000000000278, 0.0000000000000000000, 0.1869999999999999996 ) ) ;
#274 = ORIENTED_EDGE ( 'NONE', *, *, #358, .T. ) ;
#275 = EDGE_CURVE ( 'NONE', #302, #152, #154, .T. ) ;
#276 = ORIENTED_EDGE ( 'NONE', *, *, #379, .T. ) ;
#277 = DIRECTION ( 'NONE',  ( -0.0000000000000000000, -0.0000000000000000000, -1.000000000000000000 ) ) ;
#278 = ORIENTED_EDGE ( 'NONE', *, *, #192, .T. ) ;
#279 = CIRCLE ( 'NONE', #108, 0.1875000000000000278 ) ;
#280 = VERTEX_POINT ( 'NONE', #353 ) ;
#281 = PRODUCT_RELATED_PRODUCT_CATEGORY ( 'part', '', ( #144 ) ) ;
#282 = PRODUCT_DEFINITION_CONTEXT ( 'detailed design', #301, 'design' ) ;
#283 = CARTESIAN_POINT ( 'NONE',  ( 0.0000000000000000000, 0.0000000000000000000, 0.1869999999999999996 ) ) ;
#284 =( NAMED_UNIT ( * ) PLANE_ANGLE_UNIT ( ) SI_UNIT ( $, .RADIAN. ) );
#285 = DIRECTION ( 'NONE',  ( -0.0000000000000000000, -0.0000000000000000000, -1.000000000000000000 ) ) ;
#286 = LENGTH_MEASURE_WITH_UNIT ( LENGTH_MEASURE( 0.02539999999999999897 ), #366 );
#287 = CARTESIAN_POINT ( 'NONE',  ( 0.0000000000000000000, 0.0000000000000000000, 2.484999999999999432 ) ) ;
#288 = FACE_OUTER_BOUND ( 'NONE', #148, .T. ) ;
#289 = DIRECTION ( 'NONE',  ( -1.000000000000000000, 0.0000000000000000000, 0.0000000000000000000 ) ) ;
#290 = DIRECTION ( 'NONE',  ( -1.000000000000000000, 0.0000000000000000000, 0.0000000000000000000 ) ) ;
#291 = ADVANCED_FACE ( 'NONE', ( #324 ), #377, .T. ) ;
#292 = CARTESIAN_POINT ( 'NONE',  ( 0.09500000000000015377, 0.0000000000000000000, 1.125000000000000222 ) ) ;
#293 = DIRECTION ( 'NONE',  ( 1.000000000000000000, 0.0000000000000000000, -0.0000000000000000000 ) ) ;
#294 = DIRECTION ( 'NONE',  ( -0.0000000000000000000, -0.0000000000000000000, -1.000000000000000000 ) ) ;
#295 = CONICAL_SURFACE ( 'NONE', #66, 0.09500000000000015377, 0.7853981633974502774 ) ;
#296 = VECTOR ( 'NONE', #322, 39.37007874015748143 ) ;
#297 = CIRCLE ( 'NONE', #325, 0.1875000000000000278 ) ;
#298 = DIRECTION ( 'NONE',  ( 1.000000000000000000, 0.0000000000000000000, -0.0000000000000000000 ) ) ;
#299 = EDGE_LOOP ( 'NONE', ( #364, #12 ) ) ;
#300 = DIRECTION ( 'NONE',  ( 0.0000000000000000000, 0.0000000000000000000, 1.000000000000000000 ) ) ;
#301 = APPLICATION_CONTEXT ( 'automotive_design' ) ;
#302 = VERTEX_POINT ( 'NONE', #44 ) ;
#303 = CARTESIAN_POINT ( 'NONE',  ( -0.09500000000000001499, 0.0000000000000000000, 0.1869999999999999996 ) ) ;
#304 = EDGE_LOOP ( 'NONE', ( #222, #45, #176, #93 ) ) ;
#305 = CLOSED_SHELL ( 'NONE', ( #185, #203, #291, #345, #57, #134, #243, #370, #63, #139, #229, #217, #351 ) ) ;
#306 = EDGE_CURVE ( 'NONE', #280, #165, #317, .T. ) ;
#307 = CARTESIAN_POINT ( 'NONE',  ( 0.0000000000000000000, 0.0000000000000000000, 0.1869999999999999996 ) ) ;
#308 = EDGE_LOOP ( 'NONE', ( #43, #118 ) ) ;
#309 = ORIENTED_EDGE ( 'NONE', *, *, #263, .F. ) ;
#310 = EDGE_LOOP ( 'NONE', ( #36, #5, #145, #240 ) ) ;
#311 = VECTOR ( 'NONE', #16, 39.37007874015748143 ) ;
#312 = CONICAL_SURFACE ( 'NONE', #189, 0.1724999999999995981, 0.7853981633974357335 ) ;
#313 = CARTESIAN_POINT ( 'NONE',  ( 0.1875000000000000278, 2.296212748401287726E-17, 1.217499999999999583 ) ) ;
#314 =( LENGTH_UNIT ( ) NAMED_UNIT ( * ) SI_UNIT ( $, .METRE. ) );
#315 = DIRECTION ( 'NONE',  ( -1.000000000000000000, 0.0000000000000000000, 0.0000000000000000000 ) ) ;
#316 = LINE ( 'NONE', #341, #58 ) ;
#317 = CIRCLE ( 'NONE', #22, 0.1875000000000000278 ) ;
#318 = LINE ( 'NONE', #248, #311 ) ;
#319 = CARTESIAN_POINT ( 'NONE',  ( 0.0000000000000000000, 0.0000000000000000000, 0.0000000000000000000 ) ) ;
#320 = CARTESIAN_POINT ( 'NONE',  ( -0.1875000000000000278, 0.0000000000000000000, 2.500000000000000000 ) ) ;
#321 =( LENGTH_UNIT ( ) NAMED_UNIT ( * ) SI_UNIT ( $, .METRE. ) );
#322 = DIRECTION ( 'NONE',  ( -0.0000000000000000000, -0.0000000000000000000, -1.000000000000000000 ) ) ;
#323 = EDGE_CURVE ( 'NONE', #141, #115, #206, .T. ) ;
#324 = FACE_OUTER_BOUND ( 'NONE', #209, .T. ) ;
#325 = AXIS2_PLACEMENT_3D ( 'NONE', #149, #277, #140 ) ;
#326 = DIRECTION ( 'NONE',  ( 1.000000000000000000, 0.0000000000000000000, 0.0000000000000000000 ) ) ;
#327 = ORIENTED_EDGE ( 'NONE', *, *, #306, .T. ) ;
#328 = DIRECTION ( 'NONE',  ( -1.000000000000000000, 0.0000000000000000000, 0.0000000000000000000 ) ) ;
#329 = ORIENTED_EDGE ( 'NONE', *, *, #263, .T. ) ;
#330 = EDGE_CURVE ( 'NONE', #302, #115, #239, .T. ) ;
#331 = DIRECTION ( 'NONE',  ( 0.7071067811865489050, 0.0000000000000000000, 0.7071067811865461294 ) ) ;
#332 = VERTEX_POINT ( 'NONE', #269 ) ;
#333 = PRESENTATION_LAYER_ASSIGNMENT (  '', '', ( #187 ) ) ;
#334 = MECHANICAL_DESIGN_GEOMETRIC_PRESENTATION_REPRESENTATION (  '', ( #180 ), #197 ) ;
#335 = DIRECTION ( 'NONE',  ( -0.0000000000000000000, -0.0000000000000000000, -1.000000000000000000 ) ) ;
#336 = ORIENTED_EDGE ( 'NONE', *, *, #358, .F. ) ;
#337 = ORIENTED_EDGE ( 'NONE', *, *, #98, .T. ) ;
#338 = CARTESIAN_POINT ( 'NONE',  ( 0.0000000000000000000, 0.0000000000000000000, 0.0000000000000000000 ) ) ;
#339 = DIMENSIONAL_EXPONENTS ( 1.000000000000000000, 0.0000000000000000000, 0.0000000000000000000, 0.0000000000000000000, 0.0000000000000000000, 0.0000000000000000000, 0.0000000000000000000 ) ;
#340 = DIRECTION ( 'NONE',  ( -0.7071067811865489050, 8.659560562354950115E-17, 0.7071067811865461294 ) ) ;
#341 = CARTESIAN_POINT ( 'NONE',  ( -0.1724999999999995981, 0.0000000000000000000, 2.500000000000000000 ) ) ;
#342 = CARTESIAN_POINT ( 'NONE',  ( -0.09500000000000015377, 1.729813603795637505E-17, 1.125000000000000222 ) ) ;
#343 = VECTOR ( 'NONE', #167, 39.37007874015748854 ) ;
#344 = DIRECTION ( 'NONE',  ( 1.000000000000000000, 0.0000000000000000000, 0.0000000000000000000 ) ) ;
#345 = ADVANCED_FACE ( 'NONE', ( #9 ), #312, .T. ) ;
#346 = CARTESIAN_POINT ( 'NONE',  ( 0.0000000000000000000, 0.0000000000000000000, 2.500000000000000000 ) ) ;
#347 = LINE ( 'NONE', #87, #91 ) ;
#348 = AXIS2_PLACEMENT_3D ( 'NONE', #42, #119, #326 ) ;
#349 = CARTESIAN_POINT ( 'NONE',  ( -0.1875000000000000278, 0.0000000000000000000, 0.0000000000000000000 ) ) ;
#350 = DIRECTION ( 'NONE',  ( -0.0000000000000000000, -0.0000000000000000000, -1.000000000000000000 ) ) ;
#351 = ADVANCED_FACE ( 'NONE', ( #357 ), #94, .T. ) ;
#352 = FACE_BOUND ( 'NONE', #308, .T. ) ;
#353 = CARTESIAN_POINT ( 'NONE',  ( -0.1875000000000000278, 0.0000000000000000000, 2.484999999999999432 ) ) ;
#354 = CIRCLE ( 'NONE', #172, 0.09500000000000015377 ) ;
#355 = AXIS2_PLACEMENT_3D ( 'NONE', #233, #147, #174 ) ;
#356 = ORIENTED_EDGE ( 'NONE', *, *, #170, .F. ) ;
#357 = FACE_OUTER_BOUND ( 'NONE', #304, .T. ) ;
#358 = EDGE_CURVE ( 'NONE', #124, #102, #177, .T. ) ;
#359 = ORIENTED_EDGE ( 'NONE', *, *, #142, .F. ) ;
#360 = FACE_OUTER_BOUND ( 'NONE', #164, .T. ) ;
#361 = VERTEX_POINT ( 'NONE', #303 ) ;
#362 = CARTESIAN_POINT ( 'NONE',  ( 0.09500000000000008438, 1.163414459189986514E-17, 0.0000000000000000000 ) ) ;
#363 = ORIENTED_EDGE ( 'NONE', *, *, #249, .F. ) ;
#364 = ORIENTED_EDGE ( 'NONE', *, *, #160, .T. ) ;
#365 = DIRECTION ( 'NONE',  ( -0.0000000000000000000, -0.0000000000000000000, -1.000000000000000000 ) ) ;
#366 =( LENGTH_UNIT ( ) NAMED_UNIT ( * ) SI_UNIT ( $, .METRE. ) );
#367 = CARTESIAN_POINT ( 'NONE',  ( -0.09500000000000015377, 1.163414459189987285E-17, 1.125000000000000222 ) ) ;
#368 = CIRCLE ( 'NONE', #224, 0.1875000000000000278 ) ;
#369 = CYLINDRICAL_SURFACE ( 'NONE', #259, 0.1875000000000000278 ) ;
#370 = ADVANCED_FACE ( 'NONE', ( #360 ), #163, .T. ) ;
#371 = DIRECTION ( 'NONE',  ( -0.0000000000000000000, -0.0000000000000000000, -1.000000000000000000 ) ) ;
#372 = CIRCLE ( 'NONE', #72, 0.1875000000000000278 ) ;
#373 = AXIS2_PLACEMENT_3D ( 'NONE', #125, #92, #143 ) ;
#374 =( NAMED_UNIT ( * ) SI_UNIT ( $, .STERADIAN. ) SOLID_ANGLE_UNIT ( ) );
#375 = DIRECTION ( 'NONE',  ( -0.0000000000000000000, -0.0000000000000000000, -1.000000000000000000 ) ) ;
#376 = UNCERTAINTY_MEASURE_WITH_UNIT (LENGTH_MEASURE( 1.000000000000000082E-05 ), #188, 'distance_accuracy_value', 'NONE');
#377 = CONICAL_SURFACE ( 'NONE', #373, 0.09500000000000015377, 0.7853981633974502774 ) ;
#378 = CYLINDRICAL_SURFACE ( 'NONE', #103, 0.1875000000000000278 ) ;
#379 = EDGE_CURVE ( 'NONE', #124, #10, #241, .T. ) ;
ENDSEC;
END-ISO-10303-21;
