ISO-10303-21;
HEADER;
FILE_DESCRIPTION (( 'STEP AP214' ),
    '1' );
FILE_NAME ('49361.STEP',
    '2023-06-30T22:02:04',
    ( '' ),
    ( '' ),
    'SwSTEP 2.0',
    'SolidWorks 2023',
    '' );
FILE_SCHEMA (( 'AUTOMOTIVE_DESIGN' ));
ENDSEC;

DATA;
#1 = EDGE_CURVE ( 'NONE', #176, #232, #56, .T. ) ;
#2 = LENGTH_MEASURE_WITH_UNIT ( LENGTH_MEASURE( 0.02539999999999999897 ), #292 );
#3 = VERTEX_POINT ( 'NONE', #296 ) ;
#4 = DIRECTION ( 'NONE',  ( 0.000000000000000000, 1.000000000000000000, 0.000000000000000000 ) ) ;
#5 = CARTESIAN_POINT ( 'NONE',  ( 0.000000000000000000, 0.3125000000000000555, -0.3124999999999999445 ) ) ;
#6 = CARTESIAN_POINT ( 'NONE',  ( -3.827021247335478926E-17, 0.3125000000000000000, 0.000000000000000000 ) ) ;
#7 = EDGE_LOOP ( 'NONE', ( #237, #357 ) ) ;
#8 =( CONVERSION_BASED_UNIT ( 'INCH', #302 ) LENGTH_UNIT ( ) NAMED_UNIT ( #273 ) );
#9 = ORIENTED_EDGE ( 'NONE', *, *, #211, .T. ) ;
#10 = CARTESIAN_POINT ( 'NONE',  ( -3.827021247335478926E-17, 0.3125000000000000000, 0.000000000000000000 ) ) ;
#11 = DIRECTION ( 'NONE',  ( -1.224646799147353207E-16, 1.000000000000000000, 0.000000000000000000 ) ) ;
#12 = AXIS2_PLACEMENT_3D ( 'NONE', #173, #197, #269 ) ;
#13 = ORIENTED_EDGE ( 'NONE', *, *, #276, .F. ) ;
#14 = DIMENSIONAL_EXPONENTS ( 1.000000000000000000, 0.000000000000000000, 0.000000000000000000, 0.000000000000000000, 0.000000000000000000, 0.000000000000000000, 0.000000000000000000 ) ;
#15 = APPLICATION_PROTOCOL_DEFINITION ( 'draft international standard', 'automotive_design', 1998, #238 ) ;
#16 = FACE_OUTER_BOUND ( 'NONE', #262, .T. ) ;
#17 =( LENGTH_UNIT ( ) NAMED_UNIT ( * ) SI_UNIT ( $, .METRE. ) );
#18 = CIRCLE ( 'NONE', #270, 0.3125000000000000000 ) ;
#19 = MECHANICAL_DESIGN_GEOMETRIC_PRESENTATION_REPRESENTATION (  '', ( #163 ), #46 ) ;
#20 = EDGE_CURVE ( 'NONE', #75, #30, #258, .T. ) ;
#21 = LINE ( 'NONE', #115, #354 ) ;
#22 = DIRECTION ( 'NONE',  ( -0.000000000000000000, -1.000000000000000000, -0.000000000000000000 ) ) ;
#23 = DIMENSIONAL_EXPONENTS ( 1.000000000000000000, 0.000000000000000000, 0.000000000000000000, 0.000000000000000000, 0.000000000000000000, 0.000000000000000000, 0.000000000000000000 ) ;
#24 = PRESENTATION_LAYER_ASSIGNMENT (  '', '', ( #152 ) ) ;
#25 = PRODUCT_DEFINITION_CONTEXT ( 'detailed design', #238, 'design' ) ;
#26 = AXIS2_PLACEMENT_3D ( 'NONE', #247, #150, #62 ) ;
#27 = CARTESIAN_POINT ( 'NONE',  ( 0.000000000000000000, 0.3125000000000000555, 0.000000000000000000 ) ) ;
#28 = EDGE_LOOP ( 'NONE', ( #256, #161 ) ) ;
#29 =( CONVERSION_BASED_UNIT ( 'INCH', #229 ) LENGTH_UNIT ( ) NAMED_UNIT ( #59 ) );
#30 = VERTEX_POINT ( 'NONE', #5 ) ;
#31 = CIRCLE ( 'NONE', #26, 0.3124999999999999445 ) ;
#32 =( NAMED_UNIT ( * ) PLANE_ANGLE_UNIT ( ) SI_UNIT ( $, .RADIAN. ) );
#33 = CARTESIAN_POINT ( 'NONE',  ( 2.296212748401286986E-16, 1.625000000000000000, 0.000000000000000000 ) ) ;
#34 = CYLINDRICAL_SURFACE ( 'NONE', #361, 0.3124999999999998890 ) ;
#35 = CARTESIAN_POINT ( 'NONE',  ( 0.000000000000000000, 0.000000000000000000, -0.3124999999999998890 ) ) ;
#36 = FILL_AREA_STYLE_COLOUR ( '', #145 ) ;
#37 = CARTESIAN_POINT ( 'NONE',  ( -6.123233995736764803E-17, 4.000000000000000000, 0.000000000000000000 ) ) ;
#38 = ORIENTED_EDGE ( 'NONE', *, *, #49, .T. ) ;
#39 = SURFACE_SIDE_STYLE ('',( #43 ) ) ;
#40 = AXIS2_PLACEMENT_3D ( 'NONE', #148, #208, #124 ) ;
#41 = DIMENSIONAL_EXPONENTS ( 1.000000000000000000, 0.000000000000000000, 0.000000000000000000, 0.000000000000000000, 0.000000000000000000, 0.000000000000000000, 0.000000000000000000 ) ;
#42 = CIRCLE ( 'NONE', #86, 0.3124999999999998890 ) ;
#43 = SURFACE_STYLE_FILL_AREA ( #261 ) ;
#44 = FILL_AREA_STYLE ('',( #134 ) ) ;
#45 = CIRCLE ( 'NONE', #192, 0.3124999999999999445 ) ;
#46 =( GEOMETRIC_REPRESENTATION_CONTEXT ( 3 ) GLOBAL_UNCERTAINTY_ASSIGNED_CONTEXT ( ( #138 ) ) GLOBAL_UNIT_ASSIGNED_CONTEXT ( ( #293, #160, #295 ) ) REPRESENTATION_CONTEXT ( 'NONE', 'WORKASPACE' ) );
#47 =( NAMED_UNIT ( * ) PLANE_ANGLE_UNIT ( ) SI_UNIT ( $, .RADIAN. ) );
#48 =( NAMED_UNIT ( * ) SI_UNIT ( $, .STERADIAN. ) SOLID_ANGLE_UNIT ( ) );
#49 = EDGE_CURVE ( 'NONE', #323, #329, #125, .T. ) ;
#50 = FILL_AREA_STYLE_COLOUR ( '', #65 ) ;
#51 =( LENGTH_UNIT ( ) NAMED_UNIT ( * ) SI_UNIT ( $, .METRE. ) );
#52 = PRODUCT_DEFINITION_SHAPE ( 'NONE', 'NONE',  #117 ) ;
#53 = ORIENTED_EDGE ( 'NONE', *, *, #360, .F. ) ;
#54 = DIRECTION ( 'NONE',  ( -1.224646799147353207E-16, 1.000000000000000000, -0.000000000000000000 ) ) ;
#55 = UNCERTAINTY_MEASURE_WITH_UNIT (LENGTH_MEASURE( 1.000000000000000082E-05 ), #29, 'distance_accuracy_value', 'NONE');
#56 = CIRCLE ( 'NONE', #169, 0.3125000000000000000 ) ;
#57 = CYLINDRICAL_SURFACE ( 'NONE', #264, 0.3124999999999997224 ) ;
#58 = SURFACE_STYLE_FILL_AREA ( #119 ) ;
#59 = DIMENSIONAL_EXPONENTS ( 1.000000000000000000, 0.000000000000000000, 0.000000000000000000, 0.000000000000000000, 0.000000000000000000, 0.000000000000000000, 0.000000000000000000 ) ;
#60 = DIRECTION ( 'NONE',  ( 0.000000000000000000, 0.000000000000000000, 1.000000000000000000 ) ) ;
#61 = EDGE_LOOP ( 'NONE', ( #202, #9, #351, #53 ) ) ;
#62 = DIRECTION ( 'NONE',  ( 0.000000000000000000, 0.000000000000000000, -1.000000000000000000 ) ) ;
#63 = ORIENTED_EDGE ( 'NONE', *, *, #1, .F. ) ;
#64 = MECHANICAL_DESIGN_GEOMETRIC_PRESENTATION_REPRESENTATION (  '', ( #236 ), #135 ) ;
#65 = COLOUR_RGB ( '',1.000000000000000000, 0.000000000000000000, 0.000000000000000000 ) ;
#66 = FILL_AREA_STYLE ('',( #343 ) ) ;
#67 = DIRECTION ( 'NONE',  ( -1.224646799147353207E-16, 1.000000000000000000, -0.000000000000000000 ) ) ;
#68 = DIRECTION ( 'NONE',  ( 1.000000000000000000, 0.000000000000000000, -1.224646799147353207E-16 ) ) ;
#69 =( NAMED_UNIT ( * ) SI_UNIT ( $, .STERADIAN. ) SOLID_ANGLE_UNIT ( ) );
#70 =( NAMED_UNIT ( * ) PLANE_ANGLE_UNIT ( ) SI_UNIT ( $, .RADIAN. ) );
#71 = VERTEX_POINT ( 'NONE', #97 ) ;
#72 = FACE_OUTER_BOUND ( 'NONE', #7, .T. ) ;
#73 = FILL_AREA_STYLE ('',( #36 ) ) ;
#74 = EDGE_CURVE ( 'NONE', #107, #329, #45, .T. ) ;
#75 = VERTEX_POINT ( 'NONE', #184 ) ;
#76 = AXIS2_PLACEMENT_3D ( 'NONE', #33, #155, #242 ) ;
#77 = PRESENTATION_LAYER_ASSIGNMENT (  '', '', ( #163 ) ) ;
#78 = APPLICATION_CONTEXT ( 'automotive_design' ) ;
#79 =( CONVERSION_BASED_UNIT ( 'INCH', #158 ) LENGTH_UNIT ( ) NAMED_UNIT ( #305 ) );
#80 = CLOSED_SHELL ( 'NONE', ( #315, #140, #187, #281, #310 ) ) ;
#81 = PRESENTATION_LAYER_ASSIGNMENT (  '', '', ( #236 ) ) ;
#82 =( NAMED_UNIT ( * ) SI_UNIT ( $, .STERADIAN. ) SOLID_ANGLE_UNIT ( ) );
#83 = DIMENSIONAL_EXPONENTS ( 1.000000000000000000, 0.000000000000000000, 0.000000000000000000, 0.000000000000000000, 0.000000000000000000, 0.000000000000000000, 0.000000000000000000 ) ;
#84 = EDGE_CURVE ( 'NONE', #3, #131, #113, .T. ) ;
#85 = PRESENTATION_STYLE_ASSIGNMENT (( #337 ) ) ;
#86 = AXIS2_PLACEMENT_3D ( 'NONE', #37, #67, #154 ) ;
#87 = DIRECTION ( 'NONE',  ( 1.000000000000000000, 0.000000000000000000, 0.000000000000000000 ) ) ;
#88 = FILL_AREA_STYLE_COLOUR ( '', #243 ) ;
#89 = FACE_OUTER_BOUND ( 'NONE', #61, .T. ) ;
#90 = SURFACE_STYLE_USAGE ( .BOTH. , #201 ) ;
#91 = UNCERTAINTY_MEASURE_WITH_UNIT (LENGTH_MEASURE( 1.000000000000000082E-05 ), #280, 'distance_accuracy_value', 'NONE');
#92 = MECHANICAL_DESIGN_GEOMETRIC_PRESENTATION_REPRESENTATION (  '', ( #152 ), #231 ) ;
#93 = DIRECTION ( 'NONE',  ( -1.000000000000000000, 0.000000000000000000, 0.000000000000000000 ) ) ;
#94 = EDGE_CURVE ( 'NONE', #75, #323, #191, .T. ) ;
#95 = ORIENTED_EDGE ( 'NONE', *, *, #74, .T. ) ;
#96 = DIRECTION ( 'NONE',  ( -1.224646799147353207E-16, 1.000000000000000000, -0.000000000000000000 ) ) ;
#97 = CARTESIAN_POINT ( 'NONE',  ( 0.3124999999999998335, 4.000000000000000000, 3.827021247335476461E-17 ) ) ;
#98 = ADVANCED_FACE ( 'NONE', ( #89 ), #142, .T. ) ;
#99 = DIRECTION ( 'NONE',  ( 0.000000000000000000, -0.000000000000000000, 1.000000000000000000 ) ) ;
#100 = ORIENTED_EDGE ( 'NONE', *, *, #287, .F. ) ;
#101 = CIRCLE ( 'NONE', #40, 0.3124999999999998335 ) ;
#102 = DIRECTION ( 'NONE',  ( -0.000000000000000000, -1.000000000000000000, -0.000000000000000000 ) ) ;
#103 = DIRECTION ( 'NONE',  ( 1.000000000000000000, 0.000000000000000000, 0.000000000000000000 ) ) ;
#104 = DIRECTION ( 'NONE',  ( -0.000000000000000000, -1.000000000000000000, -0.000000000000000000 ) ) ;
#105 = SURFACE_SIDE_STYLE ('',( #263 ) ) ;
#106 = SURFACE_SIDE_STYLE ('',( #159 ) ) ;
#107 = VERTEX_POINT ( 'NONE', #271 ) ;
#108 = DIRECTION ( 'NONE',  ( 0.000000000000000000, 0.000000000000000000, 1.000000000000000000 ) ) ;
#109 = AXIS2_PLACEMENT_3D ( 'NONE', #172, #249, #198 ) ;
#110 = DIRECTION ( 'NONE',  ( -0.000000000000000000, -1.000000000000000000, -0.000000000000000000 ) ) ;
#111 = FACE_OUTER_BOUND ( 'NONE', #186, .T. ) ;
#112 = CARTESIAN_POINT ( 'NONE',  ( 0.000000000000000000, 1.625000000000000000, 0.000000000000000000 ) ) ;
#113 = CIRCLE ( 'NONE', #76, 0.3124999999999996114 ) ;
#114 = SURFACE_SIDE_STYLE ('',( #139 ) ) ;
#115 = CARTESIAN_POINT ( 'NONE',  ( 0.3124999999999996669, 4.000000000000000000, 3.827021247335475845E-17 ) ) ;
#116 = STYLED_ITEM ( 'NONE', ( #190 ), #168 ) ;
#117 = PRODUCT_DEFINITION ( 'UNKNOWN', '', #170, #25 ) ;
#118 = COLOUR_RGB ( '',1.000000000000000000, 0.000000000000000000, 0.000000000000000000 ) ;
#119 = FILL_AREA_STYLE ('',( #50 ) ) ;
#120 = ADVANCED_BREP_SHAPE_REPRESENTATION ( '49361', ( #171, #168, #12 ), #277 ) ;
#121 = CARTESIAN_POINT ( 'NONE',  ( 3.827021247335477694E-17, 0.3125000000000000555, 0.3124999999999999445 ) ) ;
#122 = ORIENTED_EDGE ( 'NONE', *, *, #84, .F. ) ;
#123 = PRESENTATION_LAYER_ASSIGNMENT (  '', '', ( #314 ) ) ;
#124 = DIRECTION ( 'NONE',  ( 0.000000000000000000, 0.000000000000000000, -1.000000000000000000 ) ) ;
#125 = LINE ( 'NONE', #233, #370 ) ;
#126 = CARTESIAN_POINT ( 'NONE',  ( -6.123233995736764803E-17, 4.000000000000000000, 0.000000000000000000 ) ) ;
#127 = ORIENTED_EDGE ( 'NONE', *, *, #178, .F. ) ;
#128 =( NAMED_UNIT ( * ) PLANE_ANGLE_UNIT ( ) SI_UNIT ( $, .RADIAN. ) );
#129 = ORIENTED_EDGE ( 'NONE', *, *, #1, .T. ) ;
#130 = CIRCLE ( 'NONE', #334, 0.3124999999999998890 ) ;
#131 = VERTEX_POINT ( 'NONE', #369 ) ;
#132 = FACE_OUTER_BOUND ( 'NONE', #308, .T. ) ;
#133 = CARTESIAN_POINT ( 'NONE',  ( 2.296212748401286986E-16, 1.625000000000000000, 0.000000000000000000 ) ) ;
#134 = FILL_AREA_STYLE_COLOUR ( '', #118 ) ;
#135 =( GEOMETRIC_REPRESENTATION_CONTEXT ( 3 ) GLOBAL_UNCERTAINTY_ASSIGNED_CONTEXT ( ( #91 ) ) GLOBAL_UNIT_ASSIGNED_CONTEXT ( ( #280, #342, #350 ) ) REPRESENTATION_CONTEXT ( 'NONE', 'WORKASPACE' ) );
#136 = AXIS2_PLACEMENT_3D ( 'NONE', #255, #60, #103 ) ;
#137 = EDGE_CURVE ( 'NONE', #131, #71, #21, .T. ) ;
#138 = UNCERTAINTY_MEASURE_WITH_UNIT (LENGTH_MEASURE( 1.000000000000000082E-05 ), #293, 'distance_accuracy_value', 'NONE');
#139 = SURFACE_STYLE_FILL_AREA ( #306 ) ;
#140 = ADVANCED_FACE ( 'NONE', ( #228 ), #341, .T. ) ;
#141 = CIRCLE ( 'NONE', #246, 0.3124999999999996114 ) ;
#142 = CYLINDRICAL_SURFACE ( 'NONE', #109, 0.3124999999999997224 ) ;
#143 = PRODUCT ( '49361', '49361', '', ( #272 ) ) ;
#144 = PRESENTATION_STYLE_ASSIGNMENT (( #90 ) ) ;
#145 = COLOUR_RGB ( '',0.7921568627450980005, 0.8196078431372548767, 0.9333333333333333481 ) ;
#146 = ADVANCED_FACE ( 'NONE', ( #111 ), #220, .F. ) ;
#147 = DIRECTION ( 'NONE',  ( -1.000000000000000000, 0.000000000000000000, 0.000000000000000000 ) ) ;
#148 = CARTESIAN_POINT ( 'NONE',  ( 0.000000000000000000, 1.625000000000000000, 0.000000000000000000 ) ) ;
#149 = ORIENTED_EDGE ( 'NONE', *, *, #224, .T. ) ;
#150 = DIRECTION ( 'NONE',  ( -0.000000000000000000, -1.000000000000000000, -0.000000000000000000 ) ) ;
#151 =( CONVERSION_BASED_UNIT ( 'INCH', #326 ) LENGTH_UNIT ( ) NAMED_UNIT ( #368 ) );
#152 = STYLED_ITEM ( 'NONE', ( #200 ), #140 ) ;
#153 = ORIENTED_EDGE ( 'NONE', *, *, #74, .F. ) ;
#154 = DIRECTION ( 'NONE',  ( -1.000000000000000000, 0.000000000000000000, 0.000000000000000000 ) ) ;
#155 = DIRECTION ( 'NONE',  ( -1.224646799147353207E-16, 1.000000000000000000, -0.000000000000000000 ) ) ;
#156 = DIRECTION ( 'NONE',  ( -1.224646799147353207E-16, 1.000000000000000000, -0.000000000000000000 ) ) ;
#157 = VERTEX_POINT ( 'NONE', #325 ) ;
#158 = LENGTH_MEASURE_WITH_UNIT ( LENGTH_MEASURE( 0.02539999999999999897 ), #166 );
#159 = SURFACE_STYLE_FILL_AREA ( #73 ) ;
#160 =( NAMED_UNIT ( * ) PLANE_ANGLE_UNIT ( ) SI_UNIT ( $, .RADIAN. ) );
#161 = ORIENTED_EDGE ( 'NONE', *, *, #203, .F. ) ;
#162 = COLOUR_RGB ( '',0.7921568627450980005, 0.8196078431372548767, 0.9333333333333333481 ) ;
#163 = STYLED_ITEM ( 'NONE', ( #316 ), #315 ) ;
#164 = PRESENTATION_STYLE_ASSIGNMENT (( #352 ) ) ;
#165 =( CONVERSION_BASED_UNIT ( 'INCH', #167 ) LENGTH_UNIT ( ) NAMED_UNIT ( #41 ) );
#166 =( LENGTH_UNIT ( ) NAMED_UNIT ( * ) SI_UNIT ( $, .METRE. ) );
#167 = LENGTH_MEASURE_WITH_UNIT ( LENGTH_MEASURE( 0.02539999999999999897 ), #17 );
#168 = MANIFOLD_SOLID_BREP ( 'Revolve - Tool Body (Straight Shanked)', #353 ) ;
#169 = AXIS2_PLACEMENT_3D ( 'NONE', #265, #290, #68 ) ;
#170 = PRODUCT_DEFINITION_FORMATION_WITH_SPECIFIED_SOURCE ( 'ANY', '', #143, .NOT_KNOWN. ) ;
#171 = MANIFOLD_SOLID_BREP ( 'Revolve - Cutting Edge', #80 ) ;
#172 = CARTESIAN_POINT ( 'NONE',  ( -6.123233995736766036E-17, 4.000000000000000000, 0.000000000000000000 ) ) ;
#173 = CARTESIAN_POINT ( 'NONE',  ( 0.000000000000000000, 0.000000000000000000, 0.000000000000000000 ) ) ;
#174 = SURFACE_STYLE_USAGE ( .BOTH. , #114 ) ;
#175 =( GEOMETRIC_REPRESENTATION_CONTEXT ( 3 ) GLOBAL_UNCERTAINTY_ASSIGNED_CONTEXT ( ( #373 ) ) GLOBAL_UNIT_ASSIGNED_CONTEXT ( ( #248, #47, #82 ) ) REPRESENTATION_CONTEXT ( 'NONE', 'WORKASPACE' ) );
#176 = VERTEX_POINT ( 'NONE', #230 ) ;
#177 = CARTESIAN_POINT ( 'NONE',  ( 0.000000000000000000, 1.625000000000000000, 0.000000000000000000 ) ) ;
#178 = EDGE_CURVE ( 'NONE', #176, #30, #31, .T. ) ;
#179 = DIRECTION ( 'NONE',  ( 0.000000000000000000, 0.000000000000000000, -1.000000000000000000 ) ) ;
#180 = ORIENTED_EDGE ( 'NONE', *, *, #49, .F. ) ;
#181 = FACE_OUTER_BOUND ( 'NONE', #28, .T. ) ;
#182 = LENGTH_MEASURE_WITH_UNIT ( LENGTH_MEASURE( 0.02539999999999999897 ), #285 );
#183 = AXIS2_PLACEMENT_3D ( 'NONE', #27, #251, #179 ) ;
#184 = CARTESIAN_POINT ( 'NONE',  ( 0.000000000000000000, 1.625000000000000000, -0.3124999999999998335 ) ) ;
#185 = FILL_AREA_STYLE_COLOUR ( '', #204 ) ;
#186 = EDGE_LOOP ( 'NONE', ( #122, #234 ) ) ;
#187 = ADVANCED_FACE ( 'NONE', ( #181 ), #257, .T. ) ;
#188 = ORIENTED_EDGE ( 'NONE', *, *, #84, .T. ) ;
#189 = CARTESIAN_POINT ( 'NONE',  ( 0.3124999999999998335, 4.000000000000000000, 0.000000000000000000 ) ) ;
#190 = PRESENTATION_STYLE_ASSIGNMENT (( #328 ) ) ;
#191 = CIRCLE ( 'NONE', #311, 0.3124999999999998335 ) ;
#192 = AXIS2_PLACEMENT_3D ( 'NONE', #213, #207, #240 ) ;
#193 = AXIS2_PLACEMENT_3D ( 'NONE', #206, #318, #301 ) ;
#194 = CARTESIAN_POINT ( 'NONE',  ( 0.000000000000000000, 0.000000000000000000, 0.000000000000000000 ) ) ;
#195 = EDGE_CURVE ( 'NONE', #329, #176, #283, .T. ) ;
#196 = VECTOR ( 'NONE', #156, 39.37007874015748143 ) ;
#197 = DIRECTION ( 'NONE',  ( 0.000000000000000000, 0.000000000000000000, 1.000000000000000000 ) ) ;
#198 = DIRECTION ( 'NONE',  ( -1.000000000000000000, 0.000000000000000000, 0.000000000000000000 ) ) ;
#199 =( GEOMETRIC_REPRESENTATION_CONTEXT ( 3 ) GLOBAL_UNCERTAINTY_ASSIGNED_CONTEXT ( ( #55 ) ) GLOBAL_UNIT_ASSIGNED_CONTEXT ( ( #29, #32, #259 ) ) REPRESENTATION_CONTEXT ( 'NONE', 'WORKASPACE' ) );
#200 = PRESENTATION_STYLE_ASSIGNMENT (( #174 ) ) ;
#201 = SURFACE_SIDE_STYLE ('',( #320 ) ) ;
#202 = ORIENTED_EDGE ( 'NONE', *, *, #137, .F. ) ;
#203 = EDGE_CURVE ( 'NONE', #323, #75, #101, .T. ) ;
#204 = COLOUR_RGB ( '',1.000000000000000000, 0.000000000000000000, 0.000000000000000000 ) ;
#205 = SURFACE_SIDE_STYLE ('',( #58 ) ) ;
#206 = CARTESIAN_POINT ( 'NONE',  ( 0.000000000000000000, 0.3125000000000000555, 0.000000000000000000 ) ) ;
#207 = DIRECTION ( 'NONE',  ( -0.000000000000000000, -1.000000000000000000, -0.000000000000000000 ) ) ;
#208 = DIRECTION ( 'NONE',  ( -0.000000000000000000, -1.000000000000000000, -0.000000000000000000 ) ) ;
#209 = SURFACE_STYLE_USAGE ( .BOTH. , #205 ) ;
#210 = ORIENTED_EDGE ( 'NONE', *, *, #20, .T. ) ;
#211 = EDGE_CURVE ( 'NONE', #131, #3, #141, .T. ) ;
#212 = DIRECTION ( 'NONE',  ( -1.000000000000000000, -1.224646799147353207E-16, 0.000000000000000000 ) ) ;
#213 = CARTESIAN_POINT ( 'NONE',  ( 0.000000000000000000, 0.3125000000000000555, 0.000000000000000000 ) ) ;
#214 = DIRECTION ( 'NONE',  ( 1.224646799147353207E-16, -1.000000000000000000, 0.000000000000000000 ) ) ;
#215 = EDGE_LOOP ( 'NONE', ( #188, #286, #355, #100 ) ) ;
#216 = AXIS2_PLACEMENT_3D ( 'NONE', #10, #108, #87 ) ;
#217 =( LENGTH_UNIT ( ) NAMED_UNIT ( * ) SI_UNIT ( $, .METRE. ) );
#218 =( NAMED_UNIT ( * ) PLANE_ANGLE_UNIT ( ) SI_UNIT ( $, .RADIAN. ) );
#219 = LINE ( 'NONE', #333, #196 ) ;
#220 = PLANE ( 'NONE',  #300 ) ;
#221 = CIRCLE ( 'NONE', #193, 0.3124999999999999445 ) ;
#222 = SURFACE_STYLE_FILL_AREA ( #278 ) ;
#223 = UNCERTAINTY_MEASURE_WITH_UNIT (LENGTH_MEASURE( 1.000000000000000082E-05 ), #151, 'distance_accuracy_value', 'NONE');
#224 = EDGE_CURVE ( 'NONE', #107, #232, #18, .T. ) ;
#225 = EDGE_CURVE ( 'NONE', #157, #71, #130, .T. ) ;
#226 = MECHANICAL_DESIGN_GEOMETRIC_PRESENTATION_REPRESENTATION (  '', ( #116 ), #175 ) ;
#227 = PRESENTATION_LAYER_ASSIGNMENT (  '', '', ( #335 ) ) ;
#228 = FACE_OUTER_BOUND ( 'NONE', #317, .T. ) ;
#229 = LENGTH_MEASURE_WITH_UNIT ( LENGTH_MEASURE( 0.02539999999999999897 ), #51 );
#230 = CARTESIAN_POINT ( 'NONE',  ( -0.3125000000000000000, 0.3125000000000000555, 3.827021247335477694E-17 ) ) ;
#231 =( GEOMETRIC_REPRESENTATION_CONTEXT ( 3 ) GLOBAL_UNCERTAINTY_ASSIGNED_CONTEXT ( ( #339 ) ) GLOBAL_UNIT_ASSIGNED_CONTEXT ( ( #165, #218, #69 ) ) REPRESENTATION_CONTEXT ( 'NONE', 'WORKASPACE' ) );
#232 = VERTEX_POINT ( 'NONE', #372 ) ;
#233 = CARTESIAN_POINT ( 'NONE',  ( 3.827021247335477078E-17, 0.000000000000000000, 0.3124999999999998890 ) ) ;
#234 = ORIENTED_EDGE ( 'NONE', *, *, #211, .F. ) ;
#235 = PRESENTATION_STYLE_ASSIGNMENT (( #244 ) ) ;
#236 = STYLED_ITEM ( 'NONE', ( #144 ), #187 ) ;
#237 = ORIENTED_EDGE ( 'NONE', *, *, #225, .T. ) ;
#238 = APPLICATION_CONTEXT ( 'automotive_design' ) ;
#239 = DIRECTION ( 'NONE',  ( 0.000000000000000000, 0.000000000000000000, -1.000000000000000000 ) ) ;
#240 = DIRECTION ( 'NONE',  ( 0.000000000000000000, 0.000000000000000000, -1.000000000000000000 ) ) ;
#241 = DIRECTION ( 'NONE',  ( 0.000000000000000000, 0.000000000000000000, -1.000000000000000000 ) ) ;
#242 = DIRECTION ( 'NONE',  ( -1.000000000000000000, 0.000000000000000000, 0.000000000000000000 ) ) ;
#243 = COLOUR_RGB ( '',1.000000000000000000, 0.000000000000000000, 0.000000000000000000 ) ;
#244 = SURFACE_STYLE_USAGE ( .BOTH. , #105 ) ;
#245 = CARTESIAN_POINT ( 'NONE',  ( 0.000000000000000000, 0.000000000000000000, 0.000000000000000000 ) ) ;
#246 = AXIS2_PLACEMENT_3D ( 'NONE', #371, #288, #147 ) ;
#247 = CARTESIAN_POINT ( 'NONE',  ( 0.000000000000000000, 0.3125000000000000555, 0.000000000000000000 ) ) ;
#248 =( CONVERSION_BASED_UNIT ( 'INCH', #330 ) LENGTH_UNIT ( ) NAMED_UNIT ( #14 ) );
#249 = DIRECTION ( 'NONE',  ( -1.224646799147353207E-16, 1.000000000000000000, -0.000000000000000000 ) ) ;
#250 = COLOUR_RGB ( '',1.000000000000000000, 0.000000000000000000, 0.000000000000000000 ) ;
#251 = DIRECTION ( 'NONE',  ( -0.000000000000000000, -1.000000000000000000, -0.000000000000000000 ) ) ;
#252 = EDGE_LOOP ( 'NONE', ( #63, #327, #347, #149 ) ) ;
#253 = ADVANCED_FACE ( 'NONE', ( #312 ), #57, .T. ) ;
#254 = DIRECTION ( 'NONE',  ( -1.000000000000000000, 0.000000000000000000, 0.000000000000000000 ) ) ;
#255 = CARTESIAN_POINT ( 'NONE',  ( -3.827021247335478926E-17, 0.3125000000000000000, 0.000000000000000000 ) ) ;
#256 = ORIENTED_EDGE ( 'NONE', *, *, #94, .F. ) ;
#257 = PLANE ( 'NONE',  #340 ) ;
#258 = LINE ( 'NONE', #35, #345 ) ;
#259 =( NAMED_UNIT ( * ) SI_UNIT ( $, .STERADIAN. ) SOLID_ANGLE_UNIT ( ) );
#260 = DIRECTION ( 'NONE',  ( -0.000000000000000000, -1.000000000000000000, -0.000000000000000000 ) ) ;
#261 = FILL_AREA_STYLE ('',( #185 ) ) ;
#262 = EDGE_LOOP ( 'NONE', ( #319, #129, #344, #95 ) ) ;
#263 = SURFACE_STYLE_FILL_AREA ( #44 ) ;
#264 = AXIS2_PLACEMENT_3D ( 'NONE', #346, #96, #93 ) ;
#265 = CARTESIAN_POINT ( 'NONE',  ( -3.827021247335478926E-17, 0.3125000000000000000, 0.000000000000000000 ) ) ;
#266 = MECHANICAL_DESIGN_GEOMETRIC_PRESENTATION_REPRESENTATION (  '', ( #335 ), #304 ) ;
#267 =( NAMED_UNIT ( * ) SI_UNIT ( $, .STERADIAN. ) SOLID_ANGLE_UNIT ( ) );
#268 =( LENGTH_UNIT ( ) NAMED_UNIT ( * ) SI_UNIT ( $, .METRE. ) );
#269 = DIRECTION ( 'NONE',  ( 1.000000000000000000, 0.000000000000000000, 0.000000000000000000 ) ) ;
#270 = AXIS2_PLACEMENT_3D ( 'NONE', #6, #309, #348 ) ;
#271 = CARTESIAN_POINT ( 'NONE',  ( 0.3124999999999999445, 0.3125000000000000555, 0.000000000000000000 ) ) ;
#272 = PRODUCT_CONTEXT ( 'NONE', #78, 'mechanical' ) ;
#273 = DIMENSIONAL_EXPONENTS ( 1.000000000000000000, 0.000000000000000000, 0.000000000000000000, 0.000000000000000000, 0.000000000000000000, 0.000000000000000000, 0.000000000000000000 ) ;
#274 = PRODUCT_RELATED_PRODUCT_CATEGORY ( 'part', '', ( #143 ) ) ;
#275 = AXIS2_PLACEMENT_3D ( 'NONE', #245, #102, #241 ) ;
#276 = EDGE_CURVE ( 'NONE', #30, #107, #221, .T. ) ;
#277 =( GEOMETRIC_REPRESENTATION_CONTEXT ( 3 ) GLOBAL_UNCERTAINTY_ASSIGNED_CONTEXT ( ( #223 ) ) GLOBAL_UNIT_ASSIGNED_CONTEXT ( ( #151, #70, #48 ) ) REPRESENTATION_CONTEXT ( 'NONE', 'WORKASPACE' ) );
#278 = FILL_AREA_STYLE ('',( #338 ) ) ;
#279 = SURFACE_SIDE_STYLE ('',( #222 ) ) ;
#280 =( CONVERSION_BASED_UNIT ( 'INCH', #2 ) LENGTH_UNIT ( ) NAMED_UNIT ( #23 ) );
#281 = ADVANCED_FACE ( 'NONE', ( #132 ), #34, .T. ) ;
#282 = ORIENTED_EDGE ( 'NONE', *, *, #203, .T. ) ;
#283 = CIRCLE ( 'NONE', #183, 0.3124999999999999445 ) ;
#284 = AXIS2_PLACEMENT_3D ( 'NONE', #189, #214, #356 ) ;
#285 =( LENGTH_UNIT ( ) NAMED_UNIT ( * ) SI_UNIT ( $, .METRE. ) );
#286 = ORIENTED_EDGE ( 'NONE', *, *, #137, .T. ) ;
#287 = EDGE_CURVE ( 'NONE', #3, #157, #219, .T. ) ;
#288 = DIRECTION ( 'NONE',  ( -1.224646799147353207E-16, 1.000000000000000000, -0.000000000000000000 ) ) ;
#289 =( LENGTH_UNIT ( ) NAMED_UNIT ( * ) SI_UNIT ( $, .METRE. ) );
#290 = DIRECTION ( 'NONE',  ( 1.224646799147353207E-16, -0.000000000000000000, 1.000000000000000000 ) ) ;
#291 = ADVANCED_FACE ( 'NONE', ( #72 ), #324, .F. ) ;
#292 =( LENGTH_UNIT ( ) NAMED_UNIT ( * ) SI_UNIT ( $, .METRE. ) );
#293 =( CONVERSION_BASED_UNIT ( 'INCH', #182 ) LENGTH_UNIT ( ) NAMED_UNIT ( #83 ) );
#294 = ORIENTED_EDGE ( 'NONE', *, *, #195, .F. ) ;
#295 =( NAMED_UNIT ( * ) SI_UNIT ( $, .STERADIAN. ) SOLID_ANGLE_UNIT ( ) );
#296 = CARTESIAN_POINT ( 'NONE',  ( -0.3124999999999993894, 1.625000000000000000, 0.000000000000000000 ) ) ;
#297 = SPHERICAL_SURFACE ( 'NONE', #136, 0.3125000000000000000 ) ;
#298 = ORIENTED_EDGE ( 'NONE', *, *, #20, .F. ) ;
#299 =( NAMED_UNIT ( * ) PLANE_ANGLE_UNIT ( ) SI_UNIT ( $, .RADIAN. ) );
#300 = AXIS2_PLACEMENT_3D ( 'NONE', #133, #11, #212 ) ;
#301 = DIRECTION ( 'NONE',  ( 0.000000000000000000, 0.000000000000000000, -1.000000000000000000 ) ) ;
#302 = LENGTH_MEASURE_WITH_UNIT ( LENGTH_MEASURE( 0.02539999999999999897 ), #217 );
#303 = PRESENTATION_LAYER_ASSIGNMENT (  '', '', ( #116 ) ) ;
#304 =( GEOMETRIC_REPRESENTATION_CONTEXT ( 3 ) GLOBAL_UNCERTAINTY_ASSIGNED_CONTEXT ( ( #336 ) ) GLOBAL_UNIT_ASSIGNED_CONTEXT ( ( #79, #299, #267 ) ) REPRESENTATION_CONTEXT ( 'NONE', 'WORKASPACE' ) );
#305 = DIMENSIONAL_EXPONENTS ( 1.000000000000000000, 0.000000000000000000, 0.000000000000000000, 0.000000000000000000, 0.000000000000000000, 0.000000000000000000, 0.000000000000000000 ) ;
#306 = FILL_AREA_STYLE ('',( #88 ) ) ;
#307 = STYLED_ITEM ( 'NONE', ( #85 ), #171 ) ;
#308 = EDGE_LOOP ( 'NONE', ( #180, #282, #210, #127, #294 ) ) ;
#309 = DIRECTION ( 'NONE',  ( 0.000000000000000000, 0.000000000000000000, -1.000000000000000000 ) ) ;
#310 = ADVANCED_FACE ( 'NONE', ( #332 ), #358, .T. ) ;
#311 = AXIS2_PLACEMENT_3D ( 'NONE', #112, #22, #365 ) ;
#312 = FACE_OUTER_BOUND ( 'NONE', #215, .T. ) ;
#313 = UNCERTAINTY_MEASURE_WITH_UNIT (LENGTH_MEASURE( 1.000000000000000082E-05 ), #8, 'distance_accuracy_value', 'NONE');
#314 = STYLED_ITEM ( 'NONE', ( #235 ), #281 ) ;
#315 = ADVANCED_FACE ( 'NONE', ( #16 ), #297, .T. ) ;
#316 = PRESENTATION_STYLE_ASSIGNMENT (( #209 ) ) ;
#317 = EDGE_LOOP ( 'NONE', ( #349, #38, #153, #13, #298 ) ) ;
#318 = DIRECTION ( 'NONE',  ( -0.000000000000000000, -1.000000000000000000, -0.000000000000000000 ) ) ;
#319 = ORIENTED_EDGE ( 'NONE', *, *, #195, .T. ) ;
#320 = SURFACE_STYLE_FILL_AREA ( #66 ) ;
#321 = PRESENTATION_LAYER_ASSIGNMENT (  '', '', ( #307 ) ) ;
#322 = MECHANICAL_DESIGN_GEOMETRIC_PRESENTATION_REPRESENTATION (  '', ( #314 ), #366 ) ;
#323 = VERTEX_POINT ( 'NONE', #364 ) ;
#324 = PLANE ( 'NONE',  #284 ) ;
#325 = CARTESIAN_POINT ( 'NONE',  ( -0.3124999999999999445, 4.000000000000000000, 0.000000000000000000 ) ) ;
#326 = LENGTH_MEASURE_WITH_UNIT ( LENGTH_MEASURE( 0.02539999999999999897 ), #289 );
#327 = ORIENTED_EDGE ( 'NONE', *, *, #178, .T. ) ;
#328 = SURFACE_STYLE_USAGE ( .BOTH. , #106 ) ;
#329 = VERTEX_POINT ( 'NONE', #121 ) ;
#330 = LENGTH_MEASURE_WITH_UNIT ( LENGTH_MEASURE( 0.02539999999999999897 ), #268 );
#331 = APPLICATION_PROTOCOL_DEFINITION ( 'draft international standard', 'automotive_design', 1998, #78 ) ;
#332 = FACE_OUTER_BOUND ( 'NONE', #252, .T. ) ;
#333 = CARTESIAN_POINT ( 'NONE',  ( -0.3124999999999998335, 4.000000000000000000, 0.000000000000000000 ) ) ;
#334 = AXIS2_PLACEMENT_3D ( 'NONE', #126, #54, #254 ) ;
#335 = STYLED_ITEM ( 'NONE', ( #164 ), #310 ) ;
#336 = UNCERTAINTY_MEASURE_WITH_UNIT (LENGTH_MEASURE( 1.000000000000000082E-05 ), #79, 'distance_accuracy_value', 'NONE');
#337 = SURFACE_STYLE_USAGE ( .BOTH. , #279 ) ;
#338 = FILL_AREA_STYLE_COLOUR ( '', #162 ) ;
#339 = UNCERTAINTY_MEASURE_WITH_UNIT (LENGTH_MEASURE( 1.000000000000000082E-05 ), #165, 'distance_accuracy_value', 'NONE');
#340 = AXIS2_PLACEMENT_3D ( 'NONE', #177, #4, #99 ) ;
#341 = CYLINDRICAL_SURFACE ( 'NONE', #275, 0.3124999999999998890 ) ;
#342 =( NAMED_UNIT ( * ) PLANE_ANGLE_UNIT ( ) SI_UNIT ( $, .RADIAN. ) );
#343 = FILL_AREA_STYLE_COLOUR ( '', #250 ) ;
#344 = ORIENTED_EDGE ( 'NONE', *, *, #224, .F. ) ;
#345 = VECTOR ( 'NONE', #260, 39.37007874015748143 ) ;
#346 = CARTESIAN_POINT ( 'NONE',  ( -6.123233995736766036E-17, 4.000000000000000000, 0.000000000000000000 ) ) ;
#347 = ORIENTED_EDGE ( 'NONE', *, *, #276, .T. ) ;
#348 = DIRECTION ( 'NONE',  ( -1.000000000000000000, 0.000000000000000000, 0.000000000000000000 ) ) ;
#349 = ORIENTED_EDGE ( 'NONE', *, *, #94, .T. ) ;
#350 =( NAMED_UNIT ( * ) SI_UNIT ( $, .STERADIAN. ) SOLID_ANGLE_UNIT ( ) );
#351 = ORIENTED_EDGE ( 'NONE', *, *, #287, .T. ) ;
#352 = SURFACE_STYLE_USAGE ( .BOTH. , #39 ) ;
#353 = CLOSED_SHELL ( 'NONE', ( #253, #146, #98, #291 ) ) ;
#354 = VECTOR ( 'NONE', #367, 39.37007874015748143 ) ;
#355 = ORIENTED_EDGE ( 'NONE', *, *, #225, .F. ) ;
#356 = DIRECTION ( 'NONE',  ( 1.000000000000000000, 1.224646799147353207E-16, 0.000000000000000000 ) ) ;
#357 = ORIENTED_EDGE ( 'NONE', *, *, #360, .T. ) ;
#358 = SPHERICAL_SURFACE ( 'NONE', #216, 0.3125000000000000000 ) ;
#359 = MECHANICAL_DESIGN_GEOMETRIC_PRESENTATION_REPRESENTATION (  '', ( #307 ), #199 ) ;
#360 = EDGE_CURVE ( 'NONE', #71, #157, #42, .T. ) ;
#361 = AXIS2_PLACEMENT_3D ( 'NONE', #194, #110, #239 ) ;
#362 =( NAMED_UNIT ( * ) SI_UNIT ( $, .STERADIAN. ) SOLID_ANGLE_UNIT ( ) );
#363 = SHAPE_DEFINITION_REPRESENTATION ( #52, #120 ) ;
#364 = CARTESIAN_POINT ( 'NONE',  ( 3.827021247335476461E-17, 1.625000000000000000, 0.3124999999999998335 ) ) ;
#365 = DIRECTION ( 'NONE',  ( 0.000000000000000000, 0.000000000000000000, -1.000000000000000000 ) ) ;
#366 =( GEOMETRIC_REPRESENTATION_CONTEXT ( 3 ) GLOBAL_UNCERTAINTY_ASSIGNED_CONTEXT ( ( #313 ) ) GLOBAL_UNIT_ASSIGNED_CONTEXT ( ( #8, #128, #362 ) ) REPRESENTATION_CONTEXT ( 'NONE', 'WORKASPACE' ) );
#367 = DIRECTION ( 'NONE',  ( -1.224646799147353207E-16, 1.000000000000000000, -0.000000000000000000 ) ) ;
#368 = DIMENSIONAL_EXPONENTS ( 1.000000000000000000, 0.000000000000000000, 0.000000000000000000, 0.000000000000000000, 0.000000000000000000, 0.000000000000000000, 0.000000000000000000 ) ;
#369 = CARTESIAN_POINT ( 'NONE',  ( 0.3124999999999998335, 1.625000000000000000, 3.827021247335476461E-17 ) ) ;
#370 = VECTOR ( 'NONE', #104, 39.37007874015748143 ) ;
#371 = CARTESIAN_POINT ( 'NONE',  ( 2.296212748401286986E-16, 1.625000000000000000, 0.000000000000000000 ) ) ;
#372 = CARTESIAN_POINT ( 'NONE',  ( -1.913510623667739463E-17, 0.000000000000000000, 0.000000000000000000 ) ) ;
#373 = UNCERTAINTY_MEASURE_WITH_UNIT (LENGTH_MEASURE( 1.000000000000000082E-05 ), #248, 'distance_accuracy_value', 'NONE');
ENDSEC;
END-ISO-10303-21;
