ISO-10303-21;
HEADER;
FILE_DESCRIPTION (( 'STEP AP214' ),
    '1' );
FILE_NAME ('59707.STEP',
    '2023-07-24T15:26:52',
    ( '' ),
    ( '' ),
    'SwSTEP 2.0',
    'SolidWorks 2023',
    '' );
FILE_SCHEMA (( 'AUTOMOTIVE_DESIGN' ));
ENDSEC;

DATA;
#1 = EDGE_CURVE ( 'NONE', #32, #368, #223, .T. ) ;
#2 = ORIENTED_EDGE ( 'NONE', *, *, #117, .F. ) ;
#3 = CARTESIAN_POINT ( 'NONE',  ( 5.000000000000000000, 63.00000000000000000, 0.000000000000000000 ) ) ;
#4 = SURFACE_STYLE_FILL_AREA ( #131 ) ;
#5 = UNCERTAINTY_MEASURE_WITH_UNIT (LENGTH_MEASURE( 1.000000000000000082E-05 ), #343, 'distance_accuracy_value', 'NONE');
#6 = MANIFOLD_SOLID_BREP ( 'Revolve - Cutting Edge', #220 ) ;
#7 =( NAMED_UNIT ( * ) PLANE_ANGLE_UNIT ( ) SI_UNIT ( $, .RADIAN. ) );
#8 = DIRECTION ( 'NONE',  ( 0.000000000000000000, 0.000000000000000000, -1.000000000000000000 ) ) ;
#9 = AXIS2_PLACEMENT_3D ( 'NONE', #167, #215, #301 ) ;
#10 = CYLINDRICAL_SURFACE ( 'NONE', #299, 5.000000000000000000 ) ;
#11 = DIRECTION ( 'NONE',  ( -0.000000000000000000, -1.000000000000000000, -0.000000000000000000 ) ) ;
#12 = ADVANCED_FACE ( 'NONE', ( #295 ), #332, .T. ) ;
#13 = DIRECTION ( 'NONE',  ( -0.000000000000000000, -1.000000000000000000, -0.000000000000000000 ) ) ;
#14 =( NAMED_UNIT ( * ) SI_UNIT ( $, .STERADIAN. ) SOLID_ANGLE_UNIT ( ) );
#15 = PRESENTATION_LAYER_ASSIGNMENT (  '', '', ( #27 ) ) ;
#16 = CARTESIAN_POINT ( 'NONE',  ( 1.469576158976823750E-15, 63.00000000000000000, 0.000000000000000000 ) ) ;
#17 = FACE_OUTER_BOUND ( 'NONE', #310, .T. ) ;
#18 = DIRECTION ( 'NONE',  ( -0.000000000000000000, -1.000000000000000000, -0.000000000000000000 ) ) ;
#19 = AXIS2_PLACEMENT_3D ( 'NONE', #290, #229, #70 ) ;
#20 = PRODUCT_DEFINITION_FORMATION_WITH_SPECIFIED_SOURCE ( 'ANY', '', #120, .NOT_KNOWN. ) ;
#21 = DIRECTION ( 'NONE',  ( -0.000000000000000000, -1.000000000000000000, -0.000000000000000000 ) ) ;
#22 = CARTESIAN_POINT ( 'NONE',  ( 0.000000000000000000, 15.00000000000000000, -5.000000000000000000 ) ) ;
#23 = ADVANCED_BREP_SHAPE_REPRESENTATION ( '59707', ( #6, #259, #216 ), #182 ) ;
#24 = FILL_AREA_STYLE_COLOUR ( '', #144 ) ;
#25 = APPLICATION_CONTEXT ( 'automotive_design' ) ;
#26 = CLOSED_SHELL ( 'NONE', ( #150, #315, #331, #280 ) ) ;
#27 = STYLED_ITEM ( 'NONE', ( #213 ), #249 ) ;
#28 = EDGE_CURVE ( 'NONE', #29, #142, #184, .T. ) ;
#29 = VERTEX_POINT ( 'NONE', #236 ) ;
#30 = UNCERTAINTY_MEASURE_WITH_UNIT (LENGTH_MEASURE( 1.000000000000000082E-05 ), #178, 'distance_accuracy_value', 'NONE');
#31 = ORIENTED_EDGE ( 'NONE', *, *, #117, .T. ) ;
#32 = VERTEX_POINT ( 'NONE', #323 ) ;
#33 = ORIENTED_EDGE ( 'NONE', *, *, #361, .F. ) ;
#34 = ORIENTED_EDGE ( 'NONE', *, *, #43, .T. ) ;
#35 = CIRCLE ( 'NONE', #139, 5.000000000000000000 ) ;
#36 = CARTESIAN_POINT ( 'NONE',  ( 0.000000000000000000, 0.000000000000000000, 0.000000000000000000 ) ) ;
#37 = PRESENTATION_STYLE_ASSIGNMENT (( #319 ) ) ;
#38 = UNCERTAINTY_MEASURE_WITH_UNIT (LENGTH_MEASURE( 1.000000000000000082E-05 ), #326, 'distance_accuracy_value', 'NONE');
#39 = DIRECTION ( 'NONE',  ( 9.135657442593541248E-17, -1.000000000000000000, 0.000000000000000000 ) ) ;
#40 = DIRECTION ( 'NONE',  ( -0.000000000000000000, -1.000000000000000000, -0.000000000000000000 ) ) ;
#41 = DIRECTION ( 'NONE',  ( -1.000000000000000000, 0.000000000000000000, 0.000000000000000000 ) ) ;
#42 = VERTEX_POINT ( 'NONE', #100 ) ;
#43 = EDGE_CURVE ( 'NONE', #257, #173, #138, .T. ) ;
#44 = DIRECTION ( 'NONE',  ( -1.224646799147353454E-16, 0.000000000000000000, -1.000000000000000000 ) ) ;
#45 = MECHANICAL_DESIGN_GEOMETRIC_PRESENTATION_REPRESENTATION (  '', ( #363 ), #276 ) ;
#46 = PRESENTATION_STYLE_ASSIGNMENT (( #329 ) ) ;
#47 = DIRECTION ( 'NONE',  ( -0.000000000000000000, -1.000000000000000000, -0.000000000000000000 ) ) ;
#48 = CARTESIAN_POINT ( 'NONE',  ( 0.000000000000000000, 1.000000000000000000, -4.000000000000000000 ) ) ;
#49 = CARTESIAN_POINT ( 'NONE',  ( 1.469576158976823750E-15, 63.00000000000000000, 0.000000000000000000 ) ) ;
#50 =( NAMED_UNIT ( * ) SI_UNIT ( $, .STERADIAN. ) SOLID_ANGLE_UNIT ( ) );
#51 =( NAMED_UNIT ( * ) SI_UNIT ( $, .STERADIAN. ) SOLID_ANGLE_UNIT ( ) );
#52 = STYLED_ITEM ( 'NONE', ( #97 ), #68 ) ;
#53 = FACE_OUTER_BOUND ( 'NONE', #251, .T. ) ;
#54 = DIRECTION ( 'NONE',  ( -0.000000000000000000, -1.000000000000000000, -0.000000000000000000 ) ) ;
#55 = EDGE_CURVE ( 'NONE', #142, #368, #148, .T. ) ;
#56 = ORIENTED_EDGE ( 'NONE', *, *, #128, .F. ) ;
#57 = PRESENTATION_LAYER_ASSIGNMENT (  '', '', ( #52 ) ) ;
#58 =( LENGTH_UNIT ( ) NAMED_UNIT ( * ) SI_UNIT ( .MILLI., .METRE. ) );
#59 = ORIENTED_EDGE ( 'NONE', *, *, #233, .T. ) ;
#60 = ORIENTED_EDGE ( 'NONE', *, *, #233, .F. ) ;
#61 = SURFACE_SIDE_STYLE ('',( #317 ) ) ;
#62 = MECHANICAL_DESIGN_GEOMETRIC_PRESENTATION_REPRESENTATION (  '', ( #79 ), #250 ) ;
#63 = PRESENTATION_LAYER_ASSIGNMENT (  '', '', ( #324 ) ) ;
#64 = PLANE ( 'NONE',  #118 ) ;
#65 = ORIENTED_EDGE ( 'NONE', *, *, #1, .T. ) ;
#66 = APPLICATION_CONTEXT ( 'automotive_design' ) ;
#67 = CARTESIAN_POINT ( 'NONE',  ( 1.469576158976823750E-15, 63.00000000000000000, 0.000000000000000000 ) ) ;
#68 = ADVANCED_FACE ( 'NONE', ( #76 ), #96, .T. ) ;
#69 = SURFACE_SIDE_STYLE ('',( #92 ) ) ;
#70 = DIRECTION ( 'NONE',  ( 0.000000000000000000, 0.000000000000000000, -1.000000000000000000 ) ) ;
#71 = FILL_AREA_STYLE_COLOUR ( '', #291 ) ;
#72 =( NAMED_UNIT ( * ) SI_UNIT ( $, .STERADIAN. ) SOLID_ANGLE_UNIT ( ) );
#73 = AXIS2_PLACEMENT_3D ( 'NONE', #67, #350, #41 ) ;
#74 = PRESENTATION_STYLE_ASSIGNMENT (( #267 ) ) ;
#75 = CARTESIAN_POINT ( 'NONE',  ( 0.000000000000000000, 0.000000000000000000, -5.000000000000000000 ) ) ;
#76 = FACE_OUTER_BOUND ( 'NONE', #336, .T. ) ;
#77 = DIRECTION ( 'NONE',  ( 0.000000000000000000, 0.000000000000000000, -1.000000000000000000 ) ) ;
#78 = FILL_AREA_STYLE_COLOUR ( '', #198 ) ;
#79 = STYLED_ITEM ( 'NONE', ( #258 ), #6 ) ;
#80 = AXIS2_PLACEMENT_3D ( 'NONE', #16, #304, #105 ) ;
#81 = DIRECTION ( 'NONE',  ( 0.000000000000000000, 0.000000000000000000, -1.000000000000000000 ) ) ;
#82 = SURFACE_SIDE_STYLE ('',( #85 ) ) ;
#83 = VECTOR ( 'NONE', #133, 1000.000000000000000 ) ;
#84 = UNCERTAINTY_MEASURE_WITH_UNIT (LENGTH_MEASURE( 1.000000000000000082E-05 ), #58, 'distance_accuracy_value', 'NONE');
#85 = SURFACE_STYLE_FILL_AREA ( #273 ) ;
#86 = EDGE_CURVE ( 'NONE', #147, #146, #237, .T. ) ;
#87 = PRODUCT_DEFINITION_SHAPE ( 'NONE', 'NONE',  #366 ) ;
#88 = ORIENTED_EDGE ( 'NONE', *, *, #94, .T. ) ;
#89 = FILL_AREA_STYLE ('',( #224 ) ) ;
#90 = AXIS2_PLACEMENT_3D ( 'NONE', #49, #206, #122 ) ;
#91 = ORIENTED_EDGE ( 'NONE', *, *, #135, .T. ) ;
#92 = SURFACE_STYLE_FILL_AREA ( #129 ) ;
#93 = AXIS2_PLACEMENT_3D ( 'NONE', #293, #349, #175 ) ;
#94 = EDGE_CURVE ( 'NONE', #256, #42, #174, .T. ) ;
#95 = CARTESIAN_POINT ( 'NONE',  ( 5.854691731421723944E-15, 15.00000000000000000, 0.000000000000000000 ) ) ;
#96 = PLANE ( 'NONE',  #107 ) ;
#97 = PRESENTATION_STYLE_ASSIGNMENT (( #123 ) ) ;
#98 = DIRECTION ( 'NONE',  ( 1.000000000000000000, 9.135657442593541248E-17, 0.000000000000000000 ) ) ;
#99 = STYLED_ITEM ( 'NONE', ( #156 ), #294 ) ;
#100 = CARTESIAN_POINT ( 'NONE',  ( 0.000000000000000000, 0.000000000000000000, -4.000000000000000000 ) ) ;
#101 = AXIS2_PLACEMENT_3D ( 'NONE', #104, #335, #165 ) ;
#102 =( LENGTH_UNIT ( ) NAMED_UNIT ( * ) SI_UNIT ( .MILLI., .METRE. ) );
#103 = CARTESIAN_POINT ( 'NONE',  ( 0.000000000000000000, 15.00000000000000000, 0.000000000000000000 ) ) ;
#104 = CARTESIAN_POINT ( 'NONE',  ( 5.854691731421723944E-15, 15.00000000000000000, 0.000000000000000000 ) ) ;
#105 = DIRECTION ( 'NONE',  ( -1.000000000000000000, 0.000000000000000000, 0.000000000000000000 ) ) ;
#106 = COLOUR_RGB ( '',1.000000000000000000, 0.000000000000000000, 0.000000000000000000 ) ;
#107 = AXIS2_PLACEMENT_3D ( 'NONE', #328, #153, #8 ) ;
#108 = AXIS2_PLACEMENT_3D ( 'NONE', #212, #275, #163 ) ;
#109 = DIRECTION ( 'NONE',  ( -0.000000000000000000, -1.000000000000000000, -0.000000000000000000 ) ) ;
#110 = CARTESIAN_POINT ( 'NONE',  ( 0.000000000000000000, 0.000000000000000000, 0.000000000000000000 ) ) ;
#111 = CARTESIAN_POINT ( 'NONE',  ( 4.898587196589412829E-16, 1.000000000000000000, 4.000000000000000000 ) ) ;
#112 = MECHANICAL_DESIGN_GEOMETRIC_PRESENTATION_REPRESENTATION (  '', ( #324 ), #124 ) ;
#113 = ORIENTED_EDGE ( 'NONE', *, *, #43, .F. ) ;
#114 = EDGE_LOOP ( 'NONE', ( #60, #200 ) ) ;
#115 = CARTESIAN_POINT ( 'NONE',  ( -4.999999999999993783, 63.00000000000000000, 0.000000000000000000 ) ) ;
#116 = ORIENTED_EDGE ( 'NONE', *, *, #86, .T. ) ;
#117 = EDGE_CURVE ( 'NONE', #173, #257, #352, .T. ) ;
#118 = AXIS2_PLACEMENT_3D ( 'NONE', #3, #39, #98 ) ;
#119 = ORIENTED_EDGE ( 'NONE', *, *, #55, .F. ) ;
#120 = PRODUCT ( '59707', '59707', '', ( #211 ) ) ;
#121 = ORIENTED_EDGE ( 'NONE', *, *, #318, .T. ) ;
#122 = DIRECTION ( 'NONE',  ( -1.000000000000000000, 0.000000000000000000, 0.000000000000000000 ) ) ;
#123 = SURFACE_STYLE_USAGE ( .BOTH. , #210 ) ;
#124 =( GEOMETRIC_REPRESENTATION_CONTEXT ( 3 ) GLOBAL_UNCERTAINTY_ASSIGNED_CONTEXT ( ( #320 ) ) GLOBAL_UNIT_ASSIGNED_CONTEXT ( ( #190, #284, #321 ) ) REPRESENTATION_CONTEXT ( 'NONE', 'WORKASPACE' ) );
#125 = CARTESIAN_POINT ( 'NONE',  ( 0.000000000000000000, 15.00000000000000000, 0.000000000000000000 ) ) ;
#126 = PRODUCT_DEFINITION_CONTEXT ( 'detailed design', #66, 'design' ) ;
#127 = DIRECTION ( 'NONE',  ( -1.000000000000000000, -9.135657442593541248E-17, 0.000000000000000000 ) ) ;
#128 = EDGE_CURVE ( 'NONE', #42, #256, #298, .T. ) ;
#129 = FILL_AREA_STYLE ('',( #235 ) ) ;
#130 = AXIS2_PLACEMENT_3D ( 'NONE', #125, #232, #346 ) ;
#131 = FILL_AREA_STYLE ('',( #152 ) ) ;
#132 =( NAMED_UNIT ( * ) PLANE_ANGLE_UNIT ( ) SI_UNIT ( $, .RADIAN. ) );
#133 = DIRECTION ( 'NONE',  ( -0.000000000000000000, -1.000000000000000000, -0.000000000000000000 ) ) ;
#134 = SHAPE_DEFINITION_REPRESENTATION ( #87, #23 ) ;
#135 = EDGE_CURVE ( 'NONE', #257, #256, #359, .T. ) ;
#136 = DIRECTION ( 'NONE',  ( -1.000000000000000000, 0.000000000000000000, 0.000000000000000000 ) ) ;
#137 = FILL_AREA_STYLE ('',( #168 ) ) ;
#138 = CIRCLE ( 'NONE', #19, 5.000000000000000000 ) ;
#139 = AXIS2_PLACEMENT_3D ( 'NONE', #103, #21, #77 ) ;
#140 = SURFACE_STYLE_USAGE ( .BOTH. , #82 ) ;
#141 = CARTESIAN_POINT ( 'NONE',  ( 6.123233995736766282E-16, 1.000000000000000000, 5.000000000000000000 ) ) ;
#142 = VERTEX_POINT ( 'NONE', #330 ) ;
#143 = VECTOR ( 'NONE', #158, 1000.000000000000000 ) ;
#144 = COLOUR_RGB ( '',1.000000000000000000, 0.000000000000000000, 0.000000000000000000 ) ;
#145 = EDGE_LOOP ( 'NONE', ( #59, #201, #347, #316 ) ) ;
#146 = VERTEX_POINT ( 'NONE', #240 ) ;
#147 = VERTEX_POINT ( 'NONE', #22 ) ;
#148 = CIRCLE ( 'NONE', #73, 4.999999999999998224 ) ;
#149 = VECTOR ( 'NONE', #18, 1000.000000000000000 ) ;
#150 = ADVANCED_FACE ( 'NONE', ( #191 ), #307, .T. ) ;
#151 =( NAMED_UNIT ( * ) PLANE_ANGLE_UNIT ( ) SI_UNIT ( $, .RADIAN. ) );
#152 = FILL_AREA_STYLE_COLOUR ( '', #155 ) ;
#153 = DIRECTION ( 'NONE',  ( 0.000000000000000000, -1.000000000000000000, -0.000000000000000000 ) ) ;
#154 = STYLED_ITEM ( 'NONE', ( #37 ), #12 ) ;
#155 = COLOUR_RGB ( '',1.000000000000000000, 0.000000000000000000, 0.000000000000000000 ) ;
#156 = PRESENTATION_STYLE_ASSIGNMENT (( #228 ) ) ;
#157 = STYLED_ITEM ( 'NONE', ( #46 ), #337 ) ;
#158 = DIRECTION ( 'NONE',  ( -9.135657442593541248E-17, 1.000000000000000000, -0.000000000000000000 ) ) ;
#159 = PLANE ( 'NONE',  #93 ) ;
#160 = EDGE_CURVE ( 'NONE', #29, #32, #192, .T. ) ;
#161 = SURFACE_STYLE_FILL_AREA ( #181 ) ;
#162 = SURFACE_SIDE_STYLE ('',( #260 ) ) ;
#163 = DIRECTION ( 'NONE',  ( 0.000000000000000000, 0.000000000000000000, -1.000000000000000000 ) ) ;
#164 = COLOUR_RGB ( '',0.7921568627450980005, 0.8196078431372548767, 0.9333333333333333481 ) ;
#165 = DIRECTION ( 'NONE',  ( -1.000000000000000000, 0.000000000000000000, 0.000000000000000000 ) ) ;
#166 =( LENGTH_UNIT ( ) NAMED_UNIT ( * ) SI_UNIT ( .MILLI., .METRE. ) );
#167 = CARTESIAN_POINT ( 'NONE',  ( 5.854691731421723944E-15, 15.00000000000000000, 0.000000000000000000 ) ) ;
#168 = FILL_AREA_STYLE_COLOUR ( '', #265 ) ;
#169 = CARTESIAN_POINT ( 'NONE',  ( 0.000000000000000000, 0.000000000000000000, 0.000000000000000000 ) ) ;
#170 = CARTESIAN_POINT ( 'NONE',  ( 0.000000000000000000, 1.000000000000000000, -5.000000000000000000 ) ) ;
#171 = ORIENTED_EDGE ( 'NONE', *, *, #355, .F. ) ;
#172 = AXIS2_PLACEMENT_3D ( 'NONE', #263, #40, #234 ) ;
#173 = VERTEX_POINT ( 'NONE', #170 ) ;
#174 = CIRCLE ( 'NONE', #333, 4.000000000000000000 ) ;
#175 = DIRECTION ( 'NONE',  ( 0.000000000000000000, -0.000000000000000000, 1.000000000000000000 ) ) ;
#176 = EDGE_LOOP ( 'NONE', ( #269, #34, #340, #227 ) ) ;
#177 =( NAMED_UNIT ( * ) SI_UNIT ( $, .STERADIAN. ) SOLID_ANGLE_UNIT ( ) );
#178 =( LENGTH_UNIT ( ) NAMED_UNIT ( * ) SI_UNIT ( .MILLI., .METRE. ) );
#179 = FILL_AREA_STYLE ('',( #253 ) ) ;
#180 = VECTOR ( 'NONE', #282, 1000.000000000000000 ) ;
#181 = FILL_AREA_STYLE ('',( #71 ) ) ;
#182 =( GEOMETRIC_REPRESENTATION_CONTEXT ( 3 ) GLOBAL_UNCERTAINTY_ASSIGNED_CONTEXT ( ( #254 ) ) GLOBAL_UNIT_ASSIGNED_CONTEXT ( ( #102, #218, #50 ) ) REPRESENTATION_CONTEXT ( 'NONE', 'WORKASPACE' ) );
#183 = CARTESIAN_POINT ( 'NONE',  ( 4.999999999999997335, 63.00000000000000000, 6.123233995736761352E-16 ) ) ;
#184 = LINE ( 'NONE', #183, #143 ) ;
#185 = CARTESIAN_POINT ( 'NONE',  ( -4.999999999999996447, 63.00000000000000000, 0.000000000000000000 ) ) ;
#186 = AXIS2_PLACEMENT_3D ( 'NONE', #303, #221, #354 ) ;
#187 = MECHANICAL_DESIGN_GEOMETRIC_PRESENTATION_REPRESENTATION (  '', ( #99 ), #313 ) ;
#188 = DIRECTION ( 'NONE',  ( 0.000000000000000000, 0.000000000000000000, -1.000000000000000000 ) ) ;
#189 = APPLICATION_PROTOCOL_DEFINITION ( 'draft international standard', 'automotive_design', 1998, #25 ) ;
#190 =( LENGTH_UNIT ( ) NAMED_UNIT ( * ) SI_UNIT ( .MILLI., .METRE. ) );
#191 = FACE_OUTER_BOUND ( 'NONE', #145, .T. ) ;
#192 = CIRCLE ( 'NONE', #9, 4.999999999999993783 ) ;
#193 = MECHANICAL_DESIGN_GEOMETRIC_PRESENTATION_REPRESENTATION (  '', ( #157 ), #252 ) ;
#194 = UNCERTAINTY_MEASURE_WITH_UNIT (LENGTH_MEASURE( 1.000000000000000082E-05 ), #166, 'distance_accuracy_value', 'NONE');
#195 = ORIENTED_EDGE ( 'NONE', *, *, #28, .F. ) ;
#196 = SURFACE_STYLE_USAGE ( .BOTH. , #61 ) ;
#197 = MECHANICAL_DESIGN_GEOMETRIC_PRESENTATION_REPRESENTATION (  '', ( #154 ), #243 ) ;
#198 = COLOUR_RGB ( '',1.000000000000000000, 0.000000000000000000, 0.000000000000000000 ) ;
#199 = TOROIDAL_SURFACE ( 'NONE', #108, 4.000000000000000000, 1.000000000000000000 ) ;
#200 = ORIENTED_EDGE ( 'NONE', *, *, #160, .F. ) ;
#201 = ORIENTED_EDGE ( 'NONE', *, *, #28, .T. ) ;
#202 = AXIS2_PLACEMENT_3D ( 'NONE', #111, #362, #44 ) ;
#203 =( NAMED_UNIT ( * ) SI_UNIT ( $, .STERADIAN. ) SOLID_ANGLE_UNIT ( ) );
#204 = DIRECTION ( 'NONE',  ( -9.135657442593541248E-17, 1.000000000000000000, 0.000000000000000000 ) ) ;
#205 =( NAMED_UNIT ( * ) PLANE_ANGLE_UNIT ( ) SI_UNIT ( $, .RADIAN. ) );
#206 = DIRECTION ( 'NONE',  ( -9.135657442593541248E-17, 1.000000000000000000, -0.000000000000000000 ) ) ;
#207 =( NAMED_UNIT ( * ) PLANE_ANGLE_UNIT ( ) SI_UNIT ( $, .RADIAN. ) );
#208 = MECHANICAL_DESIGN_GEOMETRIC_PRESENTATION_REPRESENTATION (  '', ( #52 ), #306 ) ;
#209 = SURFACE_SIDE_STYLE ('',( #161 ) ) ;
#210 = SURFACE_SIDE_STYLE ('',( #4 ) ) ;
#211 = PRODUCT_CONTEXT ( 'NONE', #25, 'mechanical' ) ;
#212 = CARTESIAN_POINT ( 'NONE',  ( 0.000000000000000000, 1.000000000000000000, 0.000000000000000000 ) ) ;
#213 = PRESENTATION_STYLE_ASSIGNMENT (( #140 ) ) ;
#214 = DIRECTION ( 'NONE',  ( 1.000000000000000000, 0.000000000000000000, 0.000000000000000000 ) ) ;
#215 = DIRECTION ( 'NONE',  ( -9.135657442593541248E-17, 1.000000000000000000, -0.000000000000000000 ) ) ;
#216 = AXIS2_PLACEMENT_3D ( 'NONE', #169, #356, #214 ) ;
#217 = SURFACE_STYLE_USAGE ( .BOTH. , #360 ) ;
#218 =( NAMED_UNIT ( * ) PLANE_ANGLE_UNIT ( ) SI_UNIT ( $, .RADIAN. ) );
#219 = LINE ( 'NONE', #279, #83 ) ;
#220 = CLOSED_SHELL ( 'NONE', ( #249, #337, #68, #12, #294, #270 ) ) ;
#221 = DIRECTION ( 'NONE',  ( -9.135657442593541248E-17, 1.000000000000000000, -0.000000000000000000 ) ) ;
#222 = AXIS2_PLACEMENT_3D ( 'NONE', #110, #47, #357 ) ;
#223 = LINE ( 'NONE', #115, #180 ) ;
#224 = FILL_AREA_STYLE_COLOUR ( '', #164 ) ;
#225 = ORIENTED_EDGE ( 'NONE', *, *, #160, .T. ) ;
#226 = EDGE_CURVE ( 'NONE', #146, #257, #219, .T. ) ;
#227 = ORIENTED_EDGE ( 'NONE', *, *, #94, .F. ) ;
#228 = SURFACE_STYLE_USAGE ( .BOTH. , #69 ) ;
#229 = DIRECTION ( 'NONE',  ( -0.000000000000000000, -1.000000000000000000, -0.000000000000000000 ) ) ;
#230 = MECHANICAL_DESIGN_GEOMETRIC_PRESENTATION_REPRESENTATION (  '', ( #27 ), #287 ) ;
#231 = FACE_OUTER_BOUND ( 'NONE', #114, .T. ) ;
#232 = DIRECTION ( 'NONE',  ( -0.000000000000000000, -1.000000000000000000, -0.000000000000000000 ) ) ;
#233 = EDGE_CURVE ( 'NONE', #32, #29, #281, .T. ) ;
#234 = DIRECTION ( 'NONE',  ( 0.000000000000000000, 0.000000000000000000, -1.000000000000000000 ) ) ;
#235 = FILL_AREA_STYLE_COLOUR ( '', #369 ) ;
#236 = CARTESIAN_POINT ( 'NONE',  ( 5.000000000000000000, 15.00000000000000000, 6.123233995736762338E-16 ) ) ;
#237 = CIRCLE ( 'NONE', #130, 5.000000000000000000 ) ;
#238 = AXIS2_PLACEMENT_3D ( 'NONE', #48, #136, #272 ) ;
#239 = LINE ( 'NONE', #75, #149 ) ;
#240 = CARTESIAN_POINT ( 'NONE',  ( 6.123233995736766282E-16, 15.00000000000000000, 5.000000000000000000 ) ) ;
#241 = CARTESIAN_POINT ( 'NONE',  ( 5.510910596163088569E-16, 0.000000000000000000, 4.000000000000000000 ) ) ;
#242 = FILL_AREA_STYLE ('',( #24 ) ) ;
#243 =( GEOMETRIC_REPRESENTATION_CONTEXT ( 3 ) GLOBAL_UNCERTAINTY_ASSIGNED_CONTEXT ( ( #311 ) ) GLOBAL_UNIT_ASSIGNED_CONTEXT ( ( #348, #205, #72 ) ) REPRESENTATION_CONTEXT ( 'NONE', 'WORKASPACE' ) );
#244 = CIRCLE ( 'NONE', #90, 4.999999999999998224 ) ;
#245 = SURFACE_STYLE_FILL_AREA ( #137 ) ;
#246 = APPLICATION_PROTOCOL_DEFINITION ( 'draft international standard', 'automotive_design', 1998, #66 ) ;
#247 =( NAMED_UNIT ( * ) PLANE_ANGLE_UNIT ( ) SI_UNIT ( $, .RADIAN. ) );
#248 =( LENGTH_UNIT ( ) NAMED_UNIT ( * ) SI_UNIT ( .MILLI., .METRE. ) );
#249 = ADVANCED_FACE ( 'NONE', ( #17 ), #300, .T. ) ;
#250 =( GEOMETRIC_REPRESENTATION_CONTEXT ( 3 ) GLOBAL_UNCERTAINTY_ASSIGNED_CONTEXT ( ( #84 ) ) GLOBAL_UNIT_ASSIGNED_CONTEXT ( ( #58, #286, #341 ) ) REPRESENTATION_CONTEXT ( 'NONE', 'WORKASPACE' ) );
#251 = EDGE_LOOP ( 'NONE', ( #31, #91, #56, #171 ) ) ;
#252 =( GEOMETRIC_REPRESENTATION_CONTEXT ( 3 ) GLOBAL_UNCERTAINTY_ASSIGNED_CONTEXT ( ( #194 ) ) GLOBAL_UNIT_ASSIGNED_CONTEXT ( ( #166, #132, #327 ) ) REPRESENTATION_CONTEXT ( 'NONE', 'WORKASPACE' ) );
#253 = FILL_AREA_STYLE_COLOUR ( '', #106 ) ;
#254 = UNCERTAINTY_MEASURE_WITH_UNIT (LENGTH_MEASURE( 1.000000000000000082E-05 ), #102, 'distance_accuracy_value', 'NONE');
#255 = ORIENTED_EDGE ( 'NONE', *, *, #318, .F. ) ;
#256 = VERTEX_POINT ( 'NONE', #241 ) ;
#257 = VERTEX_POINT ( 'NONE', #141 ) ;
#258 = PRESENTATION_STYLE_ASSIGNMENT (( #196 ) ) ;
#259 = MANIFOLD_SOLID_BREP ( 'Revolve - Tool Body (Straight Shanked)', #26 ) ;
#260 = SURFACE_STYLE_FILL_AREA ( #179 ) ;
#261 = DIRECTION ( 'NONE',  ( 0.000000000000000000, 0.000000000000000000, -1.000000000000000000 ) ) ;
#262 = EDGE_CURVE ( 'NONE', #368, #142, #244, .T. ) ;
#263 = CARTESIAN_POINT ( 'NONE',  ( 0.000000000000000000, 1.000000000000000000, 0.000000000000000000 ) ) ;
#264 = PRESENTATION_LAYER_ASSIGNMENT (  '', '', ( #79 ) ) ;
#265 = COLOUR_RGB ( '',0.7921568627450980005, 0.8196078431372548767, 0.9333333333333333481 ) ;
#266 = CIRCLE ( 'NONE', #238, 1.000000000000000000 ) ;
#267 = SURFACE_STYLE_USAGE ( .BOTH. , #209 ) ;
#268 = FACE_OUTER_BOUND ( 'NONE', #285, .T. ) ;
#269 = ORIENTED_EDGE ( 'NONE', *, *, #135, .F. ) ;
#270 = ADVANCED_FACE ( 'NONE', ( #271 ), #159, .T. ) ;
#271 = FACE_OUTER_BOUND ( 'NONE', #367, .T. ) ;
#272 = DIRECTION ( 'NONE',  ( 0.000000000000000000, 0.000000000000000000, 1.000000000000000000 ) ) ;
#273 = FILL_AREA_STYLE ('',( #78 ) ) ;
#274 = CARTESIAN_POINT ( 'NONE',  ( 0.000000000000000000, 0.000000000000000000, 0.000000000000000000 ) ) ;
#275 = DIRECTION ( 'NONE',  ( -0.000000000000000000, -1.000000000000000000, -0.000000000000000000 ) ) ;
#276 =( GEOMETRIC_REPRESENTATION_CONTEXT ( 3 ) GLOBAL_UNCERTAINTY_ASSIGNED_CONTEXT ( ( #30 ) ) GLOBAL_UNIT_ASSIGNED_CONTEXT ( ( #178, #7, #14 ) ) REPRESENTATION_CONTEXT ( 'NONE', 'WORKASPACE' ) );
#277 = CARTESIAN_POINT ( 'NONE',  ( 0.000000000000000000, 1.000000000000000000, 0.000000000000000000 ) ) ;
#278 = SURFACE_STYLE_FILL_AREA ( #242 ) ;
#279 = CARTESIAN_POINT ( 'NONE',  ( 6.123233995736766282E-16, 0.000000000000000000, 5.000000000000000000 ) ) ;
#280 = ADVANCED_FACE ( 'NONE', ( #288 ), #64, .F. ) ;
#281 = CIRCLE ( 'NONE', #101, 4.999999999999993783 ) ;
#282 = DIRECTION ( 'NONE',  ( -9.135657442593541248E-17, 1.000000000000000000, -0.000000000000000000 ) ) ;
#283 = ORIENTED_EDGE ( 'NONE', *, *, #128, .T. ) ;
#284 =( NAMED_UNIT ( * ) PLANE_ANGLE_UNIT ( ) SI_UNIT ( $, .RADIAN. ) );
#285 = EDGE_LOOP ( 'NONE', ( #339, #364, #121, #113 ) ) ;
#286 =( NAMED_UNIT ( * ) PLANE_ANGLE_UNIT ( ) SI_UNIT ( $, .RADIAN. ) );
#287 =( GEOMETRIC_REPRESENTATION_CONTEXT ( 3 ) GLOBAL_UNCERTAINTY_ASSIGNED_CONTEXT ( ( #309 ) ) GLOBAL_UNIT_ASSIGNED_CONTEXT ( ( #248, #247, #51 ) ) REPRESENTATION_CONTEXT ( 'NONE', 'WORKASPACE' ) );
#288 = FACE_OUTER_BOUND ( 'NONE', #351, .T. ) ;
#289 = ORIENTED_EDGE ( 'NONE', *, *, #226, .T. ) ;
#290 = CARTESIAN_POINT ( 'NONE',  ( 0.000000000000000000, 1.000000000000000000, 0.000000000000000000 ) ) ;
#291 = COLOUR_RGB ( '',1.000000000000000000, 0.000000000000000000, 0.000000000000000000 ) ;
#292 = PRESENTATION_LAYER_ASSIGNMENT (  '', '', ( #157 ) ) ;
#293 = CARTESIAN_POINT ( 'NONE',  ( 0.000000000000000000, 15.00000000000000000, 0.000000000000000000 ) ) ;
#294 = ADVANCED_FACE ( 'NONE', ( #268 ), #10, .T. ) ;
#295 = FACE_OUTER_BOUND ( 'NONE', #176, .T. ) ;
#296 = FACE_OUTER_BOUND ( 'NONE', #370, .T. ) ;
#297 = DIRECTION ( 'NONE',  ( 0.000000000000000000, 0.000000000000000000, -1.000000000000000000 ) ) ;
#298 = CIRCLE ( 'NONE', #344, 4.000000000000000000 ) ;
#299 = AXIS2_PLACEMENT_3D ( 'NONE', #36, #13, #261 ) ;
#300 = CYLINDRICAL_SURFACE ( 'NONE', #222, 5.000000000000000000 ) ;
#301 = DIRECTION ( 'NONE',  ( -1.000000000000000000, 0.000000000000000000, 0.000000000000000000 ) ) ;
#302 = SURFACE_SIDE_STYLE ('',( #278 ) ) ;
#303 = CARTESIAN_POINT ( 'NONE',  ( 1.469576158976823750E-15, 63.00000000000000000, 0.000000000000000000 ) ) ;
#304 = DIRECTION ( 'NONE',  ( -9.135657442593541248E-17, 1.000000000000000000, -0.000000000000000000 ) ) ;
#305 = PRESENTATION_LAYER_ASSIGNMENT (  '', '', ( #99 ) ) ;
#306 =( GEOMETRIC_REPRESENTATION_CONTEXT ( 3 ) GLOBAL_UNCERTAINTY_ASSIGNED_CONTEXT ( ( #5 ) ) GLOBAL_UNIT_ASSIGNED_CONTEXT ( ( #343, #207, #177 ) ) REPRESENTATION_CONTEXT ( 'NONE', 'WORKASPACE' ) );
#307 = CYLINDRICAL_SURFACE ( 'NONE', #186, 4.999999999999995559 ) ;
#308 = PRODUCT_RELATED_PRODUCT_CATEGORY ( 'part', '', ( #120 ) ) ;
#309 = UNCERTAINTY_MEASURE_WITH_UNIT (LENGTH_MEASURE( 1.000000000000000082E-05 ), #248, 'distance_accuracy_value', 'NONE');
#310 = EDGE_LOOP ( 'NONE', ( #116, #289, #2, #255 ) ) ;
#311 = UNCERTAINTY_MEASURE_WITH_UNIT (LENGTH_MEASURE( 1.000000000000000082E-05 ), #348, 'distance_accuracy_value', 'NONE');
#312 = AXIS2_PLACEMENT_3D ( 'NONE', #277, #54, #81 ) ;
#313 =( GEOMETRIC_REPRESENTATION_CONTEXT ( 3 ) GLOBAL_UNCERTAINTY_ASSIGNED_CONTEXT ( ( #38 ) ) GLOBAL_UNIT_ASSIGNED_CONTEXT ( ( #326, #151, #203 ) ) REPRESENTATION_CONTEXT ( 'NONE', 'WORKASPACE' ) );
#314 = ORIENTED_EDGE ( 'NONE', *, *, #86, .F. ) ;
#315 = ADVANCED_FACE ( 'NONE', ( #231 ), #345, .F. ) ;
#316 = ORIENTED_EDGE ( 'NONE', *, *, #1, .F. ) ;
#317 = SURFACE_STYLE_FILL_AREA ( #89 ) ;
#318 = EDGE_CURVE ( 'NONE', #147, #173, #239, .T. ) ;
#319 = SURFACE_STYLE_USAGE ( .BOTH. , #162 ) ;
#320 = UNCERTAINTY_MEASURE_WITH_UNIT (LENGTH_MEASURE( 1.000000000000000082E-05 ), #190, 'distance_accuracy_value', 'NONE');
#321 =( NAMED_UNIT ( * ) SI_UNIT ( $, .STERADIAN. ) SOLID_ANGLE_UNIT ( ) );
#322 = CARTESIAN_POINT ( 'NONE',  ( 0.000000000000000000, 0.000000000000000000, 0.000000000000000000 ) ) ;
#323 = CARTESIAN_POINT ( 'NONE',  ( -4.999999999999987566, 15.00000000000000000, 0.000000000000000000 ) ) ;
#324 = STYLED_ITEM ( 'NONE', ( #334 ), #259 ) ;
#325 = AXIS2_PLACEMENT_3D ( 'NONE', #95, #204, #127 ) ;
#326 =( LENGTH_UNIT ( ) NAMED_UNIT ( * ) SI_UNIT ( .MILLI., .METRE. ) );
#327 =( NAMED_UNIT ( * ) SI_UNIT ( $, .STERADIAN. ) SOLID_ANGLE_UNIT ( ) );
#328 = CARTESIAN_POINT ( 'NONE',  ( 0.000000000000000000, 0.000000000000000000, 0.000000000000000000 ) ) ;
#329 = SURFACE_STYLE_USAGE ( .BOTH. , #302 ) ;
#330 = CARTESIAN_POINT ( 'NONE',  ( 5.000000000000000000, 63.00000000000000000, 6.123233995736762338E-16 ) ) ;
#331 = ADVANCED_FACE ( 'NONE', ( #296 ), #353, .T. ) ;
#332 = TOROIDAL_SURFACE ( 'NONE', #172, 4.000000000000000000, 1.000000000000000000 ) ;
#333 = AXIS2_PLACEMENT_3D ( 'NONE', #322, #11, #297 ) ;
#334 = PRESENTATION_STYLE_ASSIGNMENT (( #217 ) ) ;
#335 = DIRECTION ( 'NONE',  ( -9.135657442593541248E-17, 1.000000000000000000, -0.000000000000000000 ) ) ;
#336 = EDGE_LOOP ( 'NONE', ( #283, #88 ) ) ;
#337 = ADVANCED_FACE ( 'NONE', ( #53 ), #199, .T. ) ;
#338 = PRESENTATION_LAYER_ASSIGNMENT (  '', '', ( #363 ) ) ;
#339 = ORIENTED_EDGE ( 'NONE', *, *, #226, .F. ) ;
#340 = ORIENTED_EDGE ( 'NONE', *, *, #355, .T. ) ;
#341 =( NAMED_UNIT ( * ) SI_UNIT ( $, .STERADIAN. ) SOLID_ANGLE_UNIT ( ) );
#342 = ORIENTED_EDGE ( 'NONE', *, *, #262, .T. ) ;
#343 =( LENGTH_UNIT ( ) NAMED_UNIT ( * ) SI_UNIT ( .MILLI., .METRE. ) );
#344 = AXIS2_PLACEMENT_3D ( 'NONE', #274, #109, #188 ) ;
#345 = PLANE ( 'NONE',  #325 ) ;
#346 = DIRECTION ( 'NONE',  ( 0.000000000000000000, 0.000000000000000000, -1.000000000000000000 ) ) ;
#347 = ORIENTED_EDGE ( 'NONE', *, *, #262, .F. ) ;
#348 =( LENGTH_UNIT ( ) NAMED_UNIT ( * ) SI_UNIT ( .MILLI., .METRE. ) );
#349 = DIRECTION ( 'NONE',  ( 0.000000000000000000, 1.000000000000000000, 0.000000000000000000 ) ) ;
#350 = DIRECTION ( 'NONE',  ( -9.135657442593541248E-17, 1.000000000000000000, -0.000000000000000000 ) ) ;
#351 = EDGE_LOOP ( 'NONE', ( #342, #365 ) ) ;
#352 = CIRCLE ( 'NONE', #312, 5.000000000000000000 ) ;
#353 = CYLINDRICAL_SURFACE ( 'NONE', #80, 4.999999999999995559 ) ;
#354 = DIRECTION ( 'NONE',  ( -1.000000000000000000, 0.000000000000000000, 0.000000000000000000 ) ) ;
#355 = EDGE_CURVE ( 'NONE', #173, #42, #266, .T. ) ;
#356 = DIRECTION ( 'NONE',  ( 0.000000000000000000, 0.000000000000000000, 1.000000000000000000 ) ) ;
#357 = DIRECTION ( 'NONE',  ( 0.000000000000000000, 0.000000000000000000, -1.000000000000000000 ) ) ;
#358 = PRESENTATION_LAYER_ASSIGNMENT (  '', '', ( #154 ) ) ;
#359 = CIRCLE ( 'NONE', #202, 1.000000000000000000 ) ;
#360 = SURFACE_SIDE_STYLE ('',( #245 ) ) ;
#361 = EDGE_CURVE ( 'NONE', #146, #147, #35, .T. ) ;
#362 = DIRECTION ( 'NONE',  ( 1.000000000000000000, 0.000000000000000000, -1.224646799147353207E-16 ) ) ;
#363 = STYLED_ITEM ( 'NONE', ( #74 ), #270 ) ;
#364 = ORIENTED_EDGE ( 'NONE', *, *, #361, .T. ) ;
#365 = ORIENTED_EDGE ( 'NONE', *, *, #55, .T. ) ;
#366 = PRODUCT_DEFINITION ( 'UNKNOWN', '', #20, #126 ) ;
#367 = EDGE_LOOP ( 'NONE', ( #314, #33 ) ) ;
#368 = VERTEX_POINT ( 'NONE', #185 ) ;
#369 = COLOUR_RGB ( '',1.000000000000000000, 0.000000000000000000, 0.000000000000000000 ) ;
#370 = EDGE_LOOP ( 'NONE', ( #195, #225, #65, #119 ) ) ;
ENDSEC;
END-ISO-10303-21;
