ISO-10303-21;
HEADER;
FILE_DESCRIPTION (( 'STEP AP214' ),
    '1' );
FILE_NAME ('Micro_GEM-187-3.STEP',
    '2021-09-01T20:02:10',
    ( '' ),
    ( '' ),
    'SwSTEP 2.0',
    'SolidWorks 2020',
    '' );
FILE_SCHEMA (( 'AUTOMOTIVE_DESIGN' ));
ENDSEC;

DATA;
#1 = VECTOR ( 'NONE', #146, 39.37007874015748143 ) ;
#2 = EDGE_LOOP ( 'NONE', ( #104, #257, #272, #277 ) ) ;
#3 = ORIENTED_EDGE ( 'NONE', *, *, #123, .F. ) ;
#4 = ADVANCED_FACE ( 'NONE', ( #101 ), #150, .T. ) ;
#5 = DIMENSIONAL_EXPONENTS ( 1.000000000000000000, 0.0000000000000000000, 0.0000000000000000000, 0.0000000000000000000, 0.0000000000000000000, 0.0000000000000000000, 0.0000000000000000000 ) ;
#6 = ORIENTED_EDGE ( 'NONE', *, *, #25, .T. ) ;
#7 = VECTOR ( 'NONE', #268, 39.37007874015748143 ) ;
#8 = CARTESIAN_POINT ( 'NONE',  ( 0.0000000000000000000, 0.0000000000000000000, 2.000000000000000000 ) ) ;
#9 = UNCERTAINTY_MEASURE_WITH_UNIT (LENGTH_MEASURE( 1.000000000000000082E-05 ), #278, 'distance_accuracy_value', 'NONE');
#10 = EDGE_CURVE ( 'NONE', #230, #250, #171, .T. ) ;
#11 = DIRECTION ( 'NONE',  ( 0.0000000000000000000, 0.0000000000000000000, -1.000000000000000000 ) ) ;
#12 = DIRECTION ( 'NONE',  ( -1.224646799147353207E-16, -0.0000000000000000000, -1.000000000000000000 ) ) ;
#13 = DIRECTION ( 'NONE',  ( 1.000000000000000000, 0.0000000000000000000, 0.0000000000000000000 ) ) ;
#14 = CARTESIAN_POINT ( 'NONE',  ( 0.0000000000000000000, 0.0000000000000000000, 2.000000000000000000 ) ) ;
#15 = MANIFOLD_SOLID_BREP ( 'Cut-Revolve1', #246 ) ;
#16 = DIRECTION ( 'NONE',  ( 1.224646799147353207E-16, 0.0000000000000000000, 1.000000000000000000 ) ) ;
#17 = CARTESIAN_POINT ( 'NONE',  ( 7.660553729477949085E-17, 0.0000000000000000000, 0.6255316826705892286 ) ) ;
#18 = DIRECTION ( 'NONE',  ( -0.0000000000000000000, -0.0000000000000000000, -1.000000000000000000 ) ) ;
#19 = DIRECTION ( 'NONE',  ( -1.000000000000000000, 0.0000000000000000000, 1.224646799147352961E-16 ) ) ;
#20 = EDGE_LOOP ( 'NONE', ( #6, #161, #185, #96 ) ) ;
#21 = ADVANCED_FACE ( 'NONE', ( #287 ), #76, .F. ) ;
#22 = PRODUCT ( 'Micro_GEM-187-3', 'Micro_GEM-187-3', '', ( #116 ) ) ;
#23 = PRODUCT_DEFINITION_FORMATION_WITH_SPECIFIED_SOURCE ( 'ANY', '', #22, .NOT_KNOWN. ) ;
#24 = CYLINDRICAL_SURFACE ( 'NONE', #258, 0.09365624999999999645 ) ;
#25 = EDGE_CURVE ( 'NONE', #65, #230, #219, .T. ) ;
#26 = ORIENTED_EDGE ( 'NONE', *, *, #105, .T. ) ;
#27 = AXIS2_PLACEMENT_3D ( 'NONE', #215, #16, #103 ) ;
#28 = AXIS2_PLACEMENT_3D ( 'NONE', #198, #18, #37 ) ;
#29 = ORIENTED_EDGE ( 'NONE', *, *, #255, .F. ) ;
#30 = AXIS2_PLACEMENT_3D ( 'NONE', #144, #231, #97 ) ;
#31 = ORIENTED_EDGE ( 'NONE', *, *, #60, .T. ) ;
#32 = SURFACE_STYLE_USAGE ( .BOTH. , #33 ) ;
#33 = SURFACE_SIDE_STYLE ('',( #285 ) ) ;
#34 = AXIS2_PLACEMENT_3D ( 'NONE', #266, #149, #19 ) ;
#35 = PRESENTATION_STYLE_ASSIGNMENT (( #243 ) ) ;
#36 = CARTESIAN_POINT ( 'NONE',  ( -0.09365624999999992706, 1.147532321013543253E-17, 0.6250000000000000000 ) ) ;
#37 = DIRECTION ( 'NONE',  ( -1.000000000000000000, 0.0000000000000000000, 0.0000000000000000000 ) ) ;
#38 = DIRECTION ( 'NONE',  ( -1.000000000000000000, 0.0000000000000000000, 0.0000000000000000000 ) ) ;
#39 = ADVANCED_FACE ( 'NONE', ( #41 ), #226, .T. ) ;
#40 = AXIS2_PLACEMENT_3D ( 'NONE', #81, #240, #218 ) ;
#41 = FACE_OUTER_BOUND ( 'NONE', #108, .T. ) ;
#42 = CYLINDRICAL_SURFACE ( 'NONE', #28, 0.09375000000000001388 ) ;
#43 = ORIENTED_EDGE ( 'NONE', *, *, #188, .T. ) ;
#44 = DIRECTION ( 'NONE',  ( 1.000000000000000000, 0.0000000000000000000, 0.0000000000000000000 ) ) ;
#45 = CIRCLE ( 'NONE', #206, 0.09365624999999999645 ) ;
#46 = ORIENTED_EDGE ( 'NONE', *, *, #55, .T. ) ;
#47 = EDGE_CURVE ( 'NONE', #65, #67, #245, .T. ) ;
#48 = CARTESIAN_POINT ( 'NONE',  ( 0.07874999999999980627, 9.644093543285380530E-18, 2.000000000000000000 ) ) ;
#49 = DIRECTION ( 'NONE',  ( 0.7071067811865463515, 8.659560562354916834E-17, -0.7071067811865486830 ) ) ;
#50 = AXIS2_PLACEMENT_3D ( 'NONE', #173, #147, #131 ) ;
#51 = MECHANICAL_DESIGN_GEOMETRIC_PRESENTATION_REPRESENTATION (  '', ( #241 ), #118 ) ;
#52 =( LENGTH_UNIT ( ) NAMED_UNIT ( * ) SI_UNIT ( $, .METRE. ) );
#53 = VERTEX_POINT ( 'NONE', #289 ) ;
#54 = ORIENTED_EDGE ( 'NONE', *, *, #252, .T. ) ;
#55 = EDGE_CURVE ( 'NONE', #112, #200, #189, .T. ) ;
#56 = CARTESIAN_POINT ( 'NONE',  ( -0.09374999999999994449, 0.0000000000000000000, 0.6255316826705892286 ) ) ;
#57 = AXIS2_PLACEMENT_3D ( 'NONE', #298, #180, #203 ) ;
#58 = CARTESIAN_POINT ( 'NONE',  ( 0.0000000000000000000, 0.0000000000000000000, 2.000000000000000000 ) ) ;
#59 = DIRECTION ( 'NONE',  ( 0.0000000000000000000, 0.0000000000000000000, 1.000000000000000000 ) ) ;
#60 = EDGE_CURVE ( 'NONE', #182, #67, #82, .T. ) ;
#61 = DIRECTION ( 'NONE',  ( 1.000000000000000000, 0.0000000000000000000, 0.0000000000000000000 ) ) ;
#62 = FILL_AREA_STYLE_COLOUR ( '', #83 ) ;
#63 = CIRCLE ( 'NONE', #77, 0.09375000000000001388 ) ;
#64 = CARTESIAN_POINT ( 'NONE',  ( 0.09375000000000006939, 1.148106374200644633E-17, 0.6255316826705892286 ) ) ;
#65 = VERTEX_POINT ( 'NONE', #36 ) ;
#66 = UNCERTAINTY_MEASURE_WITH_UNIT (LENGTH_MEASURE( 1.000000000000000082E-05 ), #74, 'distance_accuracy_value', 'NONE');
#67 = VERTEX_POINT ( 'NONE', #56 ) ;
#68 = FACE_OUTER_BOUND ( 'NONE', #2, .T. ) ;
#69 = DIRECTION ( 'NONE',  ( -1.224646799147353207E-16, -0.0000000000000000000, -1.000000000000000000 ) ) ;
#70 = ORIENTED_EDGE ( 'NONE', *, *, #252, .F. ) ;
#71 = ADVANCED_FACE ( 'NONE', ( #143 ), #201, .T. ) ;
#72 =( NAMED_UNIT ( * ) PLANE_ANGLE_UNIT ( ) SI_UNIT ( $, .RADIAN. ) );
#73 = ORIENTED_EDGE ( 'NONE', *, *, #47, .F. ) ;
#74 =( CONVERSION_BASED_UNIT ( 'INCH', #262 ) LENGTH_UNIT ( ) NAMED_UNIT ( #5 ) );
#75 = DIRECTION ( 'NONE',  ( -1.224646799147353207E-16, -0.0000000000000000000, -1.000000000000000000 ) ) ;
#76 = PLANE ( 'NONE',  #205 ) ;
#77 = AXIS2_PLACEMENT_3D ( 'NONE', #135, #273, #87 ) ;
#78 = EDGE_CURVE ( 'NONE', #53, #207, #45, .T. ) ;
#79 =( CONVERSION_BASED_UNIT ( 'INCH', #193 ) LENGTH_UNIT ( ) NAMED_UNIT ( #227 ) );
#80 = CYLINDRICAL_SURFACE ( 'NONE', #125, 0.09375000000000001388 ) ;
#81 = CARTESIAN_POINT ( 'NONE',  ( 7.654042494670957853E-17, 0.0000000000000000000, 0.6250000000000000000 ) ) ;
#82 = LINE ( 'NONE', #261, #158 ) ;
#83 = COLOUR_RGB ( '',0.7921568627450980005, 0.8196078431372548767, 0.9333333333333333481 ) ;
#84 = FACE_OUTER_BOUND ( 'NONE', #254, .T. ) ;
#85 = CONICAL_SURFACE ( 'NONE', #57, 0.09365624999999999645, 0.1745329251994338637 ) ;
#86 = EDGE_CURVE ( 'NONE', #112, #292, #202, .T. ) ;
#87 = DIRECTION ( 'NONE',  ( 1.000000000000000000, 0.0000000000000000000, 0.0000000000000000000 ) ) ;
#88 = DIRECTION ( 'NONE',  ( -1.000000000000000000, 0.0000000000000000000, 1.224646799147352961E-16 ) ) ;
#89 = ORIENTED_EDGE ( 'NONE', *, *, #188, .F. ) ;
#90 = AXIS2_PLACEMENT_3D ( 'NONE', #264, #75, #38 ) ;
#91 = DIMENSIONAL_EXPONENTS ( 1.000000000000000000, 0.0000000000000000000, 0.0000000000000000000, 0.0000000000000000000, 0.0000000000000000000, 0.0000000000000000000, 0.0000000000000000000 ) ;
#92 = EDGE_LOOP ( 'NONE', ( #176, #46 ) ) ;
#93 = ADVANCED_FACE ( 'NONE', ( #68 ), #85, .T. ) ;
#94 = PRESENTATION_STYLE_ASSIGNMENT (( #32 ) ) ;
#95 = COLOUR_RGB ( '',0.7921568627450980005, 0.8196078431372548767, 0.9333333333333333481 ) ;
#96 = ORIENTED_EDGE ( 'NONE', *, *, #192, .F. ) ;
#97 = DIRECTION ( 'NONE',  ( 1.000000000000000000, 0.0000000000000000000, 0.0000000000000000000 ) ) ;
#98 = DIRECTION ( 'NONE',  ( -1.000000000000000000, 0.0000000000000000000, 0.0000000000000000000 ) ) ;
#99 = CARTESIAN_POINT ( 'NONE',  ( 0.0000000000000000000, 0.0000000000000000000, 2.000000000000000000 ) ) ;
#100 = CARTESIAN_POINT ( 'NONE',  ( -0.09365624999999999645, 0.0000000000000000000, 1.146958267826442798E-17 ) ) ;
#101 = FACE_OUTER_BOUND ( 'NONE', #228, .T. ) ;
#102 = PLANE ( 'NONE',  #263 ) ;
#103 = DIRECTION ( 'NONE',  ( 1.000000000000000000, 0.0000000000000000000, 0.0000000000000000000 ) ) ;
#104 = ORIENTED_EDGE ( 'NONE', *, *, #25, .F. ) ;
#105 = EDGE_CURVE ( 'NONE', #250, #67, #63, .T. ) ;
#106 = PRESENTATION_LAYER_ASSIGNMENT (  '', '', ( #267 ) ) ;
#107 = EDGE_LOOP ( 'NONE', ( #233, #208, #141, #89 ) ) ;
#108 = EDGE_LOOP ( 'NONE', ( #73, #293, #235, #26 ) ) ;
#109 = PRODUCT_DEFINITION_SHAPE ( 'NONE', 'NONE',  #260 ) ;
#110 = CIRCLE ( 'NONE', #281, 0.09365624999999999645 ) ;
#111 = DIRECTION ( 'NONE',  ( -1.224646799147353207E-16, -0.0000000000000000000, -1.000000000000000000 ) ) ;
#112 = VERTEX_POINT ( 'NONE', #153 ) ;
#113 = VECTOR ( 'NONE', #187, 39.37007874015747433 ) ;
#114 = AXIS2_PLACEMENT_3D ( 'NONE', #17, #247, #44 ) ;
#115 = ORIENTED_EDGE ( 'NONE', *, *, #60, .F. ) ;
#116 = PRODUCT_CONTEXT ( 'NONE', #154, 'mechanical' ) ;
#117 = ADVANCED_FACE ( 'NONE', ( #297 ), #24, .T. ) ;
#118 =( GEOMETRIC_REPRESENTATION_CONTEXT ( 3 ) GLOBAL_UNCERTAINTY_ASSIGNED_CONTEXT ( ( #120 ) ) GLOBAL_UNIT_ASSIGNED_CONTEXT ( ( #79, #148, #265 ) ) REPRESENTATION_CONTEXT ( 'NONE', 'WORKASPACE' ) );
#119 =( GEOMETRIC_REPRESENTATION_CONTEXT ( 3 ) GLOBAL_UNCERTAINTY_ASSIGNED_CONTEXT ( ( #66 ) ) GLOBAL_UNIT_ASSIGNED_CONTEXT ( ( #74, #140, #283 ) ) REPRESENTATION_CONTEXT ( 'NONE', 'WORKASPACE' ) );
#120 = UNCERTAINTY_MEASURE_WITH_UNIT (LENGTH_MEASURE( 1.000000000000000082E-05 ), #79, 'distance_accuracy_value', 'NONE');
#121 = FILL_AREA_STYLE ('',( #162 ) ) ;
#122 = CARTESIAN_POINT ( 'NONE',  ( 1.404618771449245766E-33, 0.0000000000000000000, 1.146958267826442798E-17 ) ) ;
#123 = EDGE_CURVE ( 'NONE', #292, #250, #134, .T. ) ;
#124 = CARTESIAN_POINT ( 'NONE',  ( 0.09365625000000006584, 0.0000000000000000000, 0.6250000000000000000 ) ) ;
#125 = AXIS2_PLACEMENT_3D ( 'NONE', #14, #196, #199 ) ;
#126 = CARTESIAN_POINT ( 'NONE',  ( 0.0000000000000000000, 0.0000000000000000000, 1.984999999999999654 ) ) ;
#127 = EDGE_CURVE ( 'NONE', #207, #53, #110, .T. ) ;
#128 = CARTESIAN_POINT ( 'NONE',  ( -0.07874999999999980627, 0.0000000000000000000, 2.000000000000000000 ) ) ;
#129 = DIRECTION ( 'NONE',  ( 1.000000000000000000, 0.0000000000000000000, -0.0000000000000000000 ) ) ;
#130 = AXIS2_PLACEMENT_3D ( 'NONE', #126, #249, #290 ) ;
#131 = DIRECTION ( 'NONE',  ( 1.000000000000000000, 0.0000000000000000000, 0.0000000000000000000 ) ) ;
#132 = EDGE_LOOP ( 'NONE', ( #284, #178, #160, #138 ) ) ;
#133 = DIRECTION ( 'NONE',  ( -1.000000000000000000, 0.0000000000000000000, 1.224646799147352961E-16 ) ) ;
#134 = LINE ( 'NONE', #223, #242 ) ;
#135 = CARTESIAN_POINT ( 'NONE',  ( 7.660553729477949085E-17, 0.0000000000000000000, 0.6255316826705892286 ) ) ;
#136 = MECHANICAL_DESIGN_GEOMETRIC_PRESENTATION_REPRESENTATION (  '', ( #267 ), #119 ) ;
#137 = CYLINDRICAL_SURFACE ( 'NONE', #34, 0.09365624999999999645 ) ;
#138 = ORIENTED_EDGE ( 'NONE', *, *, #78, .F. ) ;
#139 = ADVANCED_FACE ( 'NONE', ( #156 ), #137, .T. ) ;
#140 =( NAMED_UNIT ( * ) PLANE_ANGLE_UNIT ( ) SI_UNIT ( $, .RADIAN. ) );
#141 = ORIENTED_EDGE ( 'NONE', *, *, #255, .T. ) ;
#142 = SHAPE_DEFINITION_REPRESENTATION ( #109, #279 ) ;
#143 = FACE_OUTER_BOUND ( 'NONE', #107, .T. ) ;
#144 = CARTESIAN_POINT ( 'NONE',  ( 0.0000000000000000000, 0.0000000000000000000, 0.0000000000000000000 ) ) ;
#145 = DIRECTION ( 'NONE',  ( 0.0000000000000000000, 0.0000000000000000000, -1.000000000000000000 ) ) ;
#146 = DIRECTION ( 'NONE',  ( 0.1736481776669313581, 0.0000000000000000000, 0.9848077530122077983 ) ) ;
#147 = DIRECTION ( 'NONE',  ( 0.0000000000000000000, 0.0000000000000000000, -1.000000000000000000 ) ) ;
#148 =( NAMED_UNIT ( * ) PLANE_ANGLE_UNIT ( ) SI_UNIT ( $, .RADIAN. ) );
#149 = DIRECTION ( 'NONE',  ( -1.224646799147353207E-16, -0.0000000000000000000, -1.000000000000000000 ) ) ;
#150 = CONICAL_SURFACE ( 'NONE', #229, 0.07874999999999980627, 0.7853981633974466137 ) ;
#151 = CIRCLE ( 'NONE', #40, 0.09365624999999999645 ) ;
#152 = DIRECTION ( 'NONE',  ( -1.224646799147353207E-16, -0.0000000000000000000, -1.000000000000000000 ) ) ;
#153 = CARTESIAN_POINT ( 'NONE',  ( 0.07874999999999980627, 1.056257864264590573E-17, 2.000000000000000000 ) ) ;
#154 = APPLICATION_CONTEXT ( 'automotive_design' ) ;
#155 = CARTESIAN_POINT ( 'NONE',  ( 1.404618771449245766E-33, 0.0000000000000000000, 1.146958267826442798E-17 ) ) ;
#156 = FACE_OUTER_BOUND ( 'NONE', #132, .T. ) ;
#157 = ADVANCED_FACE ( 'NONE', ( #270 ), #42, .T. ) ;
#158 = VECTOR ( 'NONE', #174, 39.37007874015748143 ) ;
#159 = ORIENTED_EDGE ( 'NONE', *, *, #127, .T. ) ;
#160 = ORIENTED_EDGE ( 'NONE', *, *, #192, .T. ) ;
#161 = ORIENTED_EDGE ( 'NONE', *, *, #271, .T. ) ;
#162 = FILL_AREA_STYLE_COLOUR ( '', #95 ) ;
#163 = CIRCLE ( 'NONE', #114, 0.09375000000000001388 ) ;
#164 = EDGE_LOOP ( 'NONE', ( #159, #221 ) ) ;
#165 = LENGTH_MEASURE_WITH_UNIT ( LENGTH_MEASURE( 0.02539999999999999897 ), #52 );
#166 = DIRECTION ( 'NONE',  ( 0.0000000000000000000, 0.0000000000000000000, 1.000000000000000000 ) ) ;
#167 =( NAMED_UNIT ( * ) SI_UNIT ( $, .STERADIAN. ) SOLID_ANGLE_UNIT ( ) );
#168 = PRESENTATION_LAYER_ASSIGNMENT (  '', '', ( #241 ) ) ;
#169 = CIRCLE ( 'NONE', #130, 0.09375000000000001388 ) ;
#170 = CARTESIAN_POINT ( 'NONE',  ( 0.0000000000000000000, 0.0000000000000000000, 2.000000000000000000 ) ) ;
#171 = LINE ( 'NONE', #124, #1 ) ;
#172 = EDGE_CURVE ( 'NONE', #67, #250, #163, .T. ) ;
#173 = CARTESIAN_POINT ( 'NONE',  ( 0.0000000000000000000, 0.0000000000000000000, 1.984999999999999654 ) ) ;
#174 = DIRECTION ( 'NONE',  ( -0.0000000000000000000, -0.0000000000000000000, -1.000000000000000000 ) ) ;
#175 = LINE ( 'NONE', #177, #7 ) ;
#176 = ORIENTED_EDGE ( 'NONE', *, *, #238, .T. ) ;
#177 = CARTESIAN_POINT ( 'NONE',  ( -0.07874999999999980627, 0.0000000000000000000, 2.000000000000000000 ) ) ;
#178 = ORIENTED_EDGE ( 'NONE', *, *, #248, .T. ) ;
#179 = VECTOR ( 'NONE', #49, 39.37007874015748143 ) ;
#180 = DIRECTION ( 'NONE',  ( 1.224646799147353207E-16, 0.0000000000000000000, 1.000000000000000000 ) ) ;
#181 = DIRECTION ( 'NONE',  ( -0.0000000000000000000, -0.0000000000000000000, -1.000000000000000000 ) ) ;
#182 = VERTEX_POINT ( 'NONE', #191 ) ;
#183 = ORIENTED_EDGE ( 'NONE', *, *, #86, .T. ) ;
#184 = VECTOR ( 'NONE', #214, 39.37007874015748143 ) ;
#185 = ORIENTED_EDGE ( 'NONE', *, *, #127, .F. ) ;
#186 = APPLICATION_PROTOCOL_DEFINITION ( 'draft international standard', 'automotive_design', 1998, #154 ) ;
#187 = DIRECTION ( 'NONE',  ( -0.1736481776669311639, 2.126576849575783008E-17, 0.9848077530122080203 ) ) ;
#188 = EDGE_CURVE ( 'NONE', #292, #182, #291, .T. ) ;
#189 = CIRCLE ( 'NONE', #256, 0.07874999999999980627 ) ;
#190 = CARTESIAN_POINT ( 'NONE',  ( 0.0000000000000000000, 0.0000000000000000000, 0.0000000000000000000 ) ) ;
#191 = CARTESIAN_POINT ( 'NONE',  ( -0.09375000000000001388, 0.0000000000000000000, 1.984999999999999654 ) ) ;
#192 = EDGE_CURVE ( 'NONE', #65, #207, #244, .T. ) ;
#193 = LENGTH_MEASURE_WITH_UNIT ( LENGTH_MEASURE( 0.02539999999999999897 ), #211 );
#194 = CARTESIAN_POINT ( 'NONE',  ( 0.09365625000000006584, 0.0000000000000000000, 0.6250000000000000000 ) ) ;
#195 = SURFACE_SIDE_STYLE ('',( #286 ) ) ;
#196 = DIRECTION ( 'NONE',  ( -0.0000000000000000000, -0.0000000000000000000, -1.000000000000000000 ) ) ;
#197 = CIRCLE ( 'NONE', #296, 0.07874999999999980627 ) ;
#198 = CARTESIAN_POINT ( 'NONE',  ( 0.0000000000000000000, 0.0000000000000000000, 2.000000000000000000 ) ) ;
#199 = DIRECTION ( 'NONE',  ( -1.000000000000000000, 0.0000000000000000000, 0.0000000000000000000 ) ) ;
#200 = VERTEX_POINT ( 'NONE', #128 ) ;
#201 = CONICAL_SURFACE ( 'NONE', #253, 0.07874999999999980627, 0.7853981633974466137 ) ;
#202 = LINE ( 'NONE', #48, #179 ) ;
#203 = DIRECTION ( 'NONE',  ( 1.000000000000000000, 0.0000000000000000000, 0.0000000000000000000 ) ) ;
#204 = ORIENTED_EDGE ( 'NONE', *, *, #105, .F. ) ;
#205 = AXIS2_PLACEMENT_3D ( 'NONE', #190, #59, #239 ) ;
#206 = AXIS2_PLACEMENT_3D ( 'NONE', #122, #152, #251 ) ;
#207 = VERTEX_POINT ( 'NONE', #288 ) ;
#208 = ORIENTED_EDGE ( 'NONE', *, *, #238, .F. ) ;
#209 = FILL_AREA_STYLE ('',( #62 ) ) ;
#210 = APPLICATION_PROTOCOL_DEFINITION ( 'draft international standard', 'automotive_design', 1998, #282 ) ;
#211 =( LENGTH_UNIT ( ) NAMED_UNIT ( * ) SI_UNIT ( $, .METRE. ) );
#212 = VECTOR ( 'NONE', #12, 39.37007874015748143 ) ;
#213 = CARTESIAN_POINT ( 'NONE',  ( 0.0000000000000000000, 0.0000000000000000000, 2.000000000000000000 ) ) ;
#214 = DIRECTION ( 'NONE',  ( -1.224646799147353207E-16, -0.0000000000000000000, -1.000000000000000000 ) ) ;
#215 = CARTESIAN_POINT ( 'NONE',  ( 7.654042494670957853E-17, 0.0000000000000000000, 0.6250000000000000000 ) ) ;
#216 = DIRECTION ( 'NONE',  ( 0.0000000000000000000, 0.0000000000000000000, 1.000000000000000000 ) ) ;
#217 = CARTESIAN_POINT ( 'NONE',  ( -0.09365624999999992706, 1.146958267826442798E-17, 0.6250000000000000000 ) ) ;
#218 = DIRECTION ( 'NONE',  ( -1.000000000000000000, 0.0000000000000000000, 0.0000000000000000000 ) ) ;
#219 = CIRCLE ( 'NONE', #90, 0.09365624999999999645 ) ;
#220 = CARTESIAN_POINT ( 'NONE',  ( 0.09365624999999999645, 1.146958267826442798E-17, -1.146958267826442798E-17 ) ) ;
#221 = ORIENTED_EDGE ( 'NONE', *, *, #78, .T. ) ;
#222 = PRODUCT_DEFINITION_CONTEXT ( 'detailed design', #282, 'design' ) ;
#223 = CARTESIAN_POINT ( 'NONE',  ( 0.09375000000000001388, 1.148106374200643863E-17, 2.000000000000000000 ) ) ;
#224 = ADVANCED_FACE ( 'NONE', ( #84 ), #80, .T. ) ;
#225 = CARTESIAN_POINT ( 'NONE',  ( 0.09375000000000001388, 1.148106374200643863E-17, 1.984999999999999654 ) ) ;
#226 = CONICAL_SURFACE ( 'NONE', #27, 0.09365624999999999645, 0.1745329251994338637 ) ;
#227 = DIMENSIONAL_EXPONENTS ( 1.000000000000000000, 0.0000000000000000000, 0.0000000000000000000, 0.0000000000000000000, 0.0000000000000000000, 0.0000000000000000000, 0.0000000000000000000 ) ;
#228 = EDGE_LOOP ( 'NONE', ( #234, #183, #70, #29 ) ) ;
#229 = AXIS2_PLACEMENT_3D ( 'NONE', #99, #11, #98 ) ;
#230 = VERTEX_POINT ( 'NONE', #194 ) ;
#231 = DIRECTION ( 'NONE',  ( 0.0000000000000000000, 0.0000000000000000000, 1.000000000000000000 ) ) ;
#232 = DIRECTION ( 'NONE',  ( 0.0000000000000000000, 0.0000000000000000000, 1.000000000000000000 ) ) ;
#233 = ORIENTED_EDGE ( 'NONE', *, *, #86, .F. ) ;
#234 = ORIENTED_EDGE ( 'NONE', *, *, #55, .F. ) ;
#235 = ORIENTED_EDGE ( 'NONE', *, *, #10, .T. ) ;
#236 =( GEOMETRIC_REPRESENTATION_CONTEXT ( 3 ) GLOBAL_UNCERTAINTY_ASSIGNED_CONTEXT ( ( #9 ) ) GLOBAL_UNIT_ASSIGNED_CONTEXT ( ( #278, #72, #167 ) ) REPRESENTATION_CONTEXT ( 'NONE', 'WORKASPACE' ) );
#237 = DIRECTION ( 'NONE',  ( -1.000000000000000000, 0.0000000000000000000, 0.0000000000000000000 ) ) ;
#238 = EDGE_CURVE ( 'NONE', #200, #112, #197, .T. ) ;
#239 = DIRECTION ( 'NONE',  ( 1.000000000000000000, 0.0000000000000000000, -0.0000000000000000000 ) ) ;
#240 = DIRECTION ( 'NONE',  ( -1.224646799147353207E-16, -0.0000000000000000000, -1.000000000000000000 ) ) ;
#241 = STYLED_ITEM ( 'NONE', ( #35 ), #15 ) ;
#242 = VECTOR ( 'NONE', #181, 39.37007874015748143 ) ;
#243 = SURFACE_STYLE_USAGE ( .BOTH. , #195 ) ;
#244 = LINE ( 'NONE', #100, #212 ) ;
#245 = LINE ( 'NONE', #217, #113 ) ;
#246 = CLOSED_SHELL ( 'NONE', ( #117, #93, #4, #224, #157, #280, #71, #39, #139, #21 ) ) ;
#247 = DIRECTION ( 'NONE',  ( -1.224646799147353207E-16, -0.0000000000000000000, -1.000000000000000000 ) ) ;
#248 = EDGE_CURVE ( 'NONE', #230, #65, #151, .T. ) ;
#249 = DIRECTION ( 'NONE',  ( 0.0000000000000000000, 0.0000000000000000000, -1.000000000000000000 ) ) ;
#250 = VERTEX_POINT ( 'NONE', #64 ) ;
#251 = DIRECTION ( 'NONE',  ( -1.000000000000000000, 0.0000000000000000000, 1.224646799147352961E-16 ) ) ;
#252 = EDGE_CURVE ( 'NONE', #182, #292, #169, .T. ) ;
#253 = AXIS2_PLACEMENT_3D ( 'NONE', #58, #145, #237 ) ;
#254 = EDGE_LOOP ( 'NONE', ( #54, #295, #276, #115 ) ) ;
#255 = EDGE_CURVE ( 'NONE', #200, #182, #175, .T. ) ;
#256 = AXIS2_PLACEMENT_3D ( 'NONE', #213, #166, #13 ) ;
#257 = ORIENTED_EDGE ( 'NONE', *, *, #47, .T. ) ;
#258 = AXIS2_PLACEMENT_3D ( 'NONE', #275, #69, #133 ) ;
#259 =( LENGTH_UNIT ( ) NAMED_UNIT ( * ) SI_UNIT ( $, .METRE. ) );
#260 = PRODUCT_DEFINITION ( 'UNKNOWN', '', #23, #222 ) ;
#261 = CARTESIAN_POINT ( 'NONE',  ( -0.09375000000000001388, 0.0000000000000000000, 2.000000000000000000 ) ) ;
#262 = LENGTH_MEASURE_WITH_UNIT ( LENGTH_MEASURE( 0.02539999999999999897 ), #259 );
#263 = AXIS2_PLACEMENT_3D ( 'NONE', #8, #232, #129 ) ;
#264 = CARTESIAN_POINT ( 'NONE',  ( 7.654042494670957853E-17, 0.0000000000000000000, 0.6250000000000000000 ) ) ;
#265 =( NAMED_UNIT ( * ) SI_UNIT ( $, .STERADIAN. ) SOLID_ANGLE_UNIT ( ) );
#266 = CARTESIAN_POINT ( 'NONE',  ( 0.0000000000000000000, 0.0000000000000000000, 0.0000000000000000000 ) ) ;
#267 = STYLED_ITEM ( 'NONE', ( #94 ), #279 ) ;
#268 = DIRECTION ( 'NONE',  ( -0.7071067811865463515, 0.0000000000000000000, -0.7071067811865486830 ) ) ;
#269 = LINE ( 'NONE', #220, #184 ) ;
#270 = FACE_OUTER_BOUND ( 'NONE', #274, .T. ) ;
#271 = EDGE_CURVE ( 'NONE', #230, #53, #269, .T. ) ;
#272 = ORIENTED_EDGE ( 'NONE', *, *, #172, .T. ) ;
#273 = DIRECTION ( 'NONE',  ( -1.224646799147353207E-16, -0.0000000000000000000, -1.000000000000000000 ) ) ;
#274 = EDGE_LOOP ( 'NONE', ( #3, #43, #31, #204 ) ) ;
#275 = CARTESIAN_POINT ( 'NONE',  ( 0.0000000000000000000, 0.0000000000000000000, 0.0000000000000000000 ) ) ;
#276 = ORIENTED_EDGE ( 'NONE', *, *, #172, .F. ) ;
#277 = ORIENTED_EDGE ( 'NONE', *, *, #10, .F. ) ;
#278 =( CONVERSION_BASED_UNIT ( 'INCH', #165 ) LENGTH_UNIT ( ) NAMED_UNIT ( #91 ) );
#279 = ADVANCED_BREP_SHAPE_REPRESENTATION ( 'Micro_GEM-187-3', ( #15, #30 ), #236 ) ;
#280 = ADVANCED_FACE ( 'NONE', ( #294 ), #102, .T. ) ;
#281 = AXIS2_PLACEMENT_3D ( 'NONE', #155, #111, #88 ) ;
#282 = APPLICATION_CONTEXT ( 'automotive_design' ) ;
#283 =( NAMED_UNIT ( * ) SI_UNIT ( $, .STERADIAN. ) SOLID_ANGLE_UNIT ( ) );
#284 = ORIENTED_EDGE ( 'NONE', *, *, #271, .F. ) ;
#285 = SURFACE_STYLE_FILL_AREA ( #121 ) ;
#286 = SURFACE_STYLE_FILL_AREA ( #209 ) ;
#287 = FACE_OUTER_BOUND ( 'NONE', #164, .T. ) ;
#288 = CARTESIAN_POINT ( 'NONE',  ( -0.09365624999999999645, 0.0000000000000000000, 2.293916535652885596E-17 ) ) ;
#289 = CARTESIAN_POINT ( 'NONE',  ( 0.09365624999999999645, 1.146958267826442798E-17, 0.0000000000000000000 ) ) ;
#290 = DIRECTION ( 'NONE',  ( 1.000000000000000000, 0.0000000000000000000, 0.0000000000000000000 ) ) ;
#291 = CIRCLE ( 'NONE', #50, 0.09375000000000001388 ) ;
#292 = VERTEX_POINT ( 'NONE', #225 ) ;
#293 = ORIENTED_EDGE ( 'NONE', *, *, #248, .F. ) ;
#294 = FACE_OUTER_BOUND ( 'NONE', #92, .T. ) ;
#295 = ORIENTED_EDGE ( 'NONE', *, *, #123, .T. ) ;
#296 = AXIS2_PLACEMENT_3D ( 'NONE', #170, #216, #61 ) ;
#297 = FACE_OUTER_BOUND ( 'NONE', #20, .T. ) ;
#298 = CARTESIAN_POINT ( 'NONE',  ( 7.654042494670957853E-17, 0.0000000000000000000, 0.6250000000000000000 ) ) ;
#299 = PRODUCT_RELATED_PRODUCT_CATEGORY ( 'part', '', ( #22 ) ) ;
ENDSEC;
END-ISO-10303-21;
