ISO-10303-21;
HEADER;
FILE_DESCRIPTION (( 'STEP AP214' ),
    '1' );
FILE_NAME ('49345.STEP',
    '2023-06-30T22:01:26',
    ( '' ),
    ( '' ),
    'SwSTEP 2.0',
    'SolidWorks 2023',
    '' );
FILE_SCHEMA (( 'AUTOMOTIVE_DESIGN' ));
ENDSEC;

DATA;
#1 = AXIS2_PLACEMENT_3D ( 'NONE', #184, #223, #191 ) ;
#2 = DIRECTION ( 'NONE',  ( 1.000000000000000000, 1.224646799147353207E-16, 0.000000000000000000 ) ) ;
#3 = ORIENTED_EDGE ( 'NONE', *, *, #25, .T. ) ;
#4 = MANIFOLD_SOLID_BREP ( 'Revolve - Cutting Edge', #155 ) ;
#5 = CARTESIAN_POINT ( 'NONE',  ( -0.3125000000000000000, 0.3125000000000000555, 3.827021247335477694E-17 ) ) ;
#6 = FILL_AREA_STYLE_COLOUR ( '', #187 ) ;
#7 = DIRECTION ( 'NONE',  ( -1.224646799147353207E-16, 1.000000000000000000, -0.000000000000000000 ) ) ;
#8 = CARTESIAN_POINT ( 'NONE',  ( -6.123233995736759873E-17, 3.500000000000000000, 0.000000000000000000 ) ) ;
#9 = DIMENSIONAL_EXPONENTS ( 1.000000000000000000, 0.000000000000000000, 0.000000000000000000, 0.000000000000000000, 0.000000000000000000, 0.000000000000000000, 0.000000000000000000 ) ;
#10 = DIRECTION ( 'NONE',  ( -1.000000000000000000, 0.000000000000000000, 0.000000000000000000 ) ) ;
#11 = FILL_AREA_STYLE_COLOUR ( '', #277 ) ;
#12 = SURFACE_STYLE_USAGE ( .BOTH. , #145 ) ;
#13 = VECTOR ( 'NONE', #179, 39.37007874015748143 ) ;
#14 = AXIS2_PLACEMENT_3D ( 'NONE', #85, #82, #199 ) ;
#15 = DIRECTION ( 'NONE',  ( -1.224646799147353207E-16, 1.000000000000000000, -0.000000000000000000 ) ) ;
#16 = LINE ( 'NONE', #120, #13 ) ;
#17 = SHAPE_DEFINITION_REPRESENTATION ( #297, #353 ) ;
#18 = CARTESIAN_POINT ( 'NONE',  ( 0.000000000000000000, 0.3125000000000000555, -0.3124999999999999445 ) ) ;
#19 = AXIS2_PLACEMENT_3D ( 'NONE', #267, #15, #240 ) ;
#20 = CIRCLE ( 'NONE', #243, 0.3124999999999996669 ) ;
#21 =( NAMED_UNIT ( * ) SI_UNIT ( $, .STERADIAN. ) SOLID_ANGLE_UNIT ( ) );
#22 = ORIENTED_EDGE ( 'NONE', *, *, #86, .T. ) ;
#23 = CIRCLE ( 'NONE', #231, 0.3124999999999999445 ) ;
#24 = SPHERICAL_SURFACE ( 'NONE', #215, 0.3125000000000000000 ) ;
#25 = EDGE_CURVE ( 'NONE', #54, #279, #91, .T. ) ;
#26 = ORIENTED_EDGE ( 'NONE', *, *, #290, .F. ) ;
#27 =( CONVERSION_BASED_UNIT ( 'INCH', #219 ) LENGTH_UNIT ( ) NAMED_UNIT ( #110 ) );
#28 = ORIENTED_EDGE ( 'NONE', *, *, #207, .T. ) ;
#29 = DIMENSIONAL_EXPONENTS ( 1.000000000000000000, 0.000000000000000000, 0.000000000000000000, 0.000000000000000000, 0.000000000000000000, 0.000000000000000000, 0.000000000000000000 ) ;
#30 = ORIENTED_EDGE ( 'NONE', *, *, #186, .F. ) ;
#31 = CARTESIAN_POINT ( 'NONE',  ( -3.827021247335478926E-17, 0.3125000000000000000, 0.000000000000000000 ) ) ;
#32 = CYLINDRICAL_SURFACE ( 'NONE', #355, 0.3124999999999998335 ) ;
#33 = DIRECTION ( 'NONE',  ( 0.000000000000000000, 0.000000000000000000, -1.000000000000000000 ) ) ;
#34 = DIMENSIONAL_EXPONENTS ( 1.000000000000000000, 0.000000000000000000, 0.000000000000000000, 0.000000000000000000, 0.000000000000000000, 0.000000000000000000, 0.000000000000000000 ) ;
#35 = MECHANICAL_DESIGN_GEOMETRIC_PRESENTATION_REPRESENTATION (  '', ( #214 ), #262 ) ;
#36 = DIRECTION ( 'NONE',  ( -1.000000000000000000, 0.000000000000000000, 0.000000000000000000 ) ) ;
#37 = ADVANCED_FACE ( 'NONE', ( #111 ), #263, .T. ) ;
#38 = DIRECTION ( 'NONE',  ( 0.000000000000000000, 0.000000000000000000, -1.000000000000000000 ) ) ;
#39 = FILL_AREA_STYLE_COLOUR ( '', #296 ) ;
#40 = SURFACE_STYLE_FILL_AREA ( #235 ) ;
#41 = DIRECTION ( 'NONE',  ( 0.000000000000000000, 1.000000000000000000, 0.000000000000000000 ) ) ;
#42 = AXIS2_PLACEMENT_3D ( 'NONE', #171, #327, #138 ) ;
#43 = DIRECTION ( 'NONE',  ( 0.000000000000000000, 0.000000000000000000, -1.000000000000000000 ) ) ;
#44 = UNCERTAINTY_MEASURE_WITH_UNIT (LENGTH_MEASURE( 1.000000000000000082E-05 ), #27, 'distance_accuracy_value', 'NONE');
#45 = CARTESIAN_POINT ( 'NONE',  ( 0.000000000000000000, 0.000000000000000000, 0.000000000000000000 ) ) ;
#46 = DIRECTION ( 'NONE',  ( -0.000000000000000000, -1.000000000000000000, -0.000000000000000000 ) ) ;
#47 = SURFACE_STYLE_FILL_AREA ( #106 ) ;
#48 = CARTESIAN_POINT ( 'NONE',  ( 2.143131898507868297E-16, 1.250000000000000000, 0.000000000000000000 ) ) ;
#49 = VERTEX_POINT ( 'NONE', #66 ) ;
#50 = COLOUR_RGB ( '',1.000000000000000000, 0.000000000000000000, 0.000000000000000000 ) ;
#51 = LINE ( 'NONE', #163, #285 ) ;
#52 = ORIENTED_EDGE ( 'NONE', *, *, #150, .T. ) ;
#53 = PRESENTATION_STYLE_ASSIGNMENT (( #312 ) ) ;
#54 = VERTEX_POINT ( 'NONE', #64 ) ;
#55 = PRODUCT_DEFINITION ( 'UNKNOWN', '', #318, #211 ) ;
#56 = FILL_AREA_STYLE_COLOUR ( '', #58 ) ;
#57 = ORIENTED_EDGE ( 'NONE', *, *, #340, .T. ) ;
#58 = COLOUR_RGB ( '',1.000000000000000000, 0.000000000000000000, 0.000000000000000000 ) ;
#59 =( GEOMETRIC_REPRESENTATION_CONTEXT ( 3 ) GLOBAL_UNCERTAINTY_ASSIGNED_CONTEXT ( ( #324 ) ) GLOBAL_UNIT_ASSIGNED_CONTEXT ( ( #67, #115, #239 ) ) REPRESENTATION_CONTEXT ( 'NONE', 'WORKASPACE' ) );
#60 = FILL_AREA_STYLE_COLOUR ( '', #242 ) ;
#61 = CARTESIAN_POINT ( 'NONE',  ( 0.3124999999999998890, 3.500000000000000000, 3.827021247335477078E-17 ) ) ;
#62 = SURFACE_SIDE_STYLE ('',( #323 ) ) ;
#63 = ADVANCED_FACE ( 'NONE', ( #141 ), #196, .T. ) ;
#64 = CARTESIAN_POINT ( 'NONE',  ( 0.3124999999999999445, 0.3125000000000000555, 0.000000000000000000 ) ) ;
#65 = CARTESIAN_POINT ( 'NONE',  ( 3.827021247335477694E-17, 0.3125000000000000555, 0.3124999999999999445 ) ) ;
#66 = CARTESIAN_POINT ( 'NONE',  ( -0.3125000000000000000, 3.500000000000000000, 0.000000000000000000 ) ) ;
#67 =( CONVERSION_BASED_UNIT ( 'INCH', #360 ) LENGTH_UNIT ( ) NAMED_UNIT ( #249 ) );
#68 = SURFACE_SIDE_STYLE ('',( #73 ) ) ;
#69 = STYLED_ITEM ( 'NONE', ( #268 ), #159 ) ;
#70 = DIRECTION ( 'NONE',  ( -0.000000000000000000, -1.000000000000000000, -0.000000000000000000 ) ) ;
#71 = AXIS2_PLACEMENT_3D ( 'NONE', #254, #289, #36 ) ;
#72 = CARTESIAN_POINT ( 'NONE',  ( 0.000000000000000000, 0.000000000000000000, 0.000000000000000000 ) ) ;
#73 = SURFACE_STYLE_FILL_AREA ( #357 ) ;
#74 = AXIS2_PLACEMENT_3D ( 'NONE', #365, #278, #2 ) ;
#75 = ORIENTED_EDGE ( 'NONE', *, *, #150, .F. ) ;
#76 = ORIENTED_EDGE ( 'NONE', *, *, #224, .T. ) ;
#77 =( LENGTH_UNIT ( ) NAMED_UNIT ( * ) SI_UNIT ( $, .METRE. ) );
#78 = EDGE_LOOP ( 'NONE', ( #253, #80, #315, #368, #220 ) ) ;
#79 = EDGE_LOOP ( 'NONE', ( #124, #192, #28, #104 ) ) ;
#80 = ORIENTED_EDGE ( 'NONE', *, *, #96, .T. ) ;
#81 = PRODUCT ( '49345', '49345', '', ( #356 ) ) ;
#82 = DIRECTION ( 'NONE',  ( -0.000000000000000000, -1.000000000000000000, -0.000000000000000000 ) ) ;
#83 = DIRECTION ( 'NONE',  ( 1.000000000000000000, 0.000000000000000000, 0.000000000000000000 ) ) ;
#84 =( GEOMETRIC_REPRESENTATION_CONTEXT ( 3 ) GLOBAL_UNCERTAINTY_ASSIGNED_CONTEXT ( ( #44 ) ) GLOBAL_UNIT_ASSIGNED_CONTEXT ( ( #27, #282, #122 ) ) REPRESENTATION_CONTEXT ( 'NONE', 'WORKASPACE' ) );
#85 = CARTESIAN_POINT ( 'NONE',  ( 0.000000000000000000, 1.250000000000000000, 0.000000000000000000 ) ) ;
#86 = EDGE_CURVE ( 'NONE', #276, #339, #113, .T. ) ;
#87 = PRODUCT_RELATED_PRODUCT_CATEGORY ( 'part', '', ( #81 ) ) ;
#88 = CARTESIAN_POINT ( 'NONE',  ( 2.143131898507868297E-16, 1.250000000000000000, 0.000000000000000000 ) ) ;
#89 = LENGTH_MEASURE_WITH_UNIT ( LENGTH_MEASURE( 0.02539999999999999897 ), #258 );
#90 = CARTESIAN_POINT ( 'NONE',  ( 0.000000000000000000, 0.3125000000000000555, 0.000000000000000000 ) ) ;
#91 = CIRCLE ( 'NONE', #123, 0.3125000000000000000 ) ;
#92 = DIRECTION ( 'NONE',  ( -1.224646799147353207E-16, 1.000000000000000000, -0.000000000000000000 ) ) ;
#93 = SURFACE_STYLE_USAGE ( .BOTH. , #62 ) ;
#94 = FACE_OUTER_BOUND ( 'NONE', #78, .T. ) ;
#95 = DIRECTION ( 'NONE',  ( 1.000000000000000000, 0.000000000000000000, -1.224646799147353207E-16 ) ) ;
#96 = EDGE_CURVE ( 'NONE', #133, #370, #367, .T. ) ;
#97 =( LENGTH_UNIT ( ) NAMED_UNIT ( * ) SI_UNIT ( $, .METRE. ) );
#98 = PLANE ( 'NONE',  #173 ) ;
#99 = PRESENTATION_LAYER_ASSIGNMENT (  '', '', ( #266 ) ) ;
#100 = VERTEX_POINT ( 'NONE', #18 ) ;
#101 = FACE_OUTER_BOUND ( 'NONE', #308, .T. ) ;
#102 = ORIENTED_EDGE ( 'NONE', *, *, #117, .F. ) ;
#103 = PRESENTATION_LAYER_ASSIGNMENT (  '', '', ( #151 ) ) ;
#104 = ORIENTED_EDGE ( 'NONE', *, *, #275, .F. ) ;
#105 = SURFACE_SIDE_STYLE ('',( #144 ) ) ;
#106 = FILL_AREA_STYLE ('',( #6 ) ) ;
#107 = CYLINDRICAL_SURFACE ( 'NONE', #71, 0.3124999999999998335 ) ;
#108 = PRESENTATION_LAYER_ASSIGNMENT (  '', '', ( #177 ) ) ;
#109 = DIRECTION ( 'NONE',  ( -0.000000000000000000, -1.000000000000000000, -0.000000000000000000 ) ) ;
#110 = DIMENSIONAL_EXPONENTS ( 1.000000000000000000, 0.000000000000000000, 0.000000000000000000, 0.000000000000000000, 0.000000000000000000, 0.000000000000000000, 0.000000000000000000 ) ;
#111 = FACE_OUTER_BOUND ( 'NONE', #373, .T. ) ;
#112 = PRESENTATION_STYLE_ASSIGNMENT (( #264 ) ) ;
#113 = CIRCLE ( 'NONE', #295, 0.3124999999999999445 ) ;
#114 = DIRECTION ( 'NONE',  ( 0.000000000000000000, -0.000000000000000000, 1.000000000000000000 ) ) ;
#115 =( NAMED_UNIT ( * ) PLANE_ANGLE_UNIT ( ) SI_UNIT ( $, .RADIAN. ) );
#116 = DIRECTION ( 'NONE',  ( -1.224646799147353207E-16, 1.000000000000000000, 0.000000000000000000 ) ) ;
#117 = EDGE_CURVE ( 'NONE', #100, #54, #119, .T. ) ;
#118 = APPLICATION_PROTOCOL_DEFINITION ( 'draft international standard', 'automotive_design', 1998, #193 ) ;
#119 = CIRCLE ( 'NONE', #134, 0.3124999999999999445 ) ;
#120 = CARTESIAN_POINT ( 'NONE',  ( 0.000000000000000000, 0.000000000000000000, -0.3124999999999998890 ) ) ;
#121 = DIRECTION ( 'NONE',  ( -1.224646799147353207E-16, 1.000000000000000000, -0.000000000000000000 ) ) ;
#122 =( NAMED_UNIT ( * ) SI_UNIT ( $, .STERADIAN. ) SOLID_ANGLE_UNIT ( ) );
#123 = AXIS2_PLACEMENT_3D ( 'NONE', #31, #38, #321 ) ;
#124 = ORIENTED_EDGE ( 'NONE', *, *, #224, .F. ) ;
#125 = CIRCLE ( 'NONE', #42, 0.3124999999999999445 ) ;
#126 = SURFACE_STYLE_USAGE ( .BOTH. , #128 ) ;
#127 = ORIENTED_EDGE ( 'NONE', *, *, #275, .T. ) ;
#128 = SURFACE_SIDE_STYLE ('',( #216 ) ) ;
#129 = ORIENTED_EDGE ( 'NONE', *, *, #271, .F. ) ;
#130 = EDGE_CURVE ( 'NONE', #370, #100, #16, .T. ) ;
#131 = APPLICATION_CONTEXT ( 'automotive_design' ) ;
#132 = LENGTH_MEASURE_WITH_UNIT ( LENGTH_MEASURE( 0.02539999999999999897 ), #77 );
#133 = VERTEX_POINT ( 'NONE', #245 ) ;
#134 = AXIS2_PLACEMENT_3D ( 'NONE', #328, #70, #274 ) ;
#135 = CIRCLE ( 'NONE', #286, 0.3124999999999999445 ) ;
#136 = DIRECTION ( 'NONE',  ( -1.000000000000000000, 0.000000000000000000, 0.000000000000000000 ) ) ;
#137 = EDGE_LOOP ( 'NONE', ( #283, #251 ) ) ;
#138 = DIRECTION ( 'NONE',  ( 0.000000000000000000, 0.000000000000000000, -1.000000000000000000 ) ) ;
#139 =( LENGTH_UNIT ( ) NAMED_UNIT ( * ) SI_UNIT ( $, .METRE. ) );
#140 = CARTESIAN_POINT ( 'NONE',  ( 0.000000000000000000, 1.250000000000000000, -0.3124999999999998890 ) ) ;
#141 = FACE_OUTER_BOUND ( 'NONE', #160, .T. ) ;
#142 = AXIS2_PLACEMENT_3D ( 'NONE', #45, #46, #208 ) ;
#143 = DIRECTION ( 'NONE',  ( -1.224646799147353207E-16, 1.000000000000000000, -0.000000000000000000 ) ) ;
#144 = SURFACE_STYLE_FILL_AREA ( #291 ) ;
#145 = SURFACE_SIDE_STYLE ('',( #40 ) ) ;
#146 = CARTESIAN_POINT ( 'NONE',  ( 0.3124999999999998890, 1.250000000000000000, 3.827021247335477078E-17 ) ) ;
#147 = DIRECTION ( 'NONE',  ( 1.000000000000000000, 0.000000000000000000, 0.000000000000000000 ) ) ;
#148 = ADVANCED_FACE ( 'NONE', ( #364 ), #98, .F. ) ;
#149 = UNCERTAINTY_MEASURE_WITH_UNIT (LENGTH_MEASURE( 1.000000000000000082E-05 ), #210, 'distance_accuracy_value', 'NONE');
#150 = EDGE_CURVE ( 'NONE', #339, #279, #272, .T. ) ;
#151 = STYLED_ITEM ( 'NONE', ( #172 ), #37 ) ;
#152 = DIRECTION ( 'NONE',  ( -1.000000000000000000, -1.224646799147353207E-16, 0.000000000000000000 ) ) ;
#153 = CARTESIAN_POINT ( 'NONE',  ( -3.827021247335478926E-17, 0.3125000000000000000, 0.000000000000000000 ) ) ;
#154 = ORIENTED_EDGE ( 'NONE', *, *, #207, .F. ) ;
#155 = CLOSED_SHELL ( 'NONE', ( #234, #63, #159, #202, #37 ) ) ;
#156 = FILL_AREA_STYLE_COLOUR ( '', #50 ) ;
#157 = ORIENTED_EDGE ( 'NONE', *, *, #117, .T. ) ;
#158 = FILL_AREA_STYLE ('',( #156 ) ) ;
#159 = ADVANCED_FACE ( 'NONE', ( #273 ), #212, .T. ) ;
#160 = EDGE_LOOP ( 'NONE', ( #57, #162, #129, #102, #343 ) ) ;
#161 =( LENGTH_UNIT ( ) NAMED_UNIT ( * ) SI_UNIT ( $, .METRE. ) );
#162 = ORIENTED_EDGE ( 'NONE', *, *, #371, .T. ) ;
#163 = CARTESIAN_POINT ( 'NONE',  ( 0.3124999999999997224, 3.500000000000000000, 3.827021247335476461E-17 ) ) ;
#164 = VERTEX_POINT ( 'NONE', #146 ) ;
#165 = PRESENTATION_LAYER_ASSIGNMENT (  '', '', ( #69 ) ) ;
#166 = CIRCLE ( 'NONE', #14, 0.3124999999999998890 ) ;
#167 = DIRECTION ( 'NONE',  ( -1.224646799147353207E-16, 1.000000000000000000, -0.000000000000000000 ) ) ;
#168 = LENGTH_MEASURE_WITH_UNIT ( LENGTH_MEASURE( 0.02539999999999999897 ), #139 );
#169 =( CONVERSION_BASED_UNIT ( 'INCH', #322 ) LENGTH_UNIT ( ) NAMED_UNIT ( #288 ) );
#170 = CARTESIAN_POINT ( 'NONE',  ( -3.827021247335478926E-17, 0.3125000000000000000, 0.000000000000000000 ) ) ;
#171 = CARTESIAN_POINT ( 'NONE',  ( 0.000000000000000000, 0.3125000000000000555, 0.000000000000000000 ) ) ;
#172 = PRESENTATION_STYLE_ASSIGNMENT (( #93 ) ) ;
#173 = AXIS2_PLACEMENT_3D ( 'NONE', #244, #116, #152 ) ;
#174 =( LENGTH_UNIT ( ) NAMED_UNIT ( * ) SI_UNIT ( $, .METRE. ) );
#175 =( NAMED_UNIT ( * ) PLANE_ANGLE_UNIT ( ) SI_UNIT ( $, .RADIAN. ) );
#176 = SURFACE_STYLE_USAGE ( .BOTH. , #68 ) ;
#177 = STYLED_ITEM ( 'NONE', ( #261 ), #63 ) ;
#178 = AXIS2_PLACEMENT_3D ( 'NONE', #88, #7, #351 ) ;
#179 = DIRECTION ( 'NONE',  ( -0.000000000000000000, -1.000000000000000000, -0.000000000000000000 ) ) ;
#180 =( NAMED_UNIT ( * ) SI_UNIT ( $, .STERADIAN. ) SOLID_ANGLE_UNIT ( ) );
#181 = UNCERTAINTY_MEASURE_WITH_UNIT (LENGTH_MEASURE( 1.000000000000000082E-05 ), #372, 'distance_accuracy_value', 'NONE');
#182 = PRESENTATION_LAYER_ASSIGNMENT (  '', '', ( #348 ) ) ;
#183 = AXIS2_PLACEMENT_3D ( 'NONE', #206, #41, #114 ) ;
#184 = CARTESIAN_POINT ( 'NONE',  ( 0.000000000000000000, 0.000000000000000000, 0.000000000000000000 ) ) ;
#185 = ORIENTED_EDGE ( 'NONE', *, *, #260, .F. ) ;
#186 = EDGE_CURVE ( 'NONE', #49, #311, #189, .T. ) ;
#187 = COLOUR_RGB ( '',0.7921568627450980005, 0.8196078431372548767, 0.9333333333333333481 ) ;
#188 =( NAMED_UNIT ( * ) SI_UNIT ( $, .STERADIAN. ) SOLID_ANGLE_UNIT ( ) );
#189 = CIRCLE ( 'NONE', #19, 0.3124999999999999445 ) ;
#190 = SURFACE_SIDE_STYLE ('',( #47 ) ) ;
#191 = DIRECTION ( 'NONE',  ( 0.000000000000000000, 0.000000000000000000, -1.000000000000000000 ) ) ;
#192 = ORIENTED_EDGE ( 'NONE', *, *, #290, .T. ) ;
#193 = APPLICATION_CONTEXT ( 'automotive_design' ) ;
#194 = EDGE_LOOP ( 'NONE', ( #22, #52, #225, #313 ) ) ;
#195 = DIRECTION ( 'NONE',  ( 1.000000000000000000, 0.000000000000000000, 0.000000000000000000 ) ) ;
#196 = CYLINDRICAL_SURFACE ( 'NONE', #142, 0.3124999999999998890 ) ;
#197 = MECHANICAL_DESIGN_GEOMETRIC_PRESENTATION_REPRESENTATION (  '', ( #69 ), #229 ) ;
#198 = STYLED_ITEM ( 'NONE', ( #112 ), #248 ) ;
#199 = DIRECTION ( 'NONE',  ( 0.000000000000000000, 0.000000000000000000, -1.000000000000000000 ) ) ;
#200 =( NAMED_UNIT ( * ) PLANE_ANGLE_UNIT ( ) SI_UNIT ( $, .RADIAN. ) );
#201 =( NAMED_UNIT ( * ) SI_UNIT ( $, .STERADIAN. ) SOLID_ANGLE_UNIT ( ) );
#202 = ADVANCED_FACE ( 'NONE', ( #94 ), #310, .T. ) ;
#203 = LINE ( 'NONE', #259, #230 ) ;
#204 = AXIS2_PLACEMENT_3D ( 'NONE', #153, #361, #95 ) ;
#205 =( CONVERSION_BASED_UNIT ( 'INCH', #89 ) LENGTH_UNIT ( ) NAMED_UNIT ( #9 ) );
#206 = CARTESIAN_POINT ( 'NONE',  ( 0.000000000000000000, 1.250000000000000000, 0.000000000000000000 ) ) ;
#207 = EDGE_CURVE ( 'NONE', #281, #49, #221, .T. ) ;
#208 = DIRECTION ( 'NONE',  ( 0.000000000000000000, 0.000000000000000000, -1.000000000000000000 ) ) ;
#209 = COLOUR_RGB ( '',1.000000000000000000, 0.000000000000000000, 0.000000000000000000 ) ;
#210 =( CONVERSION_BASED_UNIT ( 'INCH', #332 ) LENGTH_UNIT ( ) NAMED_UNIT ( #256 ) );
#211 = PRODUCT_DEFINITION_CONTEXT ( 'detailed design', #193, 'design' ) ;
#212 = PLANE ( 'NONE',  #183 ) ;
#213 = MECHANICAL_DESIGN_GEOMETRIC_PRESENTATION_REPRESENTATION (  '', ( #348 ), #333 ) ;
#214 = STYLED_ITEM ( 'NONE', ( #250 ), #202 ) ;
#215 = AXIS2_PLACEMENT_3D ( 'NONE', #338, #346, #195 ) ;
#216 = SURFACE_STYLE_FILL_AREA ( #158 ) ;
#217 = EDGE_LOOP ( 'NONE', ( #345, #76, #30, #154 ) ) ;
#218 = ADVANCED_FACE ( 'NONE', ( #101 ), #306, .F. ) ;
#219 = LENGTH_MEASURE_WITH_UNIT ( LENGTH_MEASURE( 0.02539999999999999897 ), #161 );
#220 = ORIENTED_EDGE ( 'NONE', *, *, #86, .F. ) ;
#221 = LINE ( 'NONE', #314, #326 ) ;
#222 = PRESENTATION_LAYER_ASSIGNMENT (  '', '', ( #214 ) ) ;
#223 = DIRECTION ( 'NONE',  ( -0.000000000000000000, -1.000000000000000000, -0.000000000000000000 ) ) ;
#224 = EDGE_CURVE ( 'NONE', #164, #311, #51, .T. ) ;
#225 = ORIENTED_EDGE ( 'NONE', *, *, #25, .F. ) ;
#226 = LENGTH_MEASURE_WITH_UNIT ( LENGTH_MEASURE( 0.02539999999999999897 ), #265 );
#227 = DIRECTION ( 'NONE',  ( -1.000000000000000000, 0.000000000000000000, 0.000000000000000000 ) ) ;
#228 = DIRECTION ( 'NONE',  ( 0.000000000000000000, 0.000000000000000000, 1.000000000000000000 ) ) ;
#229 =( GEOMETRIC_REPRESENTATION_CONTEXT ( 3 ) GLOBAL_UNCERTAINTY_ASSIGNED_CONTEXT ( ( #149 ) ) GLOBAL_UNIT_ASSIGNED_CONTEXT ( ( #210, #302, #21 ) ) REPRESENTATION_CONTEXT ( 'NONE', 'WORKASPACE' ) );
#230 = VECTOR ( 'NONE', #109, 39.37007874015748143 ) ;
#231 = AXIS2_PLACEMENT_3D ( 'NONE', #90, #320, #33 ) ;
#232 = FACE_OUTER_BOUND ( 'NONE', #217, .T. ) ;
#233 =( CONVERSION_BASED_UNIT ( 'INCH', #168 ) LENGTH_UNIT ( ) NAMED_UNIT ( #341 ) );
#234 = ADVANCED_FACE ( 'NONE', ( #342 ), #24, .T. ) ;
#235 = FILL_AREA_STYLE ('',( #11 ) ) ;
#236 =( NAMED_UNIT ( * ) PLANE_ANGLE_UNIT ( ) SI_UNIT ( $, .RADIAN. ) );
#237 =( CONVERSION_BASED_UNIT ( 'INCH', #226 ) LENGTH_UNIT ( ) NAMED_UNIT ( #34 ) );
#238 = AXIS2_PLACEMENT_3D ( 'NONE', #170, #228, #83 ) ;
#239 =( NAMED_UNIT ( * ) SI_UNIT ( $, .STERADIAN. ) SOLID_ANGLE_UNIT ( ) );
#240 = DIRECTION ( 'NONE',  ( -1.000000000000000000, 0.000000000000000000, 0.000000000000000000 ) ) ;
#241 =( NAMED_UNIT ( * ) PLANE_ANGLE_UNIT ( ) SI_UNIT ( $, .RADIAN. ) );
#242 = COLOUR_RGB ( '',1.000000000000000000, 0.000000000000000000, 0.000000000000000000 ) ;
#243 = AXIS2_PLACEMENT_3D ( 'NONE', #48, #92, #10 ) ;
#244 = CARTESIAN_POINT ( 'NONE',  ( 2.143131898507868297E-16, 1.250000000000000000, 0.000000000000000000 ) ) ;
#245 = CARTESIAN_POINT ( 'NONE',  ( 3.827021247335477078E-17, 1.250000000000000000, 0.3124999999999998890 ) ) ;
#246 =( GEOMETRIC_REPRESENTATION_CONTEXT ( 3 ) GLOBAL_UNCERTAINTY_ASSIGNED_CONTEXT ( ( #307 ) ) GLOBAL_UNIT_ASSIGNED_CONTEXT ( ( #169, #236, #201 ) ) REPRESENTATION_CONTEXT ( 'NONE', 'WORKASPACE' ) );
#247 = SURFACE_STYLE_USAGE ( .BOTH. , #190 ) ;
#248 = MANIFOLD_SOLID_BREP ( 'Revolve - Tool Body (Straight Shanked)', #325 ) ;
#249 = DIMENSIONAL_EXPONENTS ( 1.000000000000000000, 0.000000000000000000, 0.000000000000000000, 0.000000000000000000, 0.000000000000000000, 0.000000000000000000, 0.000000000000000000 ) ;
#250 = PRESENTATION_STYLE_ASSIGNMENT (( #126 ) ) ;
#251 = ORIENTED_EDGE ( 'NONE', *, *, #96, .F. ) ;
#252 = MECHANICAL_DESIGN_GEOMETRIC_PRESENTATION_REPRESENTATION (  '', ( #198 ), #246 ) ;
#253 = ORIENTED_EDGE ( 'NONE', *, *, #371, .F. ) ;
#254 = CARTESIAN_POINT ( 'NONE',  ( -6.123233995736759873E-17, 3.500000000000000000, 0.000000000000000000 ) ) ;
#255 = ORIENTED_EDGE ( 'NONE', *, *, #359, .T. ) ;
#256 = DIMENSIONAL_EXPONENTS ( 1.000000000000000000, 0.000000000000000000, 0.000000000000000000, 0.000000000000000000, 0.000000000000000000, 0.000000000000000000, 0.000000000000000000 ) ;
#257 = CARTESIAN_POINT ( 'NONE',  ( -6.123233995736758640E-17, 3.500000000000000000, 0.000000000000000000 ) ) ;
#258 =( LENGTH_UNIT ( ) NAMED_UNIT ( * ) SI_UNIT ( $, .METRE. ) );
#259 = CARTESIAN_POINT ( 'NONE',  ( 3.827021247335477078E-17, 0.000000000000000000, 0.3124999999999998890 ) ) ;
#260 = EDGE_CURVE ( 'NONE', #281, #164, #20, .T. ) ;
#261 = PRESENTATION_STYLE_ASSIGNMENT (( #12 ) ) ;
#262 =( GEOMETRIC_REPRESENTATION_CONTEXT ( 3 ) GLOBAL_UNCERTAINTY_ASSIGNED_CONTEXT ( ( #181 ) ) GLOBAL_UNIT_ASSIGNED_CONTEXT ( ( #372, #334, #188 ) ) REPRESENTATION_CONTEXT ( 'NONE', 'WORKASPACE' ) );
#263 = SPHERICAL_SURFACE ( 'NONE', #238, 0.3125000000000000000 ) ;
#264 = SURFACE_STYLE_USAGE ( .BOTH. , #105 ) ;
#265 =( LENGTH_UNIT ( ) NAMED_UNIT ( * ) SI_UNIT ( $, .METRE. ) );
#266 = STYLED_ITEM ( 'NONE', ( #53 ), #234 ) ;
#267 = CARTESIAN_POINT ( 'NONE',  ( -6.123233995736758640E-17, 3.500000000000000000, 0.000000000000000000 ) ) ;
#268 = PRESENTATION_STYLE_ASSIGNMENT (( #176 ) ) ;
#269 = APPLICATION_PROTOCOL_DEFINITION ( 'draft international standard', 'automotive_design', 1998, #131 ) ;
#270 = CARTESIAN_POINT ( 'NONE',  ( 0.000000000000000000, 1.250000000000000000, 0.000000000000000000 ) ) ;
#271 = EDGE_CURVE ( 'NONE', #54, #276, #125, .T. ) ;
#272 = CIRCLE ( 'NONE', #204, 0.3125000000000000000 ) ;
#273 = FACE_OUTER_BOUND ( 'NONE', #137, .T. ) ;
#274 = DIRECTION ( 'NONE',  ( 0.000000000000000000, 0.000000000000000000, -1.000000000000000000 ) ) ;
#275 = EDGE_CURVE ( 'NONE', #311, #49, #135, .T. ) ;
#276 = VERTEX_POINT ( 'NONE', #65 ) ;
#277 = COLOUR_RGB ( '',1.000000000000000000, 0.000000000000000000, 0.000000000000000000 ) ;
#278 = DIRECTION ( 'NONE',  ( 1.224646799147353207E-16, -1.000000000000000000, 0.000000000000000000 ) ) ;
#279 = VERTEX_POINT ( 'NONE', #284 ) ;
#280 = SURFACE_SIDE_STYLE ('',( #336 ) ) ;
#281 = VERTEX_POINT ( 'NONE', #352 ) ;
#282 =( NAMED_UNIT ( * ) PLANE_ANGLE_UNIT ( ) SI_UNIT ( $, .RADIAN. ) );
#283 = ORIENTED_EDGE ( 'NONE', *, *, #340, .F. ) ;
#284 = CARTESIAN_POINT ( 'NONE',  ( -1.913510623667739463E-17, 0.000000000000000000, 0.000000000000000000 ) ) ;
#285 = VECTOR ( 'NONE', #344, 39.37007874015748143 ) ;
#286 = AXIS2_PLACEMENT_3D ( 'NONE', #257, #167, #136 ) ;
#287 = ORIENTED_EDGE ( 'NONE', *, *, #186, .T. ) ;
#288 = DIMENSIONAL_EXPONENTS ( 1.000000000000000000, 0.000000000000000000, 0.000000000000000000, 0.000000000000000000, 0.000000000000000000, 0.000000000000000000, 0.000000000000000000 ) ;
#289 = DIRECTION ( 'NONE',  ( -1.224646799147353207E-16, 1.000000000000000000, -0.000000000000000000 ) ) ;
#290 = EDGE_CURVE ( 'NONE', #164, #281, #350, .T. ) ;
#291 = FILL_AREA_STYLE ('',( #39 ) ) ;
#292 = FACE_OUTER_BOUND ( 'NONE', #79, .T. ) ;
#293 =( GEOMETRIC_REPRESENTATION_CONTEXT ( 3 ) GLOBAL_UNCERTAINTY_ASSIGNED_CONTEXT ( ( #366 ) ) GLOBAL_UNIT_ASSIGNED_CONTEXT ( ( #205, #175, #294 ) ) REPRESENTATION_CONTEXT ( 'NONE', 'WORKASPACE' ) );
#294 =( NAMED_UNIT ( * ) SI_UNIT ( $, .STERADIAN. ) SOLID_ANGLE_UNIT ( ) );
#295 = AXIS2_PLACEMENT_3D ( 'NONE', #305, #301, #43 ) ;
#296 = COLOUR_RGB ( '',0.7921568627450980005, 0.8196078431372548767, 0.9333333333333333481 ) ;
#297 = PRODUCT_DEFINITION_SHAPE ( 'NONE', 'NONE',  #55 ) ;
#298 = FILL_AREA_STYLE_COLOUR ( '', #209 ) ;
#299 = UNCERTAINTY_MEASURE_WITH_UNIT (LENGTH_MEASURE( 1.000000000000000082E-05 ), #233, 'distance_accuracy_value', 'NONE');
#300 = ADVANCED_FACE ( 'NONE', ( #292 ), #107, .T. ) ;
#301 = DIRECTION ( 'NONE',  ( -0.000000000000000000, -1.000000000000000000, -0.000000000000000000 ) ) ;
#302 =( NAMED_UNIT ( * ) PLANE_ANGLE_UNIT ( ) SI_UNIT ( $, .RADIAN. ) );
#303 =( GEOMETRIC_REPRESENTATION_CONTEXT ( 3 ) GLOBAL_UNCERTAINTY_ASSIGNED_CONTEXT ( ( #358 ) ) GLOBAL_UNIT_ASSIGNED_CONTEXT ( ( #237, #241, #180 ) ) REPRESENTATION_CONTEXT ( 'NONE', 'WORKASPACE' ) );
#304 = PRESENTATION_LAYER_ASSIGNMENT (  '', '', ( #198 ) ) ;
#305 = CARTESIAN_POINT ( 'NONE',  ( 0.000000000000000000, 0.3125000000000000555, 0.000000000000000000 ) ) ;
#306 = PLANE ( 'NONE',  #74 ) ;
#307 = UNCERTAINTY_MEASURE_WITH_UNIT (LENGTH_MEASURE( 1.000000000000000082E-05 ), #169, 'distance_accuracy_value', 'NONE');
#308 = EDGE_LOOP ( 'NONE', ( #287, #127 ) ) ;
#309 = AXIS2_PLACEMENT_3D ( 'NONE', #72, #363, #147 ) ;
#310 = CYLINDRICAL_SURFACE ( 'NONE', #1, 0.3124999999999998890 ) ;
#311 = VERTEX_POINT ( 'NONE', #61 ) ;
#312 = SURFACE_STYLE_USAGE ( .BOTH. , #280 ) ;
#313 = ORIENTED_EDGE ( 'NONE', *, *, #271, .T. ) ;
#314 = CARTESIAN_POINT ( 'NONE',  ( -0.3124999999999998890, 3.500000000000000000, 0.000000000000000000 ) ) ;
#315 = ORIENTED_EDGE ( 'NONE', *, *, #130, .T. ) ;
#316 =( LENGTH_UNIT ( ) NAMED_UNIT ( * ) SI_UNIT ( $, .METRE. ) );
#317 = MECHANICAL_DESIGN_GEOMETRIC_PRESENTATION_REPRESENTATION (  '', ( #266 ), #84 ) ;
#318 = PRODUCT_DEFINITION_FORMATION_WITH_SPECIFIED_SOURCE ( 'ANY', '', #81, .NOT_KNOWN. ) ;
#319 =( NAMED_UNIT ( * ) SI_UNIT ( $, .STERADIAN. ) SOLID_ANGLE_UNIT ( ) );
#320 = DIRECTION ( 'NONE',  ( -0.000000000000000000, -1.000000000000000000, -0.000000000000000000 ) ) ;
#321 = DIRECTION ( 'NONE',  ( -1.000000000000000000, 0.000000000000000000, 0.000000000000000000 ) ) ;
#322 = LENGTH_MEASURE_WITH_UNIT ( LENGTH_MEASURE( 0.02539999999999999897 ), #316 );
#323 = SURFACE_STYLE_FILL_AREA ( #347 ) ;
#324 = UNCERTAINTY_MEASURE_WITH_UNIT (LENGTH_MEASURE( 1.000000000000000082E-05 ), #67, 'distance_accuracy_value', 'NONE');
#325 = CLOSED_SHELL ( 'NONE', ( #331, #148, #300, #218 ) ) ;
#326 = VECTOR ( 'NONE', #121, 39.37007874015748143 ) ;
#327 = DIRECTION ( 'NONE',  ( -0.000000000000000000, -1.000000000000000000, -0.000000000000000000 ) ) ;
#328 = CARTESIAN_POINT ( 'NONE',  ( 0.000000000000000000, 0.3125000000000000555, 0.000000000000000000 ) ) ;
#329 = DIRECTION ( 'NONE',  ( 0.000000000000000000, 0.000000000000000000, -1.000000000000000000 ) ) ;
#330 = MECHANICAL_DESIGN_GEOMETRIC_PRESENTATION_REPRESENTATION (  '', ( #177 ), #303 ) ;
#331 = ADVANCED_FACE ( 'NONE', ( #232 ), #32, .T. ) ;
#332 = LENGTH_MEASURE_WITH_UNIT ( LENGTH_MEASURE( 0.02539999999999999897 ), #97 );
#333 =( GEOMETRIC_REPRESENTATION_CONTEXT ( 3 ) GLOBAL_UNCERTAINTY_ASSIGNED_CONTEXT ( ( #299 ) ) GLOBAL_UNIT_ASSIGNED_CONTEXT ( ( #233, #200, #319 ) ) REPRESENTATION_CONTEXT ( 'NONE', 'WORKASPACE' ) );
#334 =( NAMED_UNIT ( * ) PLANE_ANGLE_UNIT ( ) SI_UNIT ( $, .RADIAN. ) );
#335 = EDGE_LOOP ( 'NONE', ( #185, #26 ) ) ;
#336 = SURFACE_STYLE_FILL_AREA ( #369 ) ;
#337 = PRESENTATION_STYLE_ASSIGNMENT (( #247 ) ) ;
#338 = CARTESIAN_POINT ( 'NONE',  ( -3.827021247335478926E-17, 0.3125000000000000000, 0.000000000000000000 ) ) ;
#339 = VERTEX_POINT ( 'NONE', #5 ) ;
#340 = EDGE_CURVE ( 'NONE', #370, #133, #166, .T. ) ;
#341 = DIMENSIONAL_EXPONENTS ( 1.000000000000000000, 0.000000000000000000, 0.000000000000000000, 0.000000000000000000, 0.000000000000000000, 0.000000000000000000, 0.000000000000000000 ) ;
#342 = FACE_OUTER_BOUND ( 'NONE', #194, .T. ) ;
#343 = ORIENTED_EDGE ( 'NONE', *, *, #130, .F. ) ;
#344 = DIRECTION ( 'NONE',  ( -1.224646799147353207E-16, 1.000000000000000000, -0.000000000000000000 ) ) ;
#345 = ORIENTED_EDGE ( 'NONE', *, *, #260, .T. ) ;
#346 = DIRECTION ( 'NONE',  ( 0.000000000000000000, 0.000000000000000000, 1.000000000000000000 ) ) ;
#347 = FILL_AREA_STYLE ('',( #60 ) ) ;
#348 = STYLED_ITEM ( 'NONE', ( #337 ), #4 ) ;
#349 = MECHANICAL_DESIGN_GEOMETRIC_PRESENTATION_REPRESENTATION (  '', ( #151 ), #293 ) ;
#350 = CIRCLE ( 'NONE', #178, 0.3124999999999996669 ) ;
#351 = DIRECTION ( 'NONE',  ( -1.000000000000000000, 0.000000000000000000, 0.000000000000000000 ) ) ;
#352 = CARTESIAN_POINT ( 'NONE',  ( -0.3124999999999994449, 1.250000000000000000, 0.000000000000000000 ) ) ;
#353 = ADVANCED_BREP_SHAPE_REPRESENTATION ( '49345', ( #4, #248, #309 ), #59 ) ;
#354 = AXIS2_PLACEMENT_3D ( 'NONE', #270, #362, #329 ) ;
#355 = AXIS2_PLACEMENT_3D ( 'NONE', #8, #143, #227 ) ;
#356 = PRODUCT_CONTEXT ( 'NONE', #131, 'mechanical' ) ;
#357 = FILL_AREA_STYLE ('',( #298 ) ) ;
#358 = UNCERTAINTY_MEASURE_WITH_UNIT (LENGTH_MEASURE( 1.000000000000000082E-05 ), #237, 'distance_accuracy_value', 'NONE');
#359 = EDGE_CURVE ( 'NONE', #339, #100, #23, .T. ) ;
#360 = LENGTH_MEASURE_WITH_UNIT ( LENGTH_MEASURE( 0.02539999999999999897 ), #174 );
#361 = DIRECTION ( 'NONE',  ( 1.224646799147353207E-16, -0.000000000000000000, 1.000000000000000000 ) ) ;
#362 = DIRECTION ( 'NONE',  ( -0.000000000000000000, -1.000000000000000000, -0.000000000000000000 ) ) ;
#363 = DIRECTION ( 'NONE',  ( 0.000000000000000000, 0.000000000000000000, 1.000000000000000000 ) ) ;
#364 = FACE_OUTER_BOUND ( 'NONE', #335, .T. ) ;
#365 = CARTESIAN_POINT ( 'NONE',  ( 0.3124999999999998890, 3.500000000000000000, 0.000000000000000000 ) ) ;
#366 = UNCERTAINTY_MEASURE_WITH_UNIT (LENGTH_MEASURE( 1.000000000000000082E-05 ), #205, 'distance_accuracy_value', 'NONE');
#367 = CIRCLE ( 'NONE', #354, 0.3124999999999998890 ) ;
#368 = ORIENTED_EDGE ( 'NONE', *, *, #359, .F. ) ;
#369 = FILL_AREA_STYLE ('',( #56 ) ) ;
#370 = VERTEX_POINT ( 'NONE', #140 ) ;
#371 = EDGE_CURVE ( 'NONE', #133, #276, #203, .T. ) ;
#372 =( CONVERSION_BASED_UNIT ( 'INCH', #132 ) LENGTH_UNIT ( ) NAMED_UNIT ( #29 ) );
#373 = EDGE_LOOP ( 'NONE', ( #75, #255, #157, #3 ) ) ;
ENDSEC;
END-ISO-10303-21;
