ISO-10303-21;
HEADER;
FILE_DESCRIPTION (( 'STEP AP214' ),
    '1' );
FILE_NAME ('07029.STEP',
    '2023-07-12T13:05:18',
    ( '' ),
    ( '' ),
    'SwSTEP 2.0',
    'SolidWorks 2023',
    '' );
FILE_SCHEMA (( 'AUTOMOTIVE_DESIGN' ));
ENDSEC;

DATA;
#1 = COLOUR_RGB ( '',0.7921568627450980005, 0.8196078431372548767, 0.9333333333333333481 ) ;
#2 = STYLED_ITEM ( 'NONE', ( #80 ), #267 ) ;
#3 = EDGE_LOOP ( 'NONE', ( #114, #308, #22, #94 ) ) ;
#4 = EDGE_LOOP ( 'NONE', ( #23, #49 ) ) ;
#5 = DIRECTION ( 'NONE',  ( -1.380931555747844271E-17, -1.000000000000000000, 0.000000000000000000 ) ) ;
#6 = CARTESIAN_POINT ( 'NONE',  ( 7.627887846640648262E-36, 5.523726222991377856E-19, 0.000000000000000000 ) ) ;
#7 = CARTESIAN_POINT ( 'NONE',  ( -0.2499999999999999167, 3.000000000000000444, 0.000000000000000000 ) ) ;
#8 = EDGE_CURVE ( 'NONE', #188, #285, #259, .T. ) ;
#9 = LENGTH_MEASURE_WITH_UNIT ( LENGTH_MEASURE( 0.02539999999999999897 ), #156 );
#10 = FACE_OUTER_BOUND ( 'NONE', #243, .T. ) ;
#11 = SURFACE_SIDE_STYLE ('',( #270 ) ) ;
#12 =( CONVERSION_BASED_UNIT ( 'INCH', #9 ) LENGTH_UNIT ( ) NAMED_UNIT ( #191 ) );
#13 = STYLED_ITEM ( 'NONE', ( #130 ), #34 ) ;
#14 = DIRECTION ( 'NONE',  ( 1.000000000000000000, 0.000000000000000000, 0.000000000000000000 ) ) ;
#15 = SURFACE_STYLE_FILL_AREA ( #136 ) ;
#16 = DIRECTION ( 'NONE',  ( 1.000000000000000000, 0.000000000000000000, 0.000000000000000000 ) ) ;
#17 = EDGE_CURVE ( 'NONE', #190, #236, #200, .T. ) ;
#18 = DIRECTION ( 'NONE',  ( 1.000000000000000000, -1.380931555747844271E-17, 0.000000000000000000 ) ) ;
#19 = AXIS2_PLACEMENT_3D ( 'NONE', #6, #275, #220 ) ;
#20 = AXIS2_PLACEMENT_3D ( 'NONE', #264, #26, #307 ) ;
#21 = ORIENTED_EDGE ( 'NONE', *, *, #17, .F. ) ;
#22 = ORIENTED_EDGE ( 'NONE', *, *, #192, .T. ) ;
#23 = ORIENTED_EDGE ( 'NONE', *, *, #93, .F. ) ;
#24 = STYLED_ITEM ( 'NONE', ( #105 ), #56 ) ;
#25 = VERTEX_POINT ( 'NONE', #309 ) ;
#26 = DIRECTION ( 'NONE',  ( -1.229226395354819692E-16, 1.000000000000000000, 0.000000000000000000 ) ) ;
#27 = ORIENTED_EDGE ( 'NONE', *, *, #245, .F. ) ;
#28 = ADVANCED_FACE ( 'NONE', ( #71 ), #171, .T. ) ;
#29 =( NAMED_UNIT ( * ) SI_UNIT ( $, .STERADIAN. ) SOLID_ANGLE_UNIT ( ) );
#30 = PLANE ( 'NONE',  #20 ) ;
#31 = SURFACE_STYLE_USAGE ( .BOTH. , #11 ) ;
#32 =( GEOMETRIC_REPRESENTATION_CONTEXT ( 3 ) GLOBAL_UNCERTAINTY_ASSIGNED_CONTEXT ( ( #137 ) ) GLOBAL_UNIT_ASSIGNED_CONTEXT ( ( #202, #153, #199 ) ) REPRESENTATION_CONTEXT ( 'NONE', 'WORKASPACE' ) );
#33 = DIRECTION ( 'NONE',  ( -1.229226395354819692E-16, 1.000000000000000000, -0.000000000000000000 ) ) ;
#34 = ADVANCED_FACE ( 'NONE', ( #222 ), #290, .T. ) ;
#35 = FILL_AREA_STYLE_COLOUR ( '', #170 ) ;
#36 = LENGTH_MEASURE_WITH_UNIT ( LENGTH_MEASURE( 0.02539999999999999897 ), #166 );
#37 = CLOSED_SHELL ( 'NONE', ( #237, #223, #176, #143 ) ) ;
#38 = DIRECTION ( 'NONE',  ( 1.229226395354819692E-16, -1.000000000000000000, 0.000000000000000000 ) ) ;
#39 =( NAMED_UNIT ( * ) SI_UNIT ( $, .STERADIAN. ) SOLID_ANGLE_UNIT ( ) );
#40 = UNCERTAINTY_MEASURE_WITH_UNIT (LENGTH_MEASURE( 1.000000000000000082E-05 ), #218, 'distance_accuracy_value', 'NONE');
#41 =( CONVERSION_BASED_UNIT ( 'INCH', #150 ) LENGTH_UNIT ( ) NAMED_UNIT ( #95 ) );
#42 = CARTESIAN_POINT ( 'NONE',  ( 0.000000000000000000, 0.000000000000000000, 0.000000000000000000 ) ) ;
#43 = CLOSED_SHELL ( 'NONE', ( #34, #28, #157, #185 ) ) ;
#44 = ORIENTED_EDGE ( 'NONE', *, *, #192, .F. ) ;
#45 = FILL_AREA_STYLE ('',( #258 ) ) ;
#46 = CARTESIAN_POINT ( 'NONE',  ( 0.04000000000000000083, 0.000000000000000000, 4.898587196589413537E-18 ) ) ;
#47 =( LENGTH_UNIT ( ) NAMED_UNIT ( * ) SI_UNIT ( $, .METRE. ) );
#48 = VECTOR ( 'NONE', #33, 39.37007874015748143 ) ;
#49 = ORIENTED_EDGE ( 'NONE', *, *, #121, .F. ) ;
#50 = STYLED_ITEM ( 'NONE', ( #215 ), #185 ) ;
#51 = DIRECTION ( 'NONE',  ( -1.229226395354819692E-16, 1.000000000000000000, -0.000000000000000000 ) ) ;
#52 = ORIENTED_EDGE ( 'NONE', *, *, #133, .T. ) ;
#53 = DIRECTION ( 'NONE',  ( -1.000000000000000000, 0.000000000000000000, 0.000000000000000000 ) ) ;
#54 =( NAMED_UNIT ( * ) SI_UNIT ( $, .STERADIAN. ) SOLID_ANGLE_UNIT ( ) );
#55 = CARTESIAN_POINT ( 'NONE',  ( 3.813943923320324131E-36, 2.761863111495688928E-19, 0.000000000000000000 ) ) ;
#56 = MANIFOLD_SOLID_BREP ( 'Revolve - Cutting Edge', #43 ) ;
#57 = SURFACE_SIDE_STYLE ('',( #297 ) ) ;
#58 = AXIS2_PLACEMENT_3D ( 'NONE', #231, #38, #254 ) ;
#59 = DIRECTION ( 'NONE',  ( 1.380931555747844426E-17, 1.000000000000000000, 0.000000000000000000 ) ) ;
#60 = CARTESIAN_POINT ( 'NONE',  ( 2.899956267070462108E-18, 0.2099999999999991873, 0.000000000000000000 ) ) ;
#61 =( NAMED_UNIT ( * ) PLANE_ANGLE_UNIT ( ) SI_UNIT ( $, .RADIAN. ) );
#62 = AXIS2_PLACEMENT_3D ( 'NONE', #233, #159, #165 ) ;
#63 = PRODUCT_RELATED_PRODUCT_CATEGORY ( 'part', '', ( #301 ) ) ;
#64 = CARTESIAN_POINT ( 'NONE',  ( 7.627887846640648262E-36, 5.523726222991377856E-19, 0.000000000000000000 ) ) ;
#65 = CARTESIAN_POINT ( 'NONE',  ( 0.2499999999999999167, 0.2099999999999991873, 3.061616997868382402E-17 ) ) ;
#66 = UNCERTAINTY_MEASURE_WITH_UNIT (LENGTH_MEASURE( 1.000000000000000082E-05 ), #41, 'distance_accuracy_value', 'NONE');
#67 = CARTESIAN_POINT ( 'NONE',  ( -0.2500000000000001110, 3.000000000000000444, 0.000000000000000000 ) ) ;
#68 =( NAMED_UNIT ( * ) SI_UNIT ( $, .STERADIAN. ) SOLID_ANGLE_UNIT ( ) );
#69 = EDGE_LOOP ( 'NONE', ( #194, #116, #257, #289 ) ) ;
#70 = COLOUR_RGB ( '',1.000000000000000000, 0.000000000000000000, 0.000000000000000000 ) ;
#71 = FACE_OUTER_BOUND ( 'NONE', #4, .T. ) ;
#72 = EDGE_CURVE ( 'NONE', #188, #25, #241, .T. ) ;
#73 = SURFACE_SIDE_STYLE ('',( #122 ) ) ;
#74 = ORIENTED_EDGE ( 'NONE', *, *, #115, .T. ) ;
#75 = DIRECTION ( 'NONE',  ( -1.229226395354819692E-16, 1.000000000000000000, -0.000000000000000000 ) ) ;
#76 = EDGE_CURVE ( 'NONE', #90, #265, #97, .T. ) ;
#77 = ORIENTED_EDGE ( 'NONE', *, *, #260, .F. ) ;
#78 = DIMENSIONAL_EXPONENTS ( 1.000000000000000000, 0.000000000000000000, 0.000000000000000000, 0.000000000000000000, 0.000000000000000000, 0.000000000000000000, 0.000000000000000000 ) ;
#79 = DIRECTION ( 'NONE',  ( -1.000000000000000000, 0.000000000000000000, 0.000000000000000000 ) ) ;
#80 = PRESENTATION_STYLE_ASSIGNMENT (( #172 ) ) ;
#81 = FILL_AREA_STYLE ('',( #102 ) ) ;
#82 =( LENGTH_UNIT ( ) NAMED_UNIT ( * ) SI_UNIT ( $, .METRE. ) );
#83 =( GEOMETRIC_REPRESENTATION_CONTEXT ( 3 ) GLOBAL_UNCERTAINTY_ASSIGNED_CONTEXT ( ( #86 ) ) GLOBAL_UNIT_ASSIGNED_CONTEXT ( ( #228, #84, #280 ) ) REPRESENTATION_CONTEXT ( 'NONE', 'WORKASPACE' ) );
#84 =( NAMED_UNIT ( * ) PLANE_ANGLE_UNIT ( ) SI_UNIT ( $, .RADIAN. ) );
#85 = CARTESIAN_POINT ( 'NONE',  ( 7.627887846640648262E-36, 5.523726222991377856E-19, 0.000000000000000000 ) ) ;
#86 = UNCERTAINTY_MEASURE_WITH_UNIT (LENGTH_MEASURE( 1.000000000000000082E-05 ), #228, 'distance_accuracy_value', 'NONE');
#87 = DIRECTION ( 'NONE',  ( -1.380931555747844426E-17, -1.000000000000000000, -0.000000000000000000 ) ) ;
#88 = AXIS2_PLACEMENT_3D ( 'NONE', #55, #5, #18 ) ;
#89 = CARTESIAN_POINT ( 'NONE',  ( -6.123233995736772199E-17, 3.000000000000000444, 0.000000000000000000 ) ) ;
#90 = VERTEX_POINT ( 'NONE', #281 ) ;
#91 = ORIENTED_EDGE ( 'NONE', *, *, #260, .T. ) ;
#92 = ORIENTED_EDGE ( 'NONE', *, *, #76, .T. ) ;
#93 = EDGE_CURVE ( 'NONE', #175, #285, #224, .T. ) ;
#94 = ORIENTED_EDGE ( 'NONE', *, *, #93, .T. ) ;
#95 = DIMENSIONAL_EXPONENTS ( 1.000000000000000000, 0.000000000000000000, 0.000000000000000000, 0.000000000000000000, 0.000000000000000000, 0.000000000000000000, 0.000000000000000000 ) ;
#96 = CARTESIAN_POINT ( 'NONE',  ( 0.04000000000000000083, 0.000000000000000000, 1.775737858763662224E-17 ) ) ;
#97 = CIRCLE ( 'NONE', #62, 0.2500000000000000555 ) ;
#98 =( NAMED_UNIT ( * ) PLANE_ANGLE_UNIT ( ) SI_UNIT ( $, .RADIAN. ) );
#99 = LENGTH_MEASURE_WITH_UNIT ( LENGTH_MEASURE( 0.02539999999999999897 ), #47 );
#100 = LENGTH_MEASURE_WITH_UNIT ( LENGTH_MEASURE( 0.02539999999999999897 ), #268 );
#101 = CARTESIAN_POINT ( 'NONE',  ( 2.817218243466270766E-16, 0.2099999999999991318, 0.000000000000000000 ) ) ;
#102 = FILL_AREA_STYLE_COLOUR ( '', #1 ) ;
#103 = AXIS2_PLACEMENT_3D ( 'NONE', #85, #203, #227 ) ;
#104 =( GEOMETRIC_REPRESENTATION_CONTEXT ( 3 ) GLOBAL_UNCERTAINTY_ASSIGNED_CONTEXT ( ( #66 ) ) GLOBAL_UNIT_ASSIGNED_CONTEXT ( ( #41, #152, #284 ) ) REPRESENTATION_CONTEXT ( 'NONE', 'WORKASPACE' ) );
#105 = PRESENTATION_STYLE_ASSIGNMENT (( #221 ) ) ;
#106 = PLANE ( 'NONE',  #58 ) ;
#107 = FACE_OUTER_BOUND ( 'NONE', #69, .T. ) ;
#108 = SURFACE_SIDE_STYLE ('',( #15 ) ) ;
#109 = UNCERTAINTY_MEASURE_WITH_UNIT (LENGTH_MEASURE( 1.000000000000000082E-05 ), #273, 'distance_accuracy_value', 'NONE');
#110 = DIRECTION ( 'NONE',  ( -1.000000000000000000, 1.380931555747844426E-17, 0.000000000000000000 ) ) ;
#111 = PRESENTATION_LAYER_ASSIGNMENT (  '', '', ( #24 ) ) ;
#112 =( GEOMETRIC_REPRESENTATION_CONTEXT ( 3 ) GLOBAL_UNCERTAINTY_ASSIGNED_CONTEXT ( ( #266 ) ) GLOBAL_UNIT_ASSIGNED_CONTEXT ( ( #180, #61, #39 ) ) REPRESENTATION_CONTEXT ( 'NONE', 'WORKASPACE' ) );
#113 = CARTESIAN_POINT ( 'NONE',  ( -6.123233995736772199E-17, 3.000000000000000444, 0.000000000000000000 ) ) ;
#114 = ORIENTED_EDGE ( 'NONE', *, *, #8, .F. ) ;
#115 = EDGE_CURVE ( 'NONE', #25, #188, #213, .T. ) ;
#116 = ORIENTED_EDGE ( 'NONE', *, *, #17, .T. ) ;
#117 = SURFACE_STYLE_USAGE ( .BOTH. , #238 ) ;
#118 = VECTOR ( 'NONE', #286, 39.37007874015748854 ) ;
#119 = AXIS2_PLACEMENT_3D ( 'NONE', #101, #269, #294 ) ;
#120 = SURFACE_STYLE_FILL_AREA ( #45 ) ;
#121 = EDGE_CURVE ( 'NONE', #285, #175, #262, .T. ) ;
#122 = SURFACE_STYLE_FILL_AREA ( #128 ) ;
#123 = DIRECTION ( 'NONE',  ( -0.7071067811865486830, 0.7071067811865462405, 0.000000000000000000 ) ) ;
#124 = DIMENSIONAL_EXPONENTS ( 1.000000000000000000, 0.000000000000000000, 0.000000000000000000, 0.000000000000000000, 0.000000000000000000, 0.000000000000000000, 0.000000000000000000 ) ;
#125 = DIRECTION ( 'NONE',  ( 1.380931555747844271E-17, 1.000000000000000000, 0.000000000000000000 ) ) ;
#126 =( NAMED_UNIT ( * ) PLANE_ANGLE_UNIT ( ) SI_UNIT ( $, .RADIAN. ) );
#127 = PRESENTATION_LAYER_ASSIGNMENT (  '', '', ( #295 ) ) ;
#128 = FILL_AREA_STYLE ('',( #167 ) ) ;
#129 =( NAMED_UNIT ( * ) PLANE_ANGLE_UNIT ( ) SI_UNIT ( $, .RADIAN. ) );
#130 = PRESENTATION_STYLE_ASSIGNMENT (( #31 ) ) ;
#131 = COLOUR_RGB ( '',1.000000000000000000, 0.000000000000000000, 0.000000000000000000 ) ;
#132 = COLOUR_RGB ( '',0.7921568627450980005, 0.8196078431372548767, 0.9333333333333333481 ) ;
#133 = EDGE_CURVE ( 'NONE', #190, #90, #278, .T. ) ;
#134 = DIRECTION ( 'NONE',  ( -1.000000000000000000, 0.000000000000000000, 0.000000000000000000 ) ) ;
#135 = LENGTH_MEASURE_WITH_UNIT ( LENGTH_MEASURE( 0.02539999999999999897 ), #299 );
#136 = FILL_AREA_STYLE ('',( #35 ) ) ;
#137 = UNCERTAINTY_MEASURE_WITH_UNIT (LENGTH_MEASURE( 1.000000000000000082E-05 ), #202, 'distance_accuracy_value', 'NONE');
#138 = MECHANICAL_DESIGN_GEOMETRIC_PRESENTATION_REPRESENTATION (  '', ( #24 ), #32 ) ;
#139 = ADVANCED_BREP_SHAPE_REPRESENTATION ( '07029', ( #56, #267, #242 ), #112 ) ;
#140 = PRODUCT_DEFINITION ( 'UNKNOWN', '', #283, #244 ) ;
#141 = PRESENTATION_STYLE_ASSIGNMENT (( #304 ) ) ;
#142 = DIRECTION ( 'NONE',  ( 1.000000000000000000, 0.000000000000000000, 0.000000000000000000 ) ) ;
#143 = ADVANCED_FACE ( 'NONE', ( #186 ), #106, .F. ) ;
#144 = CIRCLE ( 'NONE', #119, 0.2499999999999996947 ) ;
#145 = ORIENTED_EDGE ( 'NONE', *, *, #232, .T. ) ;
#146 = ORIENTED_EDGE ( 'NONE', *, *, #8, .T. ) ;
#147 = CARTESIAN_POINT ( 'NONE',  ( 0.2499999999999999722, 0.2099999999999991596, 3.061616997868383018E-17 ) ) ;
#148 = COLOUR_RGB ( '',1.000000000000000000, 0.000000000000000000, 0.000000000000000000 ) ;
#149 = DIRECTION ( 'NONE',  ( -1.229226395354819692E-16, 1.000000000000000000, -0.000000000000000000 ) ) ;
#150 = LENGTH_MEASURE_WITH_UNIT ( LENGTH_MEASURE( 0.02539999999999999897 ), #219 );
#151 = FACE_OUTER_BOUND ( 'NONE', #173, .T. ) ;
#152 =( NAMED_UNIT ( * ) PLANE_ANGLE_UNIT ( ) SI_UNIT ( $, .RADIAN. ) );
#153 =( NAMED_UNIT ( * ) PLANE_ANGLE_UNIT ( ) SI_UNIT ( $, .RADIAN. ) );
#154 = CONICAL_SURFACE ( 'NONE', #164, 0.04000000000000000083, 0.7853981633974500554 ) ;
#155 = APPLICATION_CONTEXT ( 'automotive_design' ) ;
#156 =( LENGTH_UNIT ( ) NAMED_UNIT ( * ) SI_UNIT ( $, .METRE. ) );
#157 = ADVANCED_FACE ( 'NONE', ( #252 ), #154, .T. ) ;
#158 =( GEOMETRIC_REPRESENTATION_CONTEXT ( 3 ) GLOBAL_UNCERTAINTY_ASSIGNED_CONTEXT ( ( #109 ) ) GLOBAL_UNIT_ASSIGNED_CONTEXT ( ( #273, #129, #29 ) ) REPRESENTATION_CONTEXT ( 'NONE', 'WORKASPACE' ) );
#159 = DIRECTION ( 'NONE',  ( -1.229226395354819692E-16, 1.000000000000000000, -0.000000000000000000 ) ) ;
#160 = CARTESIAN_POINT ( 'NONE',  ( 2.899956267070462108E-18, 0.2099999999999991873, 0.000000000000000000 ) ) ;
#161 = SURFACE_STYLE_USAGE ( .BOTH. , #108 ) ;
#162 = APPLICATION_PROTOCOL_DEFINITION ( 'draft international standard', 'automotive_design', 1998, #155 ) ;
#163 = MECHANICAL_DESIGN_GEOMETRIC_PRESENTATION_REPRESENTATION (  '', ( #13 ), #158 ) ;
#164 = AXIS2_PLACEMENT_3D ( 'NONE', #64, #59, #110 ) ;
#165 = DIRECTION ( 'NONE',  ( -1.000000000000000000, 0.000000000000000000, 0.000000000000000000 ) ) ;
#166 =( LENGTH_UNIT ( ) NAMED_UNIT ( * ) SI_UNIT ( $, .METRE. ) );
#167 = FILL_AREA_STYLE_COLOUR ( '', #132 ) ;
#168 = UNCERTAINTY_MEASURE_WITH_UNIT (LENGTH_MEASURE( 1.000000000000000082E-05 ), #12, 'distance_accuracy_value', 'NONE');
#169 = DIRECTION ( 'NONE',  ( -1.000000000000000000, -1.365923996832133335E-16, 0.000000000000000000 ) ) ;
#170 = COLOUR_RGB ( '',1.000000000000000000, 0.000000000000000000, 0.000000000000000000 ) ;
#171 = PLANE ( 'NONE',  #248 ) ;
#172 = SURFACE_STYLE_USAGE ( .BOTH. , #73 ) ;
#173 = EDGE_LOOP ( 'NONE', ( #91, #52, #193, #27 ) ) ;
#174 = CYLINDRICAL_SURFACE ( 'NONE', #306, 0.2499999999999998612 ) ;
#175 = VERTEX_POINT ( 'NONE', #253 ) ;
#176 = ADVANCED_FACE ( 'NONE', ( #107 ), #204, .T. ) ;
#177 = AXIS2_PLACEMENT_3D ( 'NONE', #60, #87, #14 ) ;
#178 =( GEOMETRIC_REPRESENTATION_CONTEXT ( 3 ) GLOBAL_UNCERTAINTY_ASSIGNED_CONTEXT ( ( #40 ) ) GLOBAL_UNIT_ASSIGNED_CONTEXT ( ( #218, #126, #68 ) ) REPRESENTATION_CONTEXT ( 'NONE', 'WORKASPACE' ) );
#179 = DIRECTION ( 'NONE',  ( -1.229226395354819692E-16, 1.000000000000000000, -0.000000000000000000 ) ) ;
#180 =( CONVERSION_BASED_UNIT ( 'INCH', #36 ) LENGTH_UNIT ( ) NAMED_UNIT ( #124 ) );
#181 = DIRECTION ( 'NONE',  ( -1.380931555747844426E-17, -1.000000000000000000, -0.000000000000000000 ) ) ;
#182 = DIRECTION ( 'NONE',  ( 0.000000000000000000, 0.000000000000000000, 1.000000000000000000 ) ) ;
#183 = DIRECTION ( 'NONE',  ( -1.380931555747844426E-17, -1.000000000000000000, -0.000000000000000000 ) ) ;
#184 = AXIS2_PLACEMENT_3D ( 'NONE', #251, #179, #134 ) ;
#185 = ADVANCED_FACE ( 'NONE', ( #302 ), #279, .T. ) ;
#186 = FACE_OUTER_BOUND ( 'NONE', #261, .T. ) ;
#187 = ORIENTED_EDGE ( 'NONE', *, *, #72, .T. ) ;
#188 = VERTEX_POINT ( 'NONE', #96 ) ;
#189 = AXIS2_PLACEMENT_3D ( 'NONE', #209, #149, #169 ) ;
#190 = VERTEX_POINT ( 'NONE', #147 ) ;
#191 = DIMENSIONAL_EXPONENTS ( 1.000000000000000000, 0.000000000000000000, 0.000000000000000000, 0.000000000000000000, 0.000000000000000000, 0.000000000000000000, 0.000000000000000000 ) ;
#192 = EDGE_CURVE ( 'NONE', #25, #175, #195, .T. ) ;
#193 = ORIENTED_EDGE ( 'NONE', *, *, #232, .F. ) ;
#194 = ORIENTED_EDGE ( 'NONE', *, *, #133, .F. ) ;
#195 = LINE ( 'NONE', #292, #214 ) ;
#196 = AXIS2_PLACEMENT_3D ( 'NONE', #198, #183, #205 ) ;
#197 = MECHANICAL_DESIGN_GEOMETRIC_PRESENTATION_REPRESENTATION (  '', ( #2 ), #178 ) ;
#198 = CARTESIAN_POINT ( 'NONE',  ( 7.627887846640648262E-36, 5.523726222991377856E-19, 0.000000000000000000 ) ) ;
#199 =( NAMED_UNIT ( * ) SI_UNIT ( $, .STERADIAN. ) SOLID_ANGLE_UNIT ( ) );
#200 = CIRCLE ( 'NONE', #189, 0.2499999999999996947 ) ;
#201 = PRESENTATION_LAYER_ASSIGNMENT (  '', '', ( #2 ) ) ;
#202 =( CONVERSION_BASED_UNIT ( 'INCH', #250 ) LENGTH_UNIT ( ) NAMED_UNIT ( #239 ) );
#203 = DIRECTION ( 'NONE',  ( -1.380931555747844426E-17, -1.000000000000000000, -0.000000000000000000 ) ) ;
#204 = CYLINDRICAL_SURFACE ( 'NONE', #184, 0.2499999999999998612 ) ;
#205 = DIRECTION ( 'NONE',  ( 1.000000000000000000, -1.380931555747844426E-17, 0.000000000000000000 ) ) ;
#206 = FILL_AREA_STYLE ('',( #256 ) ) ;
#207 = APPLICATION_CONTEXT ( 'automotive_design' ) ;
#208 = LINE ( 'NONE', #7, #291 ) ;
#209 = CARTESIAN_POINT ( 'NONE',  ( 2.817218243466270766E-16, 0.2099999999999991318, 0.000000000000000000 ) ) ;
#210 = ORIENTED_EDGE ( 'NONE', *, *, #121, .T. ) ;
#211 = PRESENTATION_STYLE_ASSIGNMENT (( #117 ) ) ;
#212 = DIMENSIONAL_EXPONENTS ( 1.000000000000000000, 0.000000000000000000, 0.000000000000000000, 0.000000000000000000, 0.000000000000000000, 0.000000000000000000, 0.000000000000000000 ) ;
#213 = CIRCLE ( 'NONE', #103, 0.04000000000000000083 ) ;
#214 = VECTOR ( 'NONE', #123, 39.37007874015748854 ) ;
#215 = PRESENTATION_STYLE_ASSIGNMENT (( #161 ) ) ;
#216 = DIMENSIONAL_EXPONENTS ( 1.000000000000000000, 0.000000000000000000, 0.000000000000000000, 0.000000000000000000, 0.000000000000000000, 0.000000000000000000, 0.000000000000000000 ) ;
#217 = EDGE_LOOP ( 'NONE', ( #240, #146, #210, #44 ) ) ;
#218 =( CONVERSION_BASED_UNIT ( 'INCH', #99 ) LENGTH_UNIT ( ) NAMED_UNIT ( #212 ) );
#219 =( LENGTH_UNIT ( ) NAMED_UNIT ( * ) SI_UNIT ( $, .METRE. ) );
#220 = DIRECTION ( 'NONE',  ( -1.000000000000000000, 1.380931555747844426E-17, 0.000000000000000000 ) ) ;
#221 = SURFACE_STYLE_USAGE ( .BOTH. , #274 ) ;
#222 = FACE_OUTER_BOUND ( 'NONE', #217, .T. ) ;
#223 = ADVANCED_FACE ( 'NONE', ( #10 ), #30, .F. ) ;
#224 = CIRCLE ( 'NONE', #177, 0.2499999999999999722 ) ;
#225 = PRESENTATION_LAYER_ASSIGNMENT (  '', '', ( #50 ) ) ;
#226 = SURFACE_STYLE_FILL_AREA ( #81 ) ;
#227 = DIRECTION ( 'NONE',  ( 1.000000000000000000, -1.380931555747844426E-17, 0.000000000000000000 ) ) ;
#228 =( CONVERSION_BASED_UNIT ( 'INCH', #135 ) LENGTH_UNIT ( ) NAMED_UNIT ( #216 ) );
#229 =( GEOMETRIC_REPRESENTATION_CONTEXT ( 3 ) GLOBAL_UNCERTAINTY_ASSIGNED_CONTEXT ( ( #168 ) ) GLOBAL_UNIT_ASSIGNED_CONTEXT ( ( #12, #98, #54 ) ) REPRESENTATION_CONTEXT ( 'NONE', 'WORKASPACE' ) );
#230 = PRODUCT_CONTEXT ( 'NONE', #207, 'mechanical' ) ;
#231 = CARTESIAN_POINT ( 'NONE',  ( 0.2500000000000000000, 3.000000000000000444, 0.000000000000000000 ) ) ;
#232 = EDGE_CURVE ( 'NONE', #265, #90, #263, .T. ) ;
#233 = CARTESIAN_POINT ( 'NONE',  ( -6.123233995736772199E-17, 3.000000000000000444, 0.000000000000000000 ) ) ;
#234 = SHAPE_DEFINITION_REPRESENTATION ( #276, #139 ) ;
#235 = STYLED_ITEM ( 'NONE', ( #141 ), #157 ) ;
#236 = VERTEX_POINT ( 'NONE', #288 ) ;
#237 = ADVANCED_FACE ( 'NONE', ( #151 ), #174, .T. ) ;
#238 = SURFACE_SIDE_STYLE ('',( #120 ) ) ;
#239 = DIMENSIONAL_EXPONENTS ( 1.000000000000000000, 0.000000000000000000, 0.000000000000000000, 0.000000000000000000, 0.000000000000000000, 0.000000000000000000, 0.000000000000000000 ) ;
#240 = ORIENTED_EDGE ( 'NONE', *, *, #72, .F. ) ;
#241 = CIRCLE ( 'NONE', #196, 0.04000000000000000083 ) ;
#242 = AXIS2_PLACEMENT_3D ( 'NONE', #42, #182, #142 ) ;
#243 = EDGE_LOOP ( 'NONE', ( #77, #21 ) ) ;
#244 = PRODUCT_DEFINITION_CONTEXT ( 'detailed design', #155, 'design' ) ;
#245 = EDGE_CURVE ( 'NONE', #236, #265, #208, .T. ) ;
#246 = FILL_AREA_STYLE_COLOUR ( '', #70 ) ;
#247 = DIRECTION ( 'NONE',  ( -1.229226395354819692E-16, 1.000000000000000000, -0.000000000000000000 ) ) ;
#248 = AXIS2_PLACEMENT_3D ( 'NONE', #249, #125, #296 ) ;
#249 = CARTESIAN_POINT ( 'NONE',  ( 2.899956267070462108E-18, 0.2099999999999991873, 0.000000000000000000 ) ) ;
#250 = LENGTH_MEASURE_WITH_UNIT ( LENGTH_MEASURE( 0.02539999999999999897 ), #82 );
#251 = CARTESIAN_POINT ( 'NONE',  ( -6.123233995736772199E-17, 3.000000000000000444, 0.000000000000000000 ) ) ;
#252 = FACE_OUTER_BOUND ( 'NONE', #3, .T. ) ;
#253 = CARTESIAN_POINT ( 'NONE',  ( -0.2499999999999999167, 0.2099999999999991873, 0.000000000000000000 ) ) ;
#254 = DIRECTION ( 'NONE',  ( 1.000000000000000000, 1.229226395354819692E-16, 0.000000000000000000 ) ) ;
#255 = AXIS2_PLACEMENT_3D ( 'NONE', #89, #75, #53 ) ;
#256 = FILL_AREA_STYLE_COLOUR ( '', #131 ) ;
#257 = ORIENTED_EDGE ( 'NONE', *, *, #245, .T. ) ;
#258 = FILL_AREA_STYLE_COLOUR ( '', #148 ) ;
#259 = LINE ( 'NONE', #46, #118 ) ;
#260 = EDGE_CURVE ( 'NONE', #236, #190, #144, .T. ) ;
#261 = EDGE_LOOP ( 'NONE', ( #145, #92 ) ) ;
#262 = CIRCLE ( 'NONE', #282, 0.2499999999999999722 ) ;
#263 = CIRCLE ( 'NONE', #255, 0.2500000000000000555 ) ;
#264 = CARTESIAN_POINT ( 'NONE',  ( 2.817218243466271259E-16, 0.2099999999999991873, 0.000000000000000000 ) ) ;
#265 = VERTEX_POINT ( 'NONE', #67 ) ;
#266 = UNCERTAINTY_MEASURE_WITH_UNIT (LENGTH_MEASURE( 1.000000000000000082E-05 ), #180, 'distance_accuracy_value', 'NONE');
#267 = MANIFOLD_SOLID_BREP ( 'Revolve - Tool Body (Tipped Off)', #37 ) ;
#268 =( LENGTH_UNIT ( ) NAMED_UNIT ( * ) SI_UNIT ( $, .METRE. ) );
#269 = DIRECTION ( 'NONE',  ( -1.229226395354819692E-16, 1.000000000000000000, -0.000000000000000000 ) ) ;
#270 = SURFACE_STYLE_FILL_AREA ( #293 ) ;
#271 = PRESENTATION_LAYER_ASSIGNMENT (  '', '', ( #13 ) ) ;
#272 = MECHANICAL_DESIGN_GEOMETRIC_PRESENTATION_REPRESENTATION (  '', ( #50 ), #104 ) ;
#273 =( CONVERSION_BASED_UNIT ( 'INCH', #100 ) LENGTH_UNIT ( ) NAMED_UNIT ( #78 ) );
#274 = SURFACE_SIDE_STYLE ('',( #226 ) ) ;
#275 = DIRECTION ( 'NONE',  ( 1.380931555747844426E-17, 1.000000000000000000, 0.000000000000000000 ) ) ;
#276 = PRODUCT_DEFINITION_SHAPE ( 'NONE', 'NONE',  #140 ) ;
#277 = PRESENTATION_LAYER_ASSIGNMENT (  '', '', ( #235 ) ) ;
#278 = LINE ( 'NONE', #303, #48 ) ;
#279 = PLANE ( 'NONE',  #88 ) ;
#280 =( NAMED_UNIT ( * ) SI_UNIT ( $, .STERADIAN. ) SOLID_ANGLE_UNIT ( ) );
#281 = CARTESIAN_POINT ( 'NONE',  ( 0.2500000000000000000, 3.000000000000000444, 3.061616997868383018E-17 ) ) ;
#282 = AXIS2_PLACEMENT_3D ( 'NONE', #160, #181, #16 ) ;
#283 = PRODUCT_DEFINITION_FORMATION_WITH_SPECIFIED_SOURCE ( 'ANY', '', #301, .NOT_KNOWN. ) ;
#284 =( NAMED_UNIT ( * ) SI_UNIT ( $, .STERADIAN. ) SOLID_ANGLE_UNIT ( ) );
#285 = VERTEX_POINT ( 'NONE', #65 ) ;
#286 = DIRECTION ( 'NONE',  ( 0.7071067811865486830, 0.7071067811865462405, 8.659560562354947649E-17 ) ) ;
#287 = EDGE_LOOP ( 'NONE', ( #74, #187 ) ) ;
#288 = CARTESIAN_POINT ( 'NONE',  ( -0.2499999999999994171, 0.2099999999999991041, 0.000000000000000000 ) ) ;
#289 = ORIENTED_EDGE ( 'NONE', *, *, #76, .F. ) ;
#290 = CONICAL_SURFACE ( 'NONE', #19, 0.04000000000000000083, 0.7853981633974500554 ) ;
#291 = VECTOR ( 'NONE', #247, 39.37007874015748143 ) ;
#292 = CARTESIAN_POINT ( 'NONE',  ( -0.04000000000000000083, 1.104745244598275571E-18, 0.000000000000000000 ) ) ;
#293 = FILL_AREA_STYLE ('',( #246 ) ) ;
#294 = DIRECTION ( 'NONE',  ( -1.000000000000000000, -1.365923996832133335E-16, 0.000000000000000000 ) ) ;
#295 = STYLED_ITEM ( 'NONE', ( #211 ), #28 ) ;
#296 = DIRECTION ( 'NONE',  ( -1.000000000000000000, 1.380931555747844271E-17, 0.000000000000000000 ) ) ;
#297 = SURFACE_STYLE_FILL_AREA ( #206 ) ;
#298 = MECHANICAL_DESIGN_GEOMETRIC_PRESENTATION_REPRESENTATION (  '', ( #295 ), #229 ) ;
#299 =( LENGTH_UNIT ( ) NAMED_UNIT ( * ) SI_UNIT ( $, .METRE. ) );
#300 = APPLICATION_PROTOCOL_DEFINITION ( 'draft international standard', 'automotive_design', 1998, #207 ) ;
#301 = PRODUCT ( '07029', '07029', '', ( #230 ) ) ;
#302 = FACE_OUTER_BOUND ( 'NONE', #287, .T. ) ;
#303 = CARTESIAN_POINT ( 'NONE',  ( 0.2499999999999998057, 3.000000000000000444, 3.061616997868381785E-17 ) ) ;
#304 = SURFACE_STYLE_USAGE ( .BOTH. , #57 ) ;
#305 = MECHANICAL_DESIGN_GEOMETRIC_PRESENTATION_REPRESENTATION (  '', ( #235 ), #83 ) ;
#306 = AXIS2_PLACEMENT_3D ( 'NONE', #113, #51, #79 ) ;
#307 = DIRECTION ( 'NONE',  ( -1.000000000000000000, -1.229226395354819692E-16, 0.000000000000000000 ) ) ;
#308 = ORIENTED_EDGE ( 'NONE', *, *, #115, .F. ) ;
#309 = CARTESIAN_POINT ( 'NONE',  ( -0.04000000000000000083, 1.104745244598275571E-18, 0.000000000000000000 ) ) ;
ENDSEC;
END-ISO-10303-21;
