ISO-10303-21;
HEADER;
FILE_DESCRIPTION (( 'STEP AP214' ),
    '1' );
FILE_NAME ('24272.STEP',
    '2023-06-22T17:06:46',
    ( '' ),
    ( '' ),
    'SwSTEP 2.0',
    'SolidWorks 2023',
    '' );
FILE_SCHEMA (( 'AUTOMOTIVE_DESIGN' ));
ENDSEC;

DATA;
#1 = CARTESIAN_POINT ( 'NONE',  ( 0.2187499999999999445, 3.500000000000000000, 2.678914873134835372E-17 ) ) ;
#2 = SURFACE_STYLE_FILL_AREA ( #166 ) ;
#3 = FILL_AREA_STYLE ('',( #248 ) ) ;
#4 = EDGE_CURVE ( 'NONE', #286, #14, #308, .T. ) ;
#5 = MECHANICAL_DESIGN_GEOMETRIC_PRESENTATION_REPRESENTATION (  '', ( #42 ), #149 ) ;
#6 = UNCERTAINTY_MEASURE_WITH_UNIT (LENGTH_MEASURE( 1.000000000000000082E-05 ), #122, 'distance_accuracy_value', 'NONE');
#7 = CYLINDRICAL_SURFACE ( 'NONE', #60, 0.2187499999999999445 ) ;
#8 = VECTOR ( 'NONE', #141, 39.37007874015748143 ) ;
#9 = EDGE_CURVE ( 'NONE', #78, #226, #262, .T. ) ;
#10 = DIRECTION ( 'NONE',  ( 0.000000000000000000, 0.000000000000000000, -1.000000000000000000 ) ) ;
#11 = EDGE_CURVE ( 'NONE', #226, #14, #211, .T. ) ;
#12 = PRODUCT_DEFINITION_CONTEXT ( 'detailed design', #239, 'design' ) ;
#13 = MECHANICAL_DESIGN_GEOMETRIC_PRESENTATION_REPRESENTATION (  '', ( #172 ), #194 ) ;
#14 = VERTEX_POINT ( 'NONE', #236 ) ;
#15 = DIRECTION ( 'NONE',  ( -4.592425496802576684E-17, 1.000000000000000000, -0.000000000000000000 ) ) ;
#16 = ORIENTED_EDGE ( 'NONE', *, *, #302, .F. ) ;
#17 = VECTOR ( 'NONE', #62, 39.37007874015748143 ) ;
#18 = CARTESIAN_POINT ( 'NONE',  ( 2.678914873134834756E-17, 0.000000000000000000, 0.2187499999999999445 ) ) ;
#19 = DIMENSIONAL_EXPONENTS ( 1.000000000000000000, 0.000000000000000000, 0.000000000000000000, 0.000000000000000000, 0.000000000000000000, 0.000000000000000000, 0.000000000000000000 ) ;
#20 = CARTESIAN_POINT ( 'NONE',  ( 0.000000000000000000, 0.000000000000000000, 0.000000000000000000 ) ) ;
#21 = DIRECTION ( 'NONE',  ( -4.592425496802576684E-17, 1.000000000000000000, -0.000000000000000000 ) ) ;
#22 = DIMENSIONAL_EXPONENTS ( 1.000000000000000000, 0.000000000000000000, 0.000000000000000000, 0.000000000000000000, 0.000000000000000000, 0.000000000000000000, 0.000000000000000000 ) ;
#23 = SURFACE_SIDE_STYLE ('',( #115 ) ) ;
#24 = UNCERTAINTY_MEASURE_WITH_UNIT (LENGTH_MEASURE( 1.000000000000000082E-05 ), #217, 'distance_accuracy_value', 'NONE');
#25 = CLOSED_SHELL ( 'NONE', ( #45, #54, #59, #56 ) ) ;
#26 = DIMENSIONAL_EXPONENTS ( 1.000000000000000000, 0.000000000000000000, 0.000000000000000000, 0.000000000000000000, 0.000000000000000000, 0.000000000000000000, 0.000000000000000000 ) ;
#27 = ORIENTED_EDGE ( 'NONE', *, *, #260, .F. ) ;
#28 =( LENGTH_UNIT ( ) NAMED_UNIT ( * ) SI_UNIT ( $, .METRE. ) );
#29 = AXIS2_PLACEMENT_3D ( 'NONE', #185, #136, #213 ) ;
#30 = SURFACE_STYLE_FILL_AREA ( #3 ) ;
#31 = DIRECTION ( 'NONE',  ( -0.000000000000000000, -1.000000000000000000, -0.000000000000000000 ) ) ;
#32 = COLOUR_RGB ( '',1.000000000000000000, 0.000000000000000000, 0.000000000000000000 ) ;
#33 = LENGTH_MEASURE_WITH_UNIT ( LENGTH_MEASURE( 0.02539999999999999897 ), #171 );
#34 = EDGE_LOOP ( 'NONE', ( #264, #38, #299, #154 ) ) ;
#35 = SURFACE_STYLE_FILL_AREA ( #252 ) ;
#36 = ORIENTED_EDGE ( 'NONE', *, *, #142, .F. ) ;
#37 = PRESENTATION_LAYER_ASSIGNMENT (  '', '', ( #42 ) ) ;
#38 = ORIENTED_EDGE ( 'NONE', *, *, #126, .T. ) ;
#39 = PLANE ( 'NONE',  #268 ) ;
#40 = EDGE_CURVE ( 'NONE', #117, #158, #275, .T. ) ;
#41 = ORIENTED_EDGE ( 'NONE', *, *, #11, .F. ) ;
#42 = STYLED_ITEM ( 'NONE', ( #221 ), #56 ) ;
#43 = COLOUR_RGB ( '',0.7921568627450980005, 0.8196078431372548767, 0.9333333333333333481 ) ;
#44 = DIRECTION ( 'NONE',  ( -4.592425496802576684E-17, 1.000000000000000000, -0.000000000000000000 ) ) ;
#45 = ADVANCED_FACE ( 'NONE', ( #240 ), #207, .T. ) ;
#46 = ORIENTED_EDGE ( 'NONE', *, *, #302, .T. ) ;
#47 = FACE_OUTER_BOUND ( 'NONE', #202, .T. ) ;
#48 = CARTESIAN_POINT ( 'NONE',  ( 0.000000000000000000, 0.000000000000000000, 0.000000000000000000 ) ) ;
#49 = DIRECTION ( 'NONE',  ( 0.000000000000000000, 0.000000000000000000, -1.000000000000000000 ) ) ;
#50 = AXIS2_PLACEMENT_3D ( 'NONE', #68, #21, #133 ) ;
#51 = SURFACE_SIDE_STYLE ('',( #167 ) ) ;
#52 = MECHANICAL_DESIGN_GEOMETRIC_PRESENTATION_REPRESENTATION (  '', ( #251 ), #288 ) ;
#53 = FACE_OUTER_BOUND ( 'NONE', #242, .T. ) ;
#54 = ADVANCED_FACE ( 'NONE', ( #162 ), #192, .T. ) ;
#55 = CLOSED_SHELL ( 'NONE', ( #257, #196, #168, #263 ) ) ;
#56 = ADVANCED_FACE ( 'NONE', ( #53 ), #290, .T. ) ;
#57 = AXIS2_PLACEMENT_3D ( 'NONE', #161, #112, #278 ) ;
#58 =( CONVERSION_BASED_UNIT ( 'INCH', #33 ) LENGTH_UNIT ( ) NAMED_UNIT ( #297 ) );
#59 = ADVANCED_FACE ( 'NONE', ( #190 ), #7, .T. ) ;
#60 = AXIS2_PLACEMENT_3D ( 'NONE', #197, #155, #76 ) ;
#61 =( NAMED_UNIT ( * ) PLANE_ANGLE_UNIT ( ) SI_UNIT ( $, .RADIAN. ) );
#62 = DIRECTION ( 'NONE',  ( -0.000000000000000000, -1.000000000000000000, -0.000000000000000000 ) ) ;
#63 = CARTESIAN_POINT ( 'NONE',  ( -0.2187500000000001665, 3.500000000000000000, 0.000000000000000000 ) ) ;
#64 =( NAMED_UNIT ( * ) PLANE_ANGLE_UNIT ( ) SI_UNIT ( $, .RADIAN. ) );
#65 = CIRCLE ( 'NONE', #276, 0.2187499999999999445 ) ;
#66 = CARTESIAN_POINT ( 'NONE',  ( 0.2187499999999999445, 3.500000000000000000, 0.000000000000000000 ) ) ;
#67 = PRESENTATION_STYLE_ASSIGNMENT (( #184 ) ) ;
#68 = CARTESIAN_POINT ( 'NONE',  ( 0.000000000000000000, 1.500000000000000222, 0.000000000000000000 ) ) ;
#69 = ORIENTED_EDGE ( 'NONE', *, *, #231, .T. ) ;
#70 = SURFACE_STYLE_USAGE ( .BOTH. , #124 ) ;
#71 = PRESENTATION_LAYER_ASSIGNMENT (  '', '', ( #172 ) ) ;
#72 = PRODUCT_CONTEXT ( 'NONE', #245, 'mechanical' ) ;
#73 = DIRECTION ( 'NONE',  ( 0.000000000000000000, 0.000000000000000000, -1.000000000000000000 ) ) ;
#74 = FILL_AREA_STYLE ('',( #101 ) ) ;
#75 = PRODUCT_DEFINITION ( 'UNKNOWN', '', #282, #12 ) ;
#76 = DIRECTION ( 'NONE',  ( 0.000000000000000000, 0.000000000000000000, -1.000000000000000000 ) ) ;
#77 =( CONVERSION_BASED_UNIT ( 'INCH', #201 ) LENGTH_UNIT ( ) NAMED_UNIT ( #267 ) );
#78 = VERTEX_POINT ( 'NONE', #174 ) ;
#79 = CIRCLE ( 'NONE', #50, 0.2187499999999999445 ) ;
#80 = SURFACE_SIDE_STYLE ('',( #195 ) ) ;
#81 =( CONVERSION_BASED_UNIT ( 'INCH', #200 ) LENGTH_UNIT ( ) NAMED_UNIT ( #255 ) );
#82 = MANIFOLD_SOLID_BREP ( 'Revolve - Cutting Edge', #25 ) ;
#83 = AXIS2_PLACEMENT_3D ( 'NONE', #90, #208, #116 ) ;
#84 =( CONVERSION_BASED_UNIT ( 'INCH', #203 ) LENGTH_UNIT ( ) NAMED_UNIT ( #22 ) );
#85 = ORIENTED_EDGE ( 'NONE', *, *, #260, .T. ) ;
#86 = EDGE_CURVE ( 'NONE', #14, #226, #152, .T. ) ;
#87 = DIMENSIONAL_EXPONENTS ( 1.000000000000000000, 0.000000000000000000, 0.000000000000000000, 0.000000000000000000, 0.000000000000000000, 0.000000000000000000, 0.000000000000000000 ) ;
#88 =( NAMED_UNIT ( * ) SI_UNIT ( $, .STERADIAN. ) SOLID_ANGLE_UNIT ( ) );
#89 = CARTESIAN_POINT ( 'NONE',  ( 0.000000000000000000, 1.500000000000000222, 0.000000000000000000 ) ) ;
#90 = CARTESIAN_POINT ( 'NONE',  ( -9.184850993605152135E-17, 3.500000000000000000, 0.000000000000000000 ) ) ;
#91 = DIRECTION ( 'NONE',  ( -0.000000000000000000, -1.000000000000000000, -0.000000000000000000 ) ) ;
#92 = DIRECTION ( 'NONE',  ( 0.000000000000000000, 0.000000000000000000, -1.000000000000000000 ) ) ;
#93 = CARTESIAN_POINT ( 'NONE',  ( 0.000000000000000000, 0.000000000000000000, -0.2187499999999999445 ) ) ;
#94 = CIRCLE ( 'NONE', #223, 0.2187500000000000555 ) ;
#95 = LINE ( 'NONE', #179, #177 ) ;
#96 =( NAMED_UNIT ( * ) SI_UNIT ( $, .STERADIAN. ) SOLID_ANGLE_UNIT ( ) );
#97 = MANIFOLD_SOLID_BREP ( 'Revolve - Tool Body (Straight Shanked)', #55 ) ;
#98 = DIRECTION ( 'NONE',  ( 0.000000000000000000, -1.000000000000000000, -0.000000000000000000 ) ) ;
#99 = PRESENTATION_LAYER_ASSIGNMENT (  '', '', ( #205 ) ) ;
#100 = SHAPE_DEFINITION_REPRESENTATION ( #175, #270 ) ;
#101 = FILL_AREA_STYLE_COLOUR ( '', #160 ) ;
#102 = LENGTH_MEASURE_WITH_UNIT ( LENGTH_MEASURE( 0.02539999999999999897 ), #28 );
#103 =( NAMED_UNIT ( * ) PLANE_ANGLE_UNIT ( ) SI_UNIT ( $, .RADIAN. ) );
#104 = CARTESIAN_POINT ( 'NONE',  ( 0.000000000000000000, 0.000000000000000000, 0.000000000000000000 ) ) ;
#105 =( LENGTH_UNIT ( ) NAMED_UNIT ( * ) SI_UNIT ( $, .METRE. ) );
#106 = AXIS2_PLACEMENT_3D ( 'NONE', #119, #216, #243 ) ;
#107 = SURFACE_SIDE_STYLE ('',( #35 ) ) ;
#108 = VERTEX_POINT ( 'NONE', #63 ) ;
#109 = ORIENTED_EDGE ( 'NONE', *, *, #231, .F. ) ;
#110 = DIRECTION ( 'NONE',  ( -4.592425496802576068E-17, 1.000000000000000000, -0.000000000000000000 ) ) ;
#111 = AXIS2_PLACEMENT_3D ( 'NONE', #145, #98, #73 ) ;
#112 = DIRECTION ( 'NONE',  ( -4.592425496802576068E-17, 1.000000000000000000, 0.000000000000000000 ) ) ;
#113 = ORIENTED_EDGE ( 'NONE', *, *, #9, .F. ) ;
#114 = CARTESIAN_POINT ( 'NONE',  ( 0.000000000000000000, 0.000000000000000000, -0.2187500000000000000 ) ) ;
#115 = SURFACE_STYLE_FILL_AREA ( #238 ) ;
#116 = DIRECTION ( 'NONE',  ( -1.000000000000000000, 0.000000000000000000, 0.000000000000000000 ) ) ;
#117 = VERTEX_POINT ( 'NONE', #180 ) ;
#118 = LENGTH_MEASURE_WITH_UNIT ( LENGTH_MEASURE( 0.02539999999999999897 ), #305 );
#119 = CARTESIAN_POINT ( 'NONE',  ( 0.000000000000000000, 0.000000000000000000, 0.000000000000000000 ) ) ;
#120 = LENGTH_MEASURE_WITH_UNIT ( LENGTH_MEASURE( 0.02539999999999999897 ), #269 );
#121 = APPLICATION_PROTOCOL_DEFINITION ( 'draft international standard', 'automotive_design', 1998, #245 ) ;
#122 =( CONVERSION_BASED_UNIT ( 'INCH', #102 ) LENGTH_UNIT ( ) NAMED_UNIT ( #19 ) );
#123 = PRESENTATION_STYLE_ASSIGNMENT (( #291 ) ) ;
#124 = SURFACE_SIDE_STYLE ('',( #30 ) ) ;
#125 = FILL_AREA_STYLE_COLOUR ( '', #193 ) ;
#126 = EDGE_CURVE ( 'NONE', #286, #78, #65, .T. ) ;
#127 = SURFACE_STYLE_USAGE ( .BOTH. , #107 ) ;
#128 = EDGE_LOOP ( 'NONE', ( #232, #164, #41, #113 ) ) ;
#129 = MECHANICAL_DESIGN_GEOMETRIC_PRESENTATION_REPRESENTATION (  '', ( #205 ), #165 ) ;
#130 =( GEOMETRIC_REPRESENTATION_CONTEXT ( 3 ) GLOBAL_UNCERTAINTY_ASSIGNED_CONTEXT ( ( #199 ) ) GLOBAL_UNIT_ASSIGNED_CONTEXT ( ( #84, #61, #88 ) ) REPRESENTATION_CONTEXT ( 'NONE', 'WORKASPACE' ) );
#131 =( LENGTH_UNIT ( ) NAMED_UNIT ( * ) SI_UNIT ( $, .METRE. ) );
#132 = CARTESIAN_POINT ( 'NONE',  ( 0.2187499999999999445, 1.500000000000000222, 2.678914873134835372E-17 ) ) ;
#133 = DIRECTION ( 'NONE',  ( -1.000000000000000000, 0.000000000000000000, 0.000000000000000000 ) ) ;
#134 = ORIENTED_EDGE ( 'NONE', *, *, #220, .T. ) ;
#135 = AXIS2_PLACEMENT_3D ( 'NONE', #104, #31, #10 ) ;
#136 = DIRECTION ( 'NONE',  ( -0.000000000000000000, -1.000000000000000000, -0.000000000000000000 ) ) ;
#137 = CARTESIAN_POINT ( 'NONE',  ( 2.678914873134834756E-17, 1.500000000000000222, 0.2187499999999999445 ) ) ;
#138 = ORIENTED_EDGE ( 'NONE', *, *, #188, .T. ) ;
#139 =( LENGTH_UNIT ( ) NAMED_UNIT ( * ) SI_UNIT ( $, .METRE. ) );
#140 = UNCERTAINTY_MEASURE_WITH_UNIT (LENGTH_MEASURE( 1.000000000000000082E-05 ), #215, 'distance_accuracy_value', 'NONE');
#141 = DIRECTION ( 'NONE',  ( -0.000000000000000000, -1.000000000000000000, -0.000000000000000000 ) ) ;
#142 = EDGE_CURVE ( 'NONE', #78, #286, #241, .T. ) ;
#143 = PRESENTATION_LAYER_ASSIGNMENT (  '', '', ( #182 ) ) ;
#144 = VERTEX_POINT ( 'NONE', #1 ) ;
#145 = CARTESIAN_POINT ( 'NONE',  ( 0.000000000000000000, 0.000000000000000000, 0.000000000000000000 ) ) ;
#146 = PRODUCT_RELATED_PRODUCT_CATEGORY ( 'part', '', ( #295 ) ) ;
#147 = SURFACE_STYLE_USAGE ( .BOTH. , #51 ) ;
#148 = MECHANICAL_DESIGN_GEOMETRIC_PRESENTATION_REPRESENTATION (  '', ( #182 ), #309 ) ;
#149 =( GEOMETRIC_REPRESENTATION_CONTEXT ( 3 ) GLOBAL_UNCERTAINTY_ASSIGNED_CONTEXT ( ( #6 ) ) GLOBAL_UNIT_ASSIGNED_CONTEXT ( ( #122, #219, #249 ) ) REPRESENTATION_CONTEXT ( 'NONE', 'WORKASPACE' ) );
#150 = DIRECTION ( 'NONE',  ( 0.000000000000000000, -0.000000000000000000, 1.000000000000000000 ) ) ;
#151 = PRESENTATION_STYLE_ASSIGNMENT (( #222 ) ) ;
#152 = CIRCLE ( 'NONE', #135, 0.2187500000000000000 ) ;
#153 = FILL_AREA_STYLE_COLOUR ( '', #43 ) ;
#154 = ORIENTED_EDGE ( 'NONE', *, *, #86, .F. ) ;
#155 = DIRECTION ( 'NONE',  ( -0.000000000000000000, -1.000000000000000000, -0.000000000000000000 ) ) ;
#156 = ORIENTED_EDGE ( 'NONE', *, *, #220, .F. ) ;
#157 = LINE ( 'NONE', #283, #271 ) ;
#158 = VERTEX_POINT ( 'NONE', #132 ) ;
#159 = CARTESIAN_POINT ( 'NONE',  ( -9.184850993605152135E-17, 3.500000000000000000, 0.000000000000000000 ) ) ;
#160 = COLOUR_RGB ( '',1.000000000000000000, 0.000000000000000000, 0.000000000000000000 ) ;
#161 = CARTESIAN_POINT ( 'NONE',  ( 2.306759431340261268E-34, 1.500000000000000222, 0.000000000000000000 ) ) ;
#162 = FACE_OUTER_BOUND ( 'NONE', #186, .T. ) ;
#163 = DIRECTION ( 'NONE',  ( -1.000000000000000000, 0.000000000000000000, 0.000000000000000000 ) ) ;
#164 = ORIENTED_EDGE ( 'NONE', *, *, #4, .T. ) ;
#165 =( GEOMETRIC_REPRESENTATION_CONTEXT ( 3 ) GLOBAL_UNCERTAINTY_ASSIGNED_CONTEXT ( ( #24 ) ) GLOBAL_UNIT_ASSIGNED_CONTEXT ( ( #217, #103, #272 ) ) REPRESENTATION_CONTEXT ( 'NONE', 'WORKASPACE' ) );
#166 = FILL_AREA_STYLE ('',( #289 ) ) ;
#167 = SURFACE_STYLE_FILL_AREA ( #74 ) ;
#168 = ADVANCED_FACE ( 'NONE', ( #183 ), #307, .T. ) ;
#169 = CARTESIAN_POINT ( 'NONE',  ( 0.000000000000000000, 1.500000000000000222, 0.000000000000000000 ) ) ;
#170 = AXIS2_PLACEMENT_3D ( 'NONE', #169, #287, #150 ) ;
#171 =( LENGTH_UNIT ( ) NAMED_UNIT ( * ) SI_UNIT ( $, .METRE. ) );
#172 = STYLED_ITEM ( 'NONE', ( #247 ), #59 ) ;
#173 = UNCERTAINTY_MEASURE_WITH_UNIT (LENGTH_MEASURE( 1.000000000000000082E-05 ), #81, 'distance_accuracy_value', 'NONE');
#174 = CARTESIAN_POINT ( 'NONE',  ( 0.000000000000000000, 1.500000000000000222, -0.2187499999999999445 ) ) ;
#175 = PRODUCT_DEFINITION_SHAPE ( 'NONE', 'NONE',  #75 ) ;
#176 =( NAMED_UNIT ( * ) SI_UNIT ( $, .STERADIAN. ) SOLID_ANGLE_UNIT ( ) );
#177 = VECTOR ( 'NONE', #279, 39.37007874015748143 ) ;
#178 = ORIENTED_EDGE ( 'NONE', *, *, #188, .F. ) ;
#179 = CARTESIAN_POINT ( 'NONE',  ( -0.2187500000000001388, 3.500000000000000000, 0.000000000000000000 ) ) ;
#180 = CARTESIAN_POINT ( 'NONE',  ( -0.2187499999999999445, 1.500000000000000222, 0.000000000000000000 ) ) ;
#181 = DIRECTION ( 'NONE',  ( 0.000000000000000000, 0.000000000000000000, -1.000000000000000000 ) ) ;
#182 = STYLED_ITEM ( 'NONE', ( #67 ), #45 ) ;
#183 = FACE_OUTER_BOUND ( 'NONE', #253, .T. ) ;
#184 = SURFACE_STYLE_USAGE ( .BOTH. , #23 ) ;
#185 = CARTESIAN_POINT ( 'NONE',  ( 0.000000000000000000, 1.500000000000000222, 0.000000000000000000 ) ) ;
#186 = EDGE_LOOP ( 'NONE', ( #36, #306 ) ) ;
#187 = APPLICATION_PROTOCOL_DEFINITION ( 'draft international standard', 'automotive_design', 1998, #239 ) ;
#188 = EDGE_CURVE ( 'NONE', #117, #108, #95, .T. ) ;
#189 = AXIS2_PLACEMENT_3D ( 'NONE', #159, #237, #209 ) ;
#190 = FACE_OUTER_BOUND ( 'NONE', #34, .T. ) ;
#191 = AXIS2_PLACEMENT_3D ( 'NONE', #48, #266, #49 ) ;
#192 = PLANE ( 'NONE',  #170 ) ;
#193 = COLOUR_RGB ( '',0.7921568627450980005, 0.8196078431372548767, 0.9333333333333333481 ) ;
#194 =( GEOMETRIC_REPRESENTATION_CONTEXT ( 3 ) GLOBAL_UNCERTAINTY_ASSIGNED_CONTEXT ( ( #254 ) ) GLOBAL_UNIT_ASSIGNED_CONTEXT ( ( #77, #273, #228 ) ) REPRESENTATION_CONTEXT ( 'NONE', 'WORKASPACE' ) );
#195 = SURFACE_STYLE_FILL_AREA ( #225 ) ;
#196 = ADVANCED_FACE ( 'NONE', ( #47 ), #285, .F. ) ;
#197 = CARTESIAN_POINT ( 'NONE',  ( 0.000000000000000000, 0.000000000000000000, 0.000000000000000000 ) ) ;
#198 = PRESENTATION_LAYER_ASSIGNMENT (  '', '', ( #227 ) ) ;
#199 = UNCERTAINTY_MEASURE_WITH_UNIT (LENGTH_MEASURE( 1.000000000000000082E-05 ), #84, 'distance_accuracy_value', 'NONE');
#200 = LENGTH_MEASURE_WITH_UNIT ( LENGTH_MEASURE( 0.02539999999999999897 ), #131 );
#201 = LENGTH_MEASURE_WITH_UNIT ( LENGTH_MEASURE( 0.02539999999999999897 ), #105 );
#202 = EDGE_LOOP ( 'NONE', ( #256, #156 ) ) ;
#203 = LENGTH_MEASURE_WITH_UNIT ( LENGTH_MEASURE( 0.02539999999999999897 ), #139 );
#204 = DIRECTION ( 'NONE',  ( -1.000000000000000000, 0.000000000000000000, 0.000000000000000000 ) ) ;
#205 = STYLED_ITEM ( 'NONE', ( #123 ), #54 ) ;
#206 = FACE_OUTER_BOUND ( 'NONE', #259, .T. ) ;
#207 = CYLINDRICAL_SURFACE ( 'NONE', #301, 0.2187499999999999445 ) ;
#208 = DIRECTION ( 'NONE',  ( -4.592425496802576684E-17, 1.000000000000000000, -0.000000000000000000 ) ) ;
#209 = DIRECTION ( 'NONE',  ( -1.000000000000000000, 0.000000000000000000, 0.000000000000000000 ) ) ;
#210 = ORIENTED_EDGE ( 'NONE', *, *, #40, .T. ) ;
#211 = CIRCLE ( 'NONE', #191, 0.2187500000000000000 ) ;
#212 =( GEOMETRIC_REPRESENTATION_CONTEXT ( 3 ) GLOBAL_UNCERTAINTY_ASSIGNED_CONTEXT ( ( #214 ) ) GLOBAL_UNIT_ASSIGNED_CONTEXT ( ( #58, #224, #292 ) ) REPRESENTATION_CONTEXT ( 'NONE', 'WORKASPACE' ) );
#213 = DIRECTION ( 'NONE',  ( 0.000000000000000000, 0.000000000000000000, -1.000000000000000000 ) ) ;
#214 = UNCERTAINTY_MEASURE_WITH_UNIT (LENGTH_MEASURE( 1.000000000000000082E-05 ), #58, 'distance_accuracy_value', 'NONE');
#215 =( CONVERSION_BASED_UNIT ( 'INCH', #118 ) LENGTH_UNIT ( ) NAMED_UNIT ( #87 ) );
#216 = DIRECTION ( 'NONE',  ( 0.000000000000000000, 0.000000000000000000, 1.000000000000000000 ) ) ;
#217 =( CONVERSION_BASED_UNIT ( 'INCH', #120 ) LENGTH_UNIT ( ) NAMED_UNIT ( #26 ) );
#218 = MECHANICAL_DESIGN_GEOMETRIC_PRESENTATION_REPRESENTATION (  '', ( #227 ), #212 ) ;
#219 =( NAMED_UNIT ( * ) PLANE_ANGLE_UNIT ( ) SI_UNIT ( $, .RADIAN. ) );
#220 = EDGE_CURVE ( 'NONE', #158, #117, #79, .T. ) ;
#221 = PRESENTATION_STYLE_ASSIGNMENT (( #70 ) ) ;
#222 = SURFACE_STYLE_USAGE ( .BOTH. , #80 ) ;
#223 = AXIS2_PLACEMENT_3D ( 'NONE', #265, #44, #163 ) ;
#224 =( NAMED_UNIT ( * ) PLANE_ANGLE_UNIT ( ) SI_UNIT ( $, .RADIAN. ) );
#225 = FILL_AREA_STYLE ('',( #125 ) ) ;
#226 = VERTEX_POINT ( 'NONE', #114 ) ;
#227 = STYLED_ITEM ( 'NONE', ( #151 ), #97 ) ;
#228 =( NAMED_UNIT ( * ) SI_UNIT ( $, .STERADIAN. ) SOLID_ANGLE_UNIT ( ) );
#229 = CARTESIAN_POINT ( 'NONE',  ( -9.184850993605152135E-17, 3.500000000000000000, 0.000000000000000000 ) ) ;
#230 = DIRECTION ( 'NONE',  ( 4.592425496802576068E-17, -1.000000000000000000, 0.000000000000000000 ) ) ;
#231 = EDGE_CURVE ( 'NONE', #144, #108, #94, .T. ) ;
#232 = ORIENTED_EDGE ( 'NONE', *, *, #142, .T. ) ;
#233 = AXIS2_PLACEMENT_3D ( 'NONE', #89, #280, #204 ) ;
#234 = PRESENTATION_LAYER_ASSIGNMENT (  '', '', ( #251 ) ) ;
#235 = DIRECTION ( 'NONE',  ( 1.000000000000000000, 4.592425496802576068E-17, 0.000000000000000000 ) ) ;
#236 = CARTESIAN_POINT ( 'NONE',  ( 2.678914873134835372E-17, 0.000000000000000000, 0.2187500000000000000 ) ) ;
#237 = DIRECTION ( 'NONE',  ( -4.592425496802576684E-17, 1.000000000000000000, -0.000000000000000000 ) ) ;
#238 = FILL_AREA_STYLE ('',( #303 ) ) ;
#239 = APPLICATION_CONTEXT ( 'automotive_design' ) ;
#240 = FACE_OUTER_BOUND ( 'NONE', #128, .T. ) ;
#241 = CIRCLE ( 'NONE', #29, 0.2187499999999999445 ) ;
#242 = EDGE_LOOP ( 'NONE', ( #274, #284 ) ) ;
#243 = DIRECTION ( 'NONE',  ( 1.000000000000000000, 0.000000000000000000, 0.000000000000000000 ) ) ;
#244 = SURFACE_SIDE_STYLE ('',( #2 ) ) ;
#245 = APPLICATION_CONTEXT ( 'automotive_design' ) ;
#246 = AXIS2_PLACEMENT_3D ( 'NONE', #229, #15, #300 ) ;
#247 = PRESENTATION_STYLE_ASSIGNMENT (( #147 ) ) ;
#248 = FILL_AREA_STYLE_COLOUR ( '', #32 ) ;
#249 =( NAMED_UNIT ( * ) SI_UNIT ( $, .STERADIAN. ) SOLID_ANGLE_UNIT ( ) );
#250 = COLOUR_RGB ( '',1.000000000000000000, 0.000000000000000000, 0.000000000000000000 ) ;
#251 = STYLED_ITEM ( 'NONE', ( #296 ), #82 ) ;
#252 = FILL_AREA_STYLE ('',( #153 ) ) ;
#253 = EDGE_LOOP ( 'NONE', ( #27, #134, #138, #109 ) ) ;
#254 = UNCERTAINTY_MEASURE_WITH_UNIT (LENGTH_MEASURE( 1.000000000000000082E-05 ), #77, 'distance_accuracy_value', 'NONE');
#255 = DIMENSIONAL_EXPONENTS ( 1.000000000000000000, 0.000000000000000000, 0.000000000000000000, 0.000000000000000000, 0.000000000000000000, 0.000000000000000000, 0.000000000000000000 ) ;
#256 = ORIENTED_EDGE ( 'NONE', *, *, #40, .F. ) ;
#257 = ADVANCED_FACE ( 'NONE', ( #304 ), #258, .T. ) ;
#258 = CYLINDRICAL_SURFACE ( 'NONE', #83, 0.2187500000000000278 ) ;
#259 = EDGE_LOOP ( 'NONE', ( #46, #69 ) ) ;
#260 = EDGE_CURVE ( 'NONE', #158, #144, #157, .T. ) ;
#261 = DIRECTION ( 'NONE',  ( -0.000000000000000000, -1.000000000000000000, -0.000000000000000000 ) ) ;
#262 = LINE ( 'NONE', #93, #8 ) ;
#263 = ADVANCED_FACE ( 'NONE', ( #206 ), #39, .F. ) ;
#264 = ORIENTED_EDGE ( 'NONE', *, *, #4, .F. ) ;
#265 = CARTESIAN_POINT ( 'NONE',  ( -9.184850993605152135E-17, 3.500000000000000000, 0.000000000000000000 ) ) ;
#266 = DIRECTION ( 'NONE',  ( -0.000000000000000000, -1.000000000000000000, -0.000000000000000000 ) ) ;
#267 = DIMENSIONAL_EXPONENTS ( 1.000000000000000000, 0.000000000000000000, 0.000000000000000000, 0.000000000000000000, 0.000000000000000000, 0.000000000000000000, 0.000000000000000000 ) ;
#268 = AXIS2_PLACEMENT_3D ( 'NONE', #66, #230, #235 ) ;
#269 =( LENGTH_UNIT ( ) NAMED_UNIT ( * ) SI_UNIT ( $, .METRE. ) );
#270 = ADVANCED_BREP_SHAPE_REPRESENTATION ( '24272', ( #82, #97, #106 ), #130 ) ;
#271 = VECTOR ( 'NONE', #110, 39.37007874015748143 ) ;
#272 =( NAMED_UNIT ( * ) SI_UNIT ( $, .STERADIAN. ) SOLID_ANGLE_UNIT ( ) );
#273 =( NAMED_UNIT ( * ) PLANE_ANGLE_UNIT ( ) SI_UNIT ( $, .RADIAN. ) );
#274 = ORIENTED_EDGE ( 'NONE', *, *, #11, .T. ) ;
#275 = CIRCLE ( 'NONE', #233, 0.2187499999999999445 ) ;
#276 = AXIS2_PLACEMENT_3D ( 'NONE', #293, #261, #92 ) ;
#277 = EDGE_LOOP ( 'NONE', ( #210, #85, #16, #178 ) ) ;
#278 = DIRECTION ( 'NONE',  ( -1.000000000000000000, -4.592425496802576068E-17, 0.000000000000000000 ) ) ;
#279 = DIRECTION ( 'NONE',  ( -4.592425496802576068E-17, 1.000000000000000000, -0.000000000000000000 ) ) ;
#280 = DIRECTION ( 'NONE',  ( -4.592425496802576684E-17, 1.000000000000000000, -0.000000000000000000 ) ) ;
#281 = COLOUR_RGB ( '',1.000000000000000000, 0.000000000000000000, 0.000000000000000000 ) ;
#282 = PRODUCT_DEFINITION_FORMATION_WITH_SPECIFIED_SOURCE ( 'ANY', '', #295, .NOT_KNOWN. ) ;
#283 = CARTESIAN_POINT ( 'NONE',  ( 0.2187499999999999167, 3.500000000000000000, 2.678914873134835372E-17 ) ) ;
#284 = ORIENTED_EDGE ( 'NONE', *, *, #86, .T. ) ;
#285 = PLANE ( 'NONE',  #57 ) ;
#286 = VERTEX_POINT ( 'NONE', #137 ) ;
#287 = DIRECTION ( 'NONE',  ( 0.000000000000000000, 1.000000000000000000, 0.000000000000000000 ) ) ;
#288 =( GEOMETRIC_REPRESENTATION_CONTEXT ( 3 ) GLOBAL_UNCERTAINTY_ASSIGNED_CONTEXT ( ( #173 ) ) GLOBAL_UNIT_ASSIGNED_CONTEXT ( ( #81, #298, #176 ) ) REPRESENTATION_CONTEXT ( 'NONE', 'WORKASPACE' ) );
#289 = FILL_AREA_STYLE_COLOUR ( '', #250 ) ;
#290 = PLANE ( 'NONE',  #111 ) ;
#291 = SURFACE_STYLE_USAGE ( .BOTH. , #244 ) ;
#292 =( NAMED_UNIT ( * ) SI_UNIT ( $, .STERADIAN. ) SOLID_ANGLE_UNIT ( ) );
#293 = CARTESIAN_POINT ( 'NONE',  ( 0.000000000000000000, 1.500000000000000222, 0.000000000000000000 ) ) ;
#294 = CIRCLE ( 'NONE', #246, 0.2187500000000000555 ) ;
#295 = PRODUCT ( '24272', '24272', '', ( #72 ) ) ;
#296 = PRESENTATION_STYLE_ASSIGNMENT (( #127 ) ) ;
#297 = DIMENSIONAL_EXPONENTS ( 1.000000000000000000, 0.000000000000000000, 0.000000000000000000, 0.000000000000000000, 0.000000000000000000, 0.000000000000000000, 0.000000000000000000 ) ;
#298 =( NAMED_UNIT ( * ) PLANE_ANGLE_UNIT ( ) SI_UNIT ( $, .RADIAN. ) );
#299 = ORIENTED_EDGE ( 'NONE', *, *, #9, .T. ) ;
#300 = DIRECTION ( 'NONE',  ( -1.000000000000000000, 0.000000000000000000, 0.000000000000000000 ) ) ;
#301 = AXIS2_PLACEMENT_3D ( 'NONE', #20, #91, #181 ) ;
#302 = EDGE_CURVE ( 'NONE', #108, #144, #294, .T. ) ;
#303 = FILL_AREA_STYLE_COLOUR ( '', #281 ) ;
#304 = FACE_OUTER_BOUND ( 'NONE', #277, .T. ) ;
#305 =( LENGTH_UNIT ( ) NAMED_UNIT ( * ) SI_UNIT ( $, .METRE. ) );
#306 = ORIENTED_EDGE ( 'NONE', *, *, #126, .F. ) ;
#307 = CYLINDRICAL_SURFACE ( 'NONE', #189, 0.2187500000000000278 ) ;
#308 = LINE ( 'NONE', #18, #17 ) ;
#309 =( GEOMETRIC_REPRESENTATION_CONTEXT ( 3 ) GLOBAL_UNCERTAINTY_ASSIGNED_CONTEXT ( ( #140 ) ) GLOBAL_UNIT_ASSIGNED_CONTEXT ( ( #215, #64, #96 ) ) REPRESENTATION_CONTEXT ( 'NONE', 'WORKASPACE' ) );
ENDSEC;
END-ISO-10303-21;
