ISO-10303-21;
HEADER;
FILE_DESCRIPTION (( 'STEP AP214' ),
    '1' );
FILE_NAME ('Micro_DR-109-2.STEP',
    '2021-09-01T15:31:30',
    ( '' ),
    ( '' ),
    'SwSTEP 2.0',
    'SolidWorks 2020',
    '' );
FILE_SCHEMA (( 'AUTOMOTIVE_DESIGN' ));
ENDSEC;

DATA;
#1 = DIRECTION ( 'NONE',  ( -0.0000000000000000000, -0.0000000000000000000, -1.000000000000000000 ) ) ;
#2 = VERTEX_POINT ( 'NONE', #48 ) ;
#3 = CARTESIAN_POINT ( 'NONE',  ( -0.05469999999999999862, 0.0000000000000000000, 1.250086602540378067 ) ) ;
#4 = ADVANCED_FACE ( 'NONE', ( #150 ), #301, .T. ) ;
#5 = LENGTH_MEASURE_WITH_UNIT ( LENGTH_MEASURE( 0.02539999999999999897 ), #104 );
#6 = AXIS2_PLACEMENT_3D ( 'NONE', #137, #165, #91 ) ;
#7 = VECTOR ( 'NONE', #87, 39.37007874015748854 ) ;
#8 = DIMENSIONAL_EXPONENTS ( 1.000000000000000000, 0.0000000000000000000, 0.0000000000000000000, 0.0000000000000000000, 0.0000000000000000000, 0.0000000000000000000, 0.0000000000000000000 ) ;
#9 = LINE ( 'NONE', #205, #284 ) ;
#10 =( CONVERSION_BASED_UNIT ( 'INCH', #88 ) LENGTH_UNIT ( ) NAMED_UNIT ( #8 ) );
#11 = UNCERTAINTY_MEASURE_WITH_UNIT (LENGTH_MEASURE( 1.000000000000000082E-05 ), #10, 'distance_accuracy_value', 'NONE');
#12 = DIRECTION ( 'NONE',  ( -0.8571673007021151092, 1.049727191138622147E-16, 0.5150380749100496036 ) ) ;
#13 =( NAMED_UNIT ( * ) SI_UNIT ( $, .STERADIAN. ) SOLID_ANGLE_UNIT ( ) );
#14 = FACE_OUTER_BOUND ( 'NONE', #289, .T. ) ;
#15 = CIRCLE ( 'NONE', #86, 0.05469999999999999862 ) ;
#16 = CARTESIAN_POINT ( 'NONE',  ( 0.0000000000000000000, 0.0000000000000000000, 2.234999999999999876 ) ) ;
#17 = DIRECTION ( 'NONE',  ( 0.8571673007021151092, 0.0000000000000000000, 0.5150380749100496036 ) ) ;
#18 = DIRECTION ( 'NONE',  ( 0.4999999999999975575, 0.0000000000000000000, 0.8660254037844400399 ) ) ;
#19 = PRODUCT_DEFINITION_SHAPE ( 'NONE', 'NONE',  #249 ) ;
#20 = DIRECTION ( 'NONE',  ( 0.0000000000000000000, 0.0000000000000000000, 1.000000000000000000 ) ) ;
#21 = ORIENTED_EDGE ( 'NONE', *, *, #234, .F. ) ;
#22 = VERTEX_POINT ( 'NONE', #152 ) ;
#23 = AXIS2_PLACEMENT_3D ( 'NONE', #245, #132, #36 ) ;
#24 = VERTEX_POINT ( 'NONE', #159 ) ;
#25 = EDGE_CURVE ( 'NONE', #47, #154, #303, .T. ) ;
#26 = AXIS2_PLACEMENT_3D ( 'NONE', #96, #278, #139 ) ;
#27 = ORIENTED_EDGE ( 'NONE', *, *, #173, .F. ) ;
#28 = DIRECTION ( 'NONE',  ( -0.0000000000000000000, -0.0000000000000000000, 1.000000000000000000 ) ) ;
#29 =( CONVERSION_BASED_UNIT ( 'INCH', #156 ) LENGTH_UNIT ( ) NAMED_UNIT ( #217 ) );
#30 = ORIENTED_EDGE ( 'NONE', *, *, #131, .T. ) ;
#31 = DIRECTION ( 'NONE',  ( -0.0000000000000000000, -0.0000000000000000000, 1.000000000000000000 ) ) ;
#32 = SURFACE_SIDE_STYLE ('',( #111 ) ) ;
#33 = ORIENTED_EDGE ( 'NONE', *, *, #320, .F. ) ;
#34 = CARTESIAN_POINT ( 'NONE',  ( 0.0000000000000000000, 0.0000000000000000000, 1.250000000000000222 ) ) ;
#35 =( NAMED_UNIT ( * ) SI_UNIT ( $, .STERADIAN. ) SOLID_ANGLE_UNIT ( ) );
#36 = DIRECTION ( 'NONE',  ( 1.000000000000000000, 0.0000000000000000000, 0.0000000000000000000 ) ) ;
#37 = DIRECTION ( 'NONE',  ( 0.0000000000000000000, 0.0000000000000000000, -1.000000000000000000 ) ) ;
#38 = CARTESIAN_POINT ( 'NONE',  ( 0.0000000000000000000, 0.0000000000000000000, 0.0000000000000000000 ) ) ;
#39 = DIRECTION ( 'NONE',  ( 1.000000000000000000, 0.0000000000000000000, 0.0000000000000000000 ) ) ;
#40 = SURFACE_SIDE_STYLE ('',( #232 ) ) ;
#41 = CARTESIAN_POINT ( 'NONE',  ( 0.05465000000000046904, 0.0000000000000000000, 1.250000000000000222 ) ) ;
#42 = LINE ( 'NONE', #66, #287 ) ;
#43 = CARTESIAN_POINT ( 'NONE',  ( 0.0000000000000000000, 0.0000000000000000000, 0.03283703282985576261 ) ) ;
#44 = PRODUCT_RELATED_PRODUCT_CATEGORY ( 'part', '', ( #233 ) ) ;
#45 = EDGE_LOOP ( 'NONE', ( #151, #292, #170, #221 ) ) ;
#46 = VECTOR ( 'NONE', #192, 39.37007874015748854 ) ;
#47 = VERTEX_POINT ( 'NONE', #128 ) ;
#48 = CARTESIAN_POINT ( 'NONE',  ( -0.05469999999999999862, 0.0000000000000000000, 2.234999999999999876 ) ) ;
#49 = AXIS2_PLACEMENT_3D ( 'NONE', #53, #31, #224 ) ;
#50 = CIRCLE ( 'NONE', #23, 0.05464999999999996250 ) ;
#51 = EDGE_CURVE ( 'NONE', #24, #2, #279, .T. ) ;
#52 = ORIENTED_EDGE ( 'NONE', *, *, #173, .T. ) ;
#53 = CARTESIAN_POINT ( 'NONE',  ( 0.0000000000000000000, 0.0000000000000000000, 1.250000000000000222 ) ) ;
#54 = ORIENTED_EDGE ( 'NONE', *, *, #69, .T. ) ;
#55 = CARTESIAN_POINT ( 'NONE',  ( 0.0000000000000000000, 0.0000000000000000000, 2.234999999999999876 ) ) ;
#56 =( LENGTH_UNIT ( ) NAMED_UNIT ( * ) SI_UNIT ( $, .METRE. ) );
#57 = LINE ( 'NONE', #107, #321 ) ;
#58 = CONICAL_SURFACE ( 'NONE', #293, 65.52281426576922740, 1.029744258676659863 ) ;
#59 = DIRECTION ( 'NONE',  ( 1.000000000000000000, 0.0000000000000000000, 0.0000000000000000000 ) ) ;
#60 = PRESENTATION_STYLE_ASSIGNMENT (( #158 ) ) ;
#61 = UNCERTAINTY_MEASURE_WITH_UNIT (LENGTH_MEASURE( 1.000000000000000082E-05 ), #29, 'distance_accuracy_value', 'NONE');
#62 = CARTESIAN_POINT ( 'NONE',  ( 0.0000000000000000000, 0.0000000000000000000, 39.37007874015748143 ) ) ;
#63 = DIRECTION ( 'NONE',  ( -0.0000000000000000000, -0.0000000000000000000, 1.000000000000000000 ) ) ;
#64 = AXIS2_PLACEMENT_3D ( 'NONE', #256, #161, #39 ) ;
#65 = ADVANCED_FACE ( 'NONE', ( #136 ), #172, .T. ) ;
#66 = CARTESIAN_POINT ( 'NONE',  ( 0.05469999999999999862, 6.698817991336022155E-18, 2.250000000000000000 ) ) ;
#67 = DIRECTION ( 'NONE',  ( 1.000000000000000000, 0.0000000000000000000, 0.0000000000000000000 ) ) ;
#68 = CARTESIAN_POINT ( 'NONE',  ( -0.03969999999999985346, 0.0000000000000000000, 2.250000000000000000 ) ) ;
#69 = EDGE_CURVE ( 'NONE', #178, #219, #299, .T. ) ;
#70 = VECTOR ( 'NONE', #17, 39.37007874015748143 ) ;
#71 = ORIENTED_EDGE ( 'NONE', *, *, #195, .T. ) ;
#72 = ORIENTED_EDGE ( 'NONE', *, *, #180, .T. ) ;
#73 = ORIENTED_EDGE ( 'NONE', *, *, #185, .F. ) ;
#74 = ORIENTED_EDGE ( 'NONE', *, *, #220, .F. ) ;
#75 = ORIENTED_EDGE ( 'NONE', *, *, #76, .T. ) ;
#76 = EDGE_CURVE ( 'NONE', #2, #178, #57, .T. ) ;
#77 = ORIENTED_EDGE ( 'NONE', *, *, #261, .F. ) ;
#78 = AXIS2_PLACEMENT_3D ( 'NONE', #80, #101, #297 ) ;
#79 = DIRECTION ( 'NONE',  ( 0.0000000000000000000, 0.0000000000000000000, -1.000000000000000000 ) ) ;
#80 = CARTESIAN_POINT ( 'NONE',  ( 0.0000000000000000000, 0.0000000000000000000, 2.250000000000000000 ) ) ;
#81 = DIRECTION ( 'NONE',  ( -1.000000000000000000, 0.0000000000000000000, 0.0000000000000000000 ) ) ;
#82 = ADVANCED_FACE ( 'NONE', ( #14 ), #103, .T. ) ;
#83 = LINE ( 'NONE', #157, #7 ) ;
#84 = PRODUCT_DEFINITION_CONTEXT ( 'detailed design', #142, 'design' ) ;
#85 = CYLINDRICAL_SURFACE ( 'NONE', #316, 0.05469999999999999862 ) ;
#86 = AXIS2_PLACEMENT_3D ( 'NONE', #194, #63, #258 ) ;
#87 = DIRECTION ( 'NONE',  ( 0.7071067811865514585, 8.659560562354982162E-17, -0.7071067811865433539 ) ) ;
#88 = LENGTH_MEASURE_WITH_UNIT ( LENGTH_MEASURE( 0.02539999999999999897 ), #56 );
#89 = PRODUCT_CONTEXT ( 'NONE', #285, 'mechanical' ) ;
#90 = ADVANCED_FACE ( 'NONE', ( #113 ), #85, .T. ) ;
#91 = DIRECTION ( 'NONE',  ( 1.000000000000000000, 0.0000000000000000000, 0.0000000000000000000 ) ) ;
#92 = STYLED_ITEM ( 'NONE', ( #190 ), #312 ) ;
#93 = CARTESIAN_POINT ( 'NONE',  ( 0.05469999999999999862, 6.698817991336022155E-18, 1.250086602540378067 ) ) ;
#94 = EDGE_CURVE ( 'NONE', #22, #178, #9, .T. ) ;
#95 = LINE ( 'NONE', #286, #314 ) ;
#96 = CARTESIAN_POINT ( 'NONE',  ( 0.0000000000000000000, 0.0000000000000000000, 2.250000000000000000 ) ) ;
#97 = CLOSED_SHELL ( 'NONE', ( #238, #123, #82, #290, #4, #90, #100, #164, #65, #147, #228 ) ) ;
#98 = VERTEX_POINT ( 'NONE', #182 ) ;
#99 = ORIENTED_EDGE ( 'NONE', *, *, #180, .F. ) ;
#100 = ADVANCED_FACE ( 'NONE', ( #253 ), #207, .T. ) ;
#101 = DIRECTION ( 'NONE',  ( -0.0000000000000000000, -0.0000000000000000000, -1.000000000000000000 ) ) ;
#102 = CARTESIAN_POINT ( 'NONE',  ( 0.0000000000000000000, 0.0000000000000000000, 0.0000000000000000000 ) ) ;
#103 = CONICAL_SURFACE ( 'NONE', #307, 0.05465000000000046904, 0.5235987755982960401 ) ;
#104 =( LENGTH_UNIT ( ) NAMED_UNIT ( * ) SI_UNIT ( $, .METRE. ) );
#105 = EDGE_LOOP ( 'NONE', ( #21, #216, #239, #77 ) ) ;
#106 = CONICAL_SURFACE ( 'NONE', #114, 0.03969999999999985346, 0.7853981633974539411 ) ;
#107 = CARTESIAN_POINT ( 'NONE',  ( -0.05469999999999999862, 0.0000000000000000000, 2.250000000000000000 ) ) ;
#108 = EDGE_CURVE ( 'NONE', #130, #24, #83, .T. ) ;
#109 = CARTESIAN_POINT ( 'NONE',  ( 0.0000000000000000000, 0.0000000000000000000, 1.250086602540378067 ) ) ;
#110 = DIRECTION ( 'NONE',  ( 1.000000000000000000, 0.0000000000000000000, 0.0000000000000000000 ) ) ;
#111 = SURFACE_STYLE_FILL_AREA ( #153 ) ;
#112 = UNCERTAINTY_MEASURE_WITH_UNIT (LENGTH_MEASURE( 1.000000000000000082E-05 ), #129, 'distance_accuracy_value', 'NONE');
#113 = FACE_OUTER_BOUND ( 'NONE', #125, .T. ) ;
#114 = AXIS2_PLACEMENT_3D ( 'NONE', #250, #79, #179 ) ;
#115 = CARTESIAN_POINT ( 'NONE',  ( 0.0000000000000000000, 0.0000000000000000000, 2.250000000000000000 ) ) ;
#116 = CARTESIAN_POINT ( 'NONE',  ( 0.0000000000000000000, 0.0000000000000000000, 0.0000000000000000000 ) ) ;
#117 =( LENGTH_UNIT ( ) NAMED_UNIT ( * ) SI_UNIT ( $, .METRE. ) );
#118 = DIRECTION ( 'NONE',  ( -0.0000000000000000000, -0.0000000000000000000, 1.000000000000000000 ) ) ;
#119 = ORIENTED_EDGE ( 'NONE', *, *, #108, .T. ) ;
#120 = AXIS2_PLACEMENT_3D ( 'NONE', #34, #230, #134 ) ;
#121 = CIRCLE ( 'NONE', #201, 0.05469999999999999862 ) ;
#122 = ORIENTED_EDGE ( 'NONE', *, *, #76, .F. ) ;
#123 = ADVANCED_FACE ( 'NONE', ( #187 ), #58, .T. ) ;
#124 = ORIENTED_EDGE ( 'NONE', *, *, #108, .F. ) ;
#125 = EDGE_LOOP ( 'NONE', ( #74, #202, #75, #54 ) ) ;
#126 = EDGE_CURVE ( 'NONE', #246, #47, #50, .T. ) ;
#127 = ORIENTED_EDGE ( 'NONE', *, *, #126, .F. ) ;
#128 = CARTESIAN_POINT ( 'NONE',  ( 0.05464999999999996944, 0.0000000000000000000, 0.03283703282985576261 ) ) ;
#129 =( CONVERSION_BASED_UNIT ( 'INCH', #5 ) LENGTH_UNIT ( ) NAMED_UNIT ( #264 ) );
#130 = VERTEX_POINT ( 'NONE', #271 ) ;
#131 = EDGE_CURVE ( 'NONE', #223, #246, #229, .T. ) ;
#132 = DIRECTION ( 'NONE',  ( -0.0000000000000000000, -0.0000000000000000000, 1.000000000000000000 ) ) ;
#133 = VECTOR ( 'NONE', #18, 39.37007874015748143 ) ;
#134 = DIRECTION ( 'NONE',  ( 1.000000000000000000, 0.0000000000000000000, 0.0000000000000000000 ) ) ;
#135 = CARTESIAN_POINT ( 'NONE',  ( 0.05465000000000021230, 0.0000000000000000000, 2.234999999999999876 ) ) ;
#136 = FACE_OUTER_BOUND ( 'NONE', #45, .T. ) ;
#137 = CARTESIAN_POINT ( 'NONE',  ( 0.0000000000000000000, 0.0000000000000000000, 2.234999999999999876 ) ) ;
#138 = AXIS2_PLACEMENT_3D ( 'NONE', #167, #282, #67 ) ;
#139 = DIRECTION ( 'NONE',  ( -1.000000000000000000, 0.0000000000000000000, 0.0000000000000000000 ) ) ;
#140 = CARTESIAN_POINT ( 'NONE',  ( 0.0000000000000000000, 0.0000000000000000000, 0.0000000000000000000 ) ) ;
#141 = DIRECTION ( 'NONE',  ( 1.000000000000000000, 0.0000000000000000000, 0.0000000000000000000 ) ) ;
#142 = APPLICATION_CONTEXT ( 'automotive_design' ) ;
#143 = CONICAL_SURFACE ( 'NONE', #196, 65.52281426576922740, 1.029744258676659863 ) ;
#144 = APPLICATION_PROTOCOL_DEFINITION ( 'draft international standard', 'automotive_design', 1998, #142 ) ;
#145 = FILL_AREA_STYLE_COLOUR ( '', #318 ) ;
#146 = AXIS2_PLACEMENT_3D ( 'NONE', #43, #211, #259 ) ;
#147 = ADVANCED_FACE ( 'NONE', ( #247 ), #143, .T. ) ;
#148 = ORIENTED_EDGE ( 'NONE', *, *, #294, .F. ) ;
#149 = AXIS2_PLACEMENT_3D ( 'NONE', #300, #225, #160 ) ;
#150 = FACE_OUTER_BOUND ( 'NONE', #270, .T. ) ;
#151 = ORIENTED_EDGE ( 'NONE', *, *, #94, .F. ) ;
#152 = CARTESIAN_POINT ( 'NONE',  ( -0.05465000000000046904, 6.695756374338181667E-18, 1.250000000000000222 ) ) ;
#153 = FILL_AREA_STYLE ('',( #272 ) ) ;
#154 = VERTEX_POINT ( 'NONE', #276 ) ;
#155 = CARTESIAN_POINT ( 'NONE',  ( 0.0000000000000000000, 0.0000000000000000000, 39.37007874015748143 ) ) ;
#156 = LENGTH_MEASURE_WITH_UNIT ( LENGTH_MEASURE( 0.02539999999999999897 ), #117 );
#157 = CARTESIAN_POINT ( 'NONE',  ( 0.03969999999999985346, 4.861847792614974842E-18, 2.250000000000000000 ) ) ;
#158 = SURFACE_STYLE_USAGE ( .BOTH. , #32 ) ;
#159 = CARTESIAN_POINT ( 'NONE',  ( 0.05469999999999999862, 6.698817991336022155E-18, 2.234999999999999876 ) ) ;
#160 = DIRECTION ( 'NONE',  ( 1.000000000000000000, 0.0000000000000000000, 0.0000000000000000000 ) ) ;
#161 = DIRECTION ( 'NONE',  ( -0.0000000000000000000, -0.0000000000000000000, 1.000000000000000000 ) ) ;
#162 = FILL_AREA_STYLE ('',( #145 ) ) ;
#163 = COLOUR_RGB ( '',0.7921568627450980005, 0.8196078431372548767, 0.9333333333333333481 ) ;
#164 = ADVANCED_FACE ( 'NONE', ( #200 ), #106, .T. ) ;
#165 = DIRECTION ( 'NONE',  ( -0.0000000000000000000, -0.0000000000000000000, 1.000000000000000000 ) ) ;
#166 = FACE_OUTER_BOUND ( 'NONE', #323, .T. ) ;
#167 = CARTESIAN_POINT ( 'NONE',  ( 0.0000000000000000000, 0.0000000000000000000, 1.250000000000000222 ) ) ;
#168 = PRESENTATION_LAYER_ASSIGNMENT (  '', '', ( #92 ) ) ;
#169 =( GEOMETRIC_REPRESENTATION_CONTEXT ( 3 ) GLOBAL_UNCERTAINTY_ASSIGNED_CONTEXT ( ( #11 ) ) GLOBAL_UNIT_ASSIGNED_CONTEXT ( ( #10, #306, #252 ) ) REPRESENTATION_CONTEXT ( 'NONE', 'WORKASPACE' ) );
#170 = ORIENTED_EDGE ( 'NONE', *, *, #210, .T. ) ;
#171 = ORIENTED_EDGE ( 'NONE', *, *, #294, .T. ) ;
#172 = CONICAL_SURFACE ( 'NONE', #120, 0.05465000000000046904, 0.5235987755982960401 ) ;
#173 = EDGE_CURVE ( 'NONE', #154, #22, #322, .T. ) ;
#174 = ORIENTED_EDGE ( 'NONE', *, *, #195, .F. ) ;
#175 = ORIENTED_EDGE ( 'NONE', *, *, #51, .F. ) ;
#176 = EDGE_LOOP ( 'NONE', ( #317, #296 ) ) ;
#177 = VECTOR ( 'NONE', #28, 39.37007874015748143 ) ;
#178 = VERTEX_POINT ( 'NONE', #3 ) ;
#179 = DIRECTION ( 'NONE',  ( -1.000000000000000000, 0.0000000000000000000, 0.0000000000000000000 ) ) ;
#180 = EDGE_CURVE ( 'NONE', #98, #2, #257, .T. ) ;
#181 = ORIENTED_EDGE ( 'NONE', *, *, #210, .F. ) ;
#182 = CARTESIAN_POINT ( 'NONE',  ( -0.03969999999999985346, 0.0000000000000000000, 2.250000000000000000 ) ) ;
#183 = DIRECTION ( 'NONE',  ( -0.0000000000000000000, -0.0000000000000000000, 1.000000000000000000 ) ) ;
#184 = AXIS2_PLACEMENT_3D ( 'NONE', #115, #236, #141 ) ;
#185 = EDGE_CURVE ( 'NONE', #2, #24, #121, .T. ) ;
#186 = CARTESIAN_POINT ( 'NONE',  ( 0.0000000000000000000, 0.0000000000000000000, 1.250000000000000222 ) ) ;
#187 = FACE_OUTER_BOUND ( 'NONE', #248, .T. ) ;
#188 = FACE_OUTER_BOUND ( 'NONE', #198, .T. ) ;
#189 = AXIS2_PLACEMENT_3D ( 'NONE', #203, #273, #206 ) ;
#190 = PRESENTATION_STYLE_ASSIGNMENT (( #237 ) ) ;
#191 = STYLED_ITEM ( 'NONE', ( #60 ), #281 ) ;
#192 = DIRECTION ( 'NONE',  ( -0.7071067811865514585, 0.0000000000000000000, -0.7071067811865433539 ) ) ;
#193 = SHAPE_DEFINITION_REPRESENTATION ( #19, #281 ) ;
#194 = CARTESIAN_POINT ( 'NONE',  ( 0.0000000000000000000, 0.0000000000000000000, 1.250086602540378067 ) ) ;
#195 = EDGE_CURVE ( 'NONE', #223, #47, #283, .T. ) ;
#196 = AXIS2_PLACEMENT_3D ( 'NONE', #155, #308, #110 ) ;
#197 = ORIENTED_EDGE ( 'NONE', *, *, #215, .F. ) ;
#198 = EDGE_LOOP ( 'NONE', ( #263, #244, #27, #199 ) ) ;
#199 = ORIENTED_EDGE ( 'NONE', *, *, #25, .F. ) ;
#200 = FACE_OUTER_BOUND ( 'NONE', #295, .T. ) ;
#201 = AXIS2_PLACEMENT_3D ( 'NONE', #16, #235, #208 ) ;
#202 = ORIENTED_EDGE ( 'NONE', *, *, #51, .T. ) ;
#203 = CARTESIAN_POINT ( 'NONE',  ( 0.0000000000000000000, 0.0000000000000000000, 2.250000000000000000 ) ) ;
#204 = AXIS2_PLACEMENT_3D ( 'NONE', #38, #20, #213 ) ;
#205 = CARTESIAN_POINT ( 'NONE',  ( -0.05465000000000046904, 6.692694757340341948E-18, 1.250000000000000222 ) ) ;
#206 = DIRECTION ( 'NONE',  ( 1.000000000000000000, 0.0000000000000000000, -0.0000000000000000000 ) ) ;
#207 = PLANE ( 'NONE',  #189 ) ;
#208 = DIRECTION ( 'NONE',  ( 1.000000000000000000, 0.0000000000000000000, 0.0000000000000000000 ) ) ;
#209 = DIRECTION ( 'NONE',  ( -0.0000000000000000000, -0.0000000000000000000, -1.000000000000000000 ) ) ;
#210 = EDGE_CURVE ( 'NONE', #154, #219, #310, .T. ) ;
#211 = DIRECTION ( 'NONE',  ( -0.0000000000000000000, -0.0000000000000000000, 1.000000000000000000 ) ) ;
#212 = CYLINDRICAL_SURFACE ( 'NONE', #6, 0.05465000000000021230 ) ;
#213 = DIRECTION ( 'NONE',  ( 1.000000000000000000, 0.0000000000000000000, 0.0000000000000000000 ) ) ;
#214 = CYLINDRICAL_SURFACE ( 'NONE', #64, 0.05465000000000021230 ) ;
#215 = EDGE_CURVE ( 'NONE', #130, #98, #231, .T. ) ;
#216 = ORIENTED_EDGE ( 'NONE', *, *, #126, .T. ) ;
#217 = DIMENSIONAL_EXPONENTS ( 1.000000000000000000, 0.0000000000000000000, 0.0000000000000000000, 0.0000000000000000000, 0.0000000000000000000, 0.0000000000000000000, 0.0000000000000000000 ) ;
#218 = CIRCLE ( 'NONE', #138, 0.05465000000000046904 ) ;
#219 = VERTEX_POINT ( 'NONE', #93 ) ;
#220 = EDGE_CURVE ( 'NONE', #24, #219, #42, .T. ) ;
#221 = ORIENTED_EDGE ( 'NONE', *, *, #69, .F. ) ;
#222 = DIRECTION ( 'NONE',  ( 1.000000000000000000, 0.0000000000000000000, 0.0000000000000000000 ) ) ;
#223 = VERTEX_POINT ( 'NONE', #116 ) ;
#224 = DIRECTION ( 'NONE',  ( 1.000000000000000000, 0.0000000000000000000, 0.0000000000000000000 ) ) ;
#225 = DIRECTION ( 'NONE',  ( 0.0000000000000000000, 0.0000000000000000000, 1.000000000000000000 ) ) ;
#226 = MECHANICAL_DESIGN_GEOMETRIC_PRESENTATION_REPRESENTATION (  '', ( #92 ), #280 ) ;
#227 = CARTESIAN_POINT ( 'NONE',  ( 0.0000000000000000000, 0.0000000000000000000, 2.250000000000000000 ) ) ;
#228 = ADVANCED_FACE ( 'NONE', ( #311 ), #212, .T. ) ;
#229 = LINE ( 'NONE', #102, #275 ) ;
#230 = DIRECTION ( 'NONE',  ( -0.0000000000000000000, -0.0000000000000000000, 1.000000000000000000 ) ) ;
#231 = CIRCLE ( 'NONE', #184, 0.03969999999999985346 ) ;
#232 = SURFACE_STYLE_FILL_AREA ( #162 ) ;
#233 = PRODUCT ( 'Micro_DR-109-2', 'Micro_DR-109-2', '', ( #89 ) ) ;
#234 = EDGE_CURVE ( 'NONE', #246, #22, #95, .T. ) ;
#235 = DIRECTION ( 'NONE',  ( 0.0000000000000000000, 0.0000000000000000000, -1.000000000000000000 ) ) ;
#236 = DIRECTION ( 'NONE',  ( 0.0000000000000000000, 0.0000000000000000000, 1.000000000000000000 ) ) ;
#237 = SURFACE_STYLE_USAGE ( .BOTH. , #40 ) ;
#238 = ADVANCED_FACE ( 'NONE', ( #188 ), #214, .T. ) ;
#239 = ORIENTED_EDGE ( 'NONE', *, *, #25, .T. ) ;
#240 = ORIENTED_EDGE ( 'NONE', *, *, #220, .T. ) ;
#241 = ORIENTED_EDGE ( 'NONE', *, *, #243, .F. ) ;
#242 = CIRCLE ( 'NONE', #149, 0.03969999999999985346 ) ;
#243 = EDGE_CURVE ( 'NONE', #47, #246, #266, .T. ) ;
#244 = ORIENTED_EDGE ( 'NONE', *, *, #234, .T. ) ;
#245 = CARTESIAN_POINT ( 'NONE',  ( 0.0000000000000000000, 0.0000000000000000000, 0.03283703282985576261 ) ) ;
#246 = VERTEX_POINT ( 'NONE', #315 ) ;
#247 = FACE_OUTER_BOUND ( 'NONE', #291, .T. ) ;
#248 = EDGE_LOOP ( 'NONE', ( #174, #30, #241 ) ) ;
#249 = PRODUCT_DEFINITION ( 'UNKNOWN', '', #288, #84 ) ;
#250 = CARTESIAN_POINT ( 'NONE',  ( 0.0000000000000000000, 0.0000000000000000000, 2.250000000000000000 ) ) ;
#251 = DIRECTION ( 'NONE',  ( 1.000000000000000000, 0.0000000000000000000, 0.0000000000000000000 ) ) ;
#252 =( NAMED_UNIT ( * ) SI_UNIT ( $, .STERADIAN. ) SOLID_ANGLE_UNIT ( ) );
#253 = FACE_OUTER_BOUND ( 'NONE', #176, .T. ) ;
#254 = AXIS2_PLACEMENT_3D ( 'NONE', #55, #37, #222 ) ;
#255 =( GEOMETRIC_REPRESENTATION_CONTEXT ( 3 ) GLOBAL_UNCERTAINTY_ASSIGNED_CONTEXT ( ( #112 ) ) GLOBAL_UNIT_ASSIGNED_CONTEXT ( ( #129, #274, #35 ) ) REPRESENTATION_CONTEXT ( 'NONE', 'WORKASPACE' ) );
#256 = CARTESIAN_POINT ( 'NONE',  ( 0.0000000000000000000, 0.0000000000000000000, 2.234999999999999876 ) ) ;
#257 = LINE ( 'NONE', #68, #46 ) ;
#258 = DIRECTION ( 'NONE',  ( 1.000000000000000000, 0.0000000000000000000, 0.0000000000000000000 ) ) ;
#259 = DIRECTION ( 'NONE',  ( 1.000000000000000000, 0.0000000000000000000, 0.0000000000000000000 ) ) ;
#260 = CONICAL_SURFACE ( 'NONE', #26, 0.03969999999999985346, 0.7853981633974539411 ) ;
#261 = EDGE_CURVE ( 'NONE', #22, #154, #218, .T. ) ;
#262 = PRESENTATION_LAYER_ASSIGNMENT (  '', '', ( #191 ) ) ;
#263 = ORIENTED_EDGE ( 'NONE', *, *, #243, .T. ) ;
#264 = DIMENSIONAL_EXPONENTS ( 1.000000000000000000, 0.0000000000000000000, 0.0000000000000000000, 0.0000000000000000000, 0.0000000000000000000, 0.0000000000000000000, 0.0000000000000000000 ) ;
#265 = ORIENTED_EDGE ( 'NONE', *, *, #185, .T. ) ;
#266 = CIRCLE ( 'NONE', #146, 0.05464999999999996250 ) ;
#267 = ORIENTED_EDGE ( 'NONE', *, *, #131, .F. ) ;
#268 = DIRECTION ( 'NONE',  ( -0.0000000000000000000, -0.0000000000000000000, 1.000000000000000000 ) ) ;
#269 =( NAMED_UNIT ( * ) PLANE_ANGLE_UNIT ( ) SI_UNIT ( $, .RADIAN. ) );
#270 = EDGE_LOOP ( 'NONE', ( #265, #240, #171, #122 ) ) ;
#271 = CARTESIAN_POINT ( 'NONE',  ( 0.03969999999999985346, 5.780332891975497728E-18, 2.250000000000000000 ) ) ;
#272 = FILL_AREA_STYLE_COLOUR ( '', #163 ) ;
#273 = DIRECTION ( 'NONE',  ( 0.0000000000000000000, 0.0000000000000000000, 1.000000000000000000 ) ) ;
#274 =( NAMED_UNIT ( * ) PLANE_ANGLE_UNIT ( ) SI_UNIT ( $, .RADIAN. ) );
#275 = VECTOR ( 'NONE', #12, 39.37007874015748143 ) ;
#276 = CARTESIAN_POINT ( 'NONE',  ( 0.05465000000000046904, 0.0000000000000000000, 1.250000000000000222 ) ) ;
#277 = DIRECTION ( 'NONE',  ( -0.0000000000000000000, -0.0000000000000000000, -1.000000000000000000 ) ) ;
#278 = DIRECTION ( 'NONE',  ( 0.0000000000000000000, 0.0000000000000000000, -1.000000000000000000 ) ) ;
#279 = CIRCLE ( 'NONE', #254, 0.05469999999999999862 ) ;
#280 =( GEOMETRIC_REPRESENTATION_CONTEXT ( 3 ) GLOBAL_UNCERTAINTY_ASSIGNED_CONTEXT ( ( #61 ) ) GLOBAL_UNIT_ASSIGNED_CONTEXT ( ( #29, #269, #13 ) ) REPRESENTATION_CONTEXT ( 'NONE', 'WORKASPACE' ) );
#281 = ADVANCED_BREP_SHAPE_REPRESENTATION ( 'Micro_DR-109-2', ( #312, #204 ), #255 ) ;
#282 = DIRECTION ( 'NONE',  ( -0.0000000000000000000, -0.0000000000000000000, 1.000000000000000000 ) ) ;
#283 = LINE ( 'NONE', #140, #70 ) ;
#284 = VECTOR ( 'NONE', #298, 39.37007874015748143 ) ;
#285 = APPLICATION_CONTEXT ( 'automotive_design' ) ;
#286 = CARTESIAN_POINT ( 'NONE',  ( -0.05465000000000021230, 6.692694757340311133E-18, 2.234999999999999876 ) ) ;
#287 = VECTOR ( 'NONE', #209, 39.37007874015748143 ) ;
#288 = PRODUCT_DEFINITION_FORMATION_WITH_SPECIFIED_SOURCE ( 'ANY', '', #233, .NOT_KNOWN. ) ;
#289 = EDGE_LOOP ( 'NONE', ( #52, #319, #148, #181 ) ) ;
#290 = ADVANCED_FACE ( 'NONE', ( #166 ), #260, .T. ) ;
#291 = EDGE_LOOP ( 'NONE', ( #267, #71, #127 ) ) ;
#292 = ORIENTED_EDGE ( 'NONE', *, *, #261, .T. ) ;
#293 = AXIS2_PLACEMENT_3D ( 'NONE', #62, #183, #251 ) ;
#294 = EDGE_CURVE ( 'NONE', #219, #178, #15, .T. ) ;
#295 = EDGE_LOOP ( 'NONE', ( #124, #33, #72, #175 ) ) ;
#296 = ORIENTED_EDGE ( 'NONE', *, *, #215, .T. ) ;
#297 = DIRECTION ( 'NONE',  ( -1.000000000000000000, 0.0000000000000000000, 0.0000000000000000000 ) ) ;
#298 = DIRECTION ( 'NONE',  ( -0.4999999999999975575, 6.123233995736736454E-17, 0.8660254037844400399 ) ) ;
#299 = CIRCLE ( 'NONE', #313, 0.05469999999999999862 ) ;
#300 = CARTESIAN_POINT ( 'NONE',  ( 0.0000000000000000000, 0.0000000000000000000, 2.250000000000000000 ) ) ;
#301 = CYLINDRICAL_SURFACE ( 'NONE', #78, 0.05469999999999999862 ) ;
#302 = MECHANICAL_DESIGN_GEOMETRIC_PRESENTATION_REPRESENTATION (  '', ( #191 ), #169 ) ;
#303 = LINE ( 'NONE', #135, #177 ) ;
#304 = APPLICATION_PROTOCOL_DEFINITION ( 'draft international standard', 'automotive_design', 1998, #285 ) ;
#305 = DIRECTION ( 'NONE',  ( 1.000000000000000000, 0.0000000000000000000, 0.0000000000000000000 ) ) ;
#306 =( NAMED_UNIT ( * ) PLANE_ANGLE_UNIT ( ) SI_UNIT ( $, .RADIAN. ) );
#307 = AXIS2_PLACEMENT_3D ( 'NONE', #186, #309, #59 ) ;
#308 = DIRECTION ( 'NONE',  ( -0.0000000000000000000, -0.0000000000000000000, 1.000000000000000000 ) ) ;
#309 = DIRECTION ( 'NONE',  ( -0.0000000000000000000, -0.0000000000000000000, 1.000000000000000000 ) ) ;
#310 = LINE ( 'NONE', #41, #133 ) ;
#311 = FACE_OUTER_BOUND ( 'NONE', #105, .T. ) ;
#312 = MANIFOLD_SOLID_BREP ( 'Cut-Revolve1', #97 ) ;
#313 = AXIS2_PLACEMENT_3D ( 'NONE', #109, #268, #305 ) ;
#314 = VECTOR ( 'NONE', #118, 39.37007874015748143 ) ;
#315 = CARTESIAN_POINT ( 'NONE',  ( -0.05464999999999996944, 6.692694757340281089E-18, 0.03283703282985576261 ) ) ;
#316 = AXIS2_PLACEMENT_3D ( 'NONE', #227, #277, #81 ) ;
#317 = ORIENTED_EDGE ( 'NONE', *, *, #320, .T. ) ;
#318 = COLOUR_RGB ( '',0.7921568627450980005, 0.8196078431372548767, 0.9333333333333333481 ) ;
#319 = ORIENTED_EDGE ( 'NONE', *, *, #94, .T. ) ;
#320 = EDGE_CURVE ( 'NONE', #98, #130, #242, .T. ) ;
#321 = VECTOR ( 'NONE', #1, 39.37007874015748143 ) ;
#322 = CIRCLE ( 'NONE', #49, 0.05465000000000046904 ) ;
#323 = EDGE_LOOP ( 'NONE', ( #197, #119, #73, #99 ) ) ;
ENDSEC;
END-ISO-10303-21;
