ISO-10303-21;
HEADER;
FILE_DESCRIPTION (( 'STEP AP214' ),
    '1' );
FILE_NAME ('01257.STEP',
    '2023-06-22T14:24:21',
    ( '' ),
    ( '' ),
    'SwSTEP 2.0',
    'SolidWorks 2023',
    '' );
FILE_SCHEMA (( 'AUTOMOTIVE_DESIGN' ));
ENDSEC;

DATA;
#1 = FILL_AREA_STYLE ('',( #29 ) ) ;
#2 =( NAMED_UNIT ( * ) PLANE_ANGLE_UNIT ( ) SI_UNIT ( $, .RADIAN. ) );
#3 = LENGTH_MEASURE_WITH_UNIT ( LENGTH_MEASURE( 0.02539999999999999897 ), #238 );
#4 =( GEOMETRIC_REPRESENTATION_CONTEXT ( 3 ) GLOBAL_UNCERTAINTY_ASSIGNED_CONTEXT ( ( #19 ) ) GLOBAL_UNIT_ASSIGNED_CONTEXT ( ( #173, #33, #217 ) ) REPRESENTATION_CONTEXT ( 'NONE', 'WORKASPACE' ) );
#5 = CARTESIAN_POINT ( 'NONE',  ( 0.1562499999999999722, 2.500000000000000000, 1.913510623667739771E-17 ) ) ;
#6 =( NAMED_UNIT ( * ) PLANE_ANGLE_UNIT ( ) SI_UNIT ( $, .RADIAN. ) );
#7 = LINE ( 'NONE', #5, #198 ) ;
#8 = SURFACE_SIDE_STYLE ('',( #70 ) ) ;
#9 = DIRECTION ( 'NONE',  ( 3.265724797726275178E-17, -1.000000000000000000, 0.000000000000000000 ) ) ;
#10 = CARTESIAN_POINT ( 'NONE',  ( 0.1562500000000000000, 0.6250000000000000000, 1.913510623667739771E-17 ) ) ;
#11 = CIRCLE ( 'NONE', #171, 0.1562500000000000000 ) ;
#12 = EDGE_CURVE ( 'NONE', #161, #114, #170, .T. ) ;
#13 = CARTESIAN_POINT ( 'NONE',  ( 0.000000000000000000, 0.6250000000000000000, 0.000000000000000000 ) ) ;
#14 = DIRECTION ( 'NONE',  ( -1.000000000000000000, 0.000000000000000000, 0.000000000000000000 ) ) ;
#15 = VERTEX_POINT ( 'NONE', #157 ) ;
#16 = SURFACE_STYLE_FILL_AREA ( #35 ) ;
#17 = ORIENTED_EDGE ( 'NONE', *, *, #12, .F. ) ;
#18 = EDGE_CURVE ( 'NONE', #66, #15, #255, .T. ) ;
#19 = UNCERTAINTY_MEASURE_WITH_UNIT (LENGTH_MEASURE( 1.000000000000000082E-05 ), #173, 'distance_accuracy_value', 'NONE');
#20 = CLOSED_SHELL ( 'NONE', ( #120, #136, #189, #143 ) ) ;
#21 = VERTEX_POINT ( 'NONE', #249 ) ;
#22 = LENGTH_MEASURE_WITH_UNIT ( LENGTH_MEASURE( 0.02539999999999999897 ), #164 );
#23 = CARTESIAN_POINT ( 'NONE',  ( 0.000000000000000000, 0.6250000000000000000, 0.000000000000000000 ) ) ;
#24 = VECTOR ( 'NONE', #109, 39.37007874015748143 ) ;
#25 = PRESENTATION_LAYER_ASSIGNMENT (  '', '', ( #289 ) ) ;
#26 =( CONVERSION_BASED_UNIT ( 'INCH', #131 ) LENGTH_UNIT ( ) NAMED_UNIT ( #163 ) );
#27 =( GEOMETRIC_REPRESENTATION_CONTEXT ( 3 ) GLOBAL_UNCERTAINTY_ASSIGNED_CONTEXT ( ( #125 ) ) GLOBAL_UNIT_ASSIGNED_CONTEXT ( ( #73, #2, #32 ) ) REPRESENTATION_CONTEXT ( 'NONE', 'WORKASPACE' ) );
#28 =( NAMED_UNIT ( * ) PLANE_ANGLE_UNIT ( ) SI_UNIT ( $, .RADIAN. ) );
#29 = FILL_AREA_STYLE_COLOUR ( '', #234 ) ;
#30 = PRODUCT_DEFINITION_SHAPE ( 'NONE', 'NONE',  #36 ) ;
#31 = VECTOR ( 'NONE', #37, 39.37007874015748143 ) ;
#32 =( NAMED_UNIT ( * ) SI_UNIT ( $, .STERADIAN. ) SOLID_ANGLE_UNIT ( ) );
#33 =( NAMED_UNIT ( * ) PLANE_ANGLE_UNIT ( ) SI_UNIT ( $, .RADIAN. ) );
#34 = ORIENTED_EDGE ( 'NONE', *, *, #212, .T. ) ;
#35 = FILL_AREA_STYLE ('',( #229 ) ) ;
#36 = PRODUCT_DEFINITION ( 'UNKNOWN', '', #60, #207 ) ;
#37 = DIRECTION ( 'NONE',  ( -0.000000000000000000, -1.000000000000000000, -0.000000000000000000 ) ) ;
#38 = DIRECTION ( 'NONE',  ( 0.000000000000000000, 0.000000000000000000, -1.000000000000000000 ) ) ;
#39 = MECHANICAL_DESIGN_GEOMETRIC_PRESENTATION_REPRESENTATION (  '', ( #302 ), #148 ) ;
#40 = SURFACE_SIDE_STYLE ('',( #16 ) ) ;
#41 = AXIS2_PLACEMENT_3D ( 'NONE', #201, #191, #75 ) ;
#42 = FILL_AREA_STYLE ('',( #246 ) ) ;
#43 = PLANE ( 'NONE',  #58 ) ;
#44 = UNCERTAINTY_MEASURE_WITH_UNIT (LENGTH_MEASURE( 1.000000000000000082E-05 ), #257, 'distance_accuracy_value', 'NONE');
#45 = VERTEX_POINT ( 'NONE', #210 ) ;
#46 = CARTESIAN_POINT ( 'NONE',  ( 8.331998792565876312E-35, 0.6250000000000000000, 0.000000000000000000 ) ) ;
#47 = EDGE_LOOP ( 'NONE', ( #134, #227 ) ) ;
#48 = AXIS2_PLACEMENT_3D ( 'NONE', #208, #271, #38 ) ;
#49 = PRODUCT_CONTEXT ( 'NONE', #51, 'mechanical' ) ;
#50 = APPLICATION_PROTOCOL_DEFINITION ( 'draft international standard', 'automotive_design', 1998, #177 ) ;
#51 = APPLICATION_CONTEXT ( 'automotive_design' ) ;
#52 = DIRECTION ( 'NONE',  ( 1.000000000000000000, 0.000000000000000000, 0.000000000000000000 ) ) ;
#53 = LINE ( 'NONE', #104, #24 ) ;
#54 = SURFACE_SIDE_STYLE ('',( #166 ) ) ;
#55 = ADVANCED_FACE ( 'NONE', ( #209 ), #301, .T. ) ;
#56 =( NAMED_UNIT ( * ) PLANE_ANGLE_UNIT ( ) SI_UNIT ( $, .RADIAN. ) );
#57 = ORIENTED_EDGE ( 'NONE', *, *, #18, .F. ) ;
#58 = AXIS2_PLACEMENT_3D ( 'NONE', #23, #261, #106 ) ;
#59 = SURFACE_STYLE_USAGE ( .BOTH. , #40 ) ;
#60 = PRODUCT_DEFINITION_FORMATION_WITH_SPECIFIED_SOURCE ( 'ANY', '', #190, .NOT_KNOWN. ) ;
#61 = EDGE_CURVE ( 'NONE', #300, #21, #296, .T. ) ;
#62 = ORIENTED_EDGE ( 'NONE', *, *, #18, .T. ) ;
#63 = ORIENTED_EDGE ( 'NONE', *, *, #279, .F. ) ;
#64 = CIRCLE ( 'NONE', #41, 0.1562500000000000000 ) ;
#65 = AXIS2_PLACEMENT_3D ( 'NONE', #305, #193, #184 ) ;
#66 = VERTEX_POINT ( 'NONE', #10 ) ;
#67 =( NAMED_UNIT ( * ) SI_UNIT ( $, .STERADIAN. ) SOLID_ANGLE_UNIT ( ) );
#68 = SURFACE_STYLE_USAGE ( .BOTH. , #277 ) ;
#69 = FILL_AREA_STYLE_COLOUR ( '', #79 ) ;
#70 = SURFACE_STYLE_FILL_AREA ( #281 ) ;
#71 = PRESENTATION_LAYER_ASSIGNMENT (  '', '', ( #302 ) ) ;
#72 =( LENGTH_UNIT ( ) NAMED_UNIT ( * ) SI_UNIT ( $, .METRE. ) );
#73 =( CONVERSION_BASED_UNIT ( 'INCH', #278 ) LENGTH_UNIT ( ) NAMED_UNIT ( #273 ) );
#74 = COLOUR_RGB ( '',1.000000000000000000, 0.000000000000000000, 0.000000000000000000 ) ;
#75 = DIRECTION ( 'NONE',  ( -1.000000000000000000, 0.000000000000000000, 0.000000000000000000 ) ) ;
#76 = SURFACE_STYLE_FILL_AREA ( #145 ) ;
#77 = AXIS2_PLACEMENT_3D ( 'NONE', #172, #219, #293 ) ;
#78 = AXIS2_PLACEMENT_3D ( 'NONE', #88, #118, #112 ) ;
#79 = COLOUR_RGB ( '',1.000000000000000000, 0.000000000000000000, 0.000000000000000000 ) ;
#80 =( CONVERSION_BASED_UNIT ( 'INCH', #220 ) LENGTH_UNIT ( ) NAMED_UNIT ( #247 ) );
#81 = DIRECTION ( 'NONE',  ( -1.000000000000000000, 0.000000000000000000, 0.000000000000000000 ) ) ;
#82 = DIRECTION ( 'NONE',  ( -0.000000000000000000, -1.000000000000000000, -0.000000000000000000 ) ) ;
#83 = DIRECTION ( 'NONE',  ( -1.000000000000000000, 0.000000000000000000, 0.000000000000000000 ) ) ;
#84 = CLOSED_SHELL ( 'NONE', ( #309, #98, #266, #55 ) ) ;
#85 = PRESENTATION_STYLE_ASSIGNMENT (( #59 ) ) ;
#86 = UNCERTAINTY_MEASURE_WITH_UNIT (LENGTH_MEASURE( 1.000000000000000082E-05 ), #26, 'distance_accuracy_value', 'NONE');
#87 = EDGE_LOOP ( 'NONE', ( #119, #62, #298, #153 ) ) ;
#88 = CARTESIAN_POINT ( 'NONE',  ( 0.000000000000000000, 0.6250000000000000000, 0.000000000000000000 ) ) ;
#89 = ORIENTED_EDGE ( 'NONE', *, *, #168, .T. ) ;
#90 = DIRECTION ( 'NONE',  ( 0.000000000000000000, 0.000000000000000000, -1.000000000000000000 ) ) ;
#91 = ORIENTED_EDGE ( 'NONE', *, *, #202, .F. ) ;
#92 =( GEOMETRIC_REPRESENTATION_CONTEXT ( 3 ) GLOBAL_UNCERTAINTY_ASSIGNED_CONTEXT ( ( #230 ) ) GLOBAL_UNIT_ASSIGNED_CONTEXT ( ( #123, #6, #286 ) ) REPRESENTATION_CONTEXT ( 'NONE', 'WORKASPACE' ) );
#93 = EDGE_CURVE ( 'NONE', #21, #114, #206, .T. ) ;
#94 = STYLED_ITEM ( 'NONE', ( #251 ), #55 ) ;
#95 = ORIENTED_EDGE ( 'NONE', *, *, #212, .F. ) ;
#96 = DIMENSIONAL_EXPONENTS ( 1.000000000000000000, 0.000000000000000000, 0.000000000000000000, 0.000000000000000000, 0.000000000000000000, 0.000000000000000000, 0.000000000000000000 ) ;
#97 = UNCERTAINTY_MEASURE_WITH_UNIT (LENGTH_MEASURE( 1.000000000000000082E-05 ), #182, 'distance_accuracy_value', 'NONE');
#98 = ADVANCED_FACE ( 'NONE', ( #138 ), #43, .T. ) ;
#99 = AXIS2_PLACEMENT_3D ( 'NONE', #174, #267, #240 ) ;
#100 =( GEOMETRIC_REPRESENTATION_CONTEXT ( 3 ) GLOBAL_UNCERTAINTY_ASSIGNED_CONTEXT ( ( #44 ) ) GLOBAL_UNIT_ASSIGNED_CONTEXT ( ( #257, #28, #235 ) ) REPRESENTATION_CONTEXT ( 'NONE', 'WORKASPACE' ) );
#101 = PLANE ( 'NONE',  #158 ) ;
#102 = DIRECTION ( 'NONE',  ( 0.000000000000000000, 0.000000000000000000, -1.000000000000000000 ) ) ;
#103 = PLANE ( 'NONE',  #275 ) ;
#104 = CARTESIAN_POINT ( 'NONE',  ( -0.1562500000000001110, 2.500000000000000000, 0.000000000000000000 ) ) ;
#105 = EDGE_CURVE ( 'NONE', #15, #45, #53, .T. ) ;
#106 = DIRECTION ( 'NONE',  ( 0.000000000000000000, -0.000000000000000000, 1.000000000000000000 ) ) ;
#107 = STYLED_ITEM ( 'NONE', ( #259 ), #121 ) ;
#108 = SHAPE_DEFINITION_REPRESENTATION ( #30, #236 ) ;
#109 = DIRECTION ( 'NONE',  ( -3.265724797726275178E-17, 1.000000000000000000, -0.000000000000000000 ) ) ;
#110 = FILL_AREA_STYLE_COLOUR ( '', #245 ) ;
#111 =( LENGTH_UNIT ( ) NAMED_UNIT ( * ) SI_UNIT ( $, .METRE. ) );
#112 = DIRECTION ( 'NONE',  ( 0.000000000000000000, 0.000000000000000000, -1.000000000000000000 ) ) ;
#113 = CIRCLE ( 'NONE', #99, 0.1562500000000000000 ) ;
#114 = VERTEX_POINT ( 'NONE', #285 ) ;
#115 = LENGTH_MEASURE_WITH_UNIT ( LENGTH_MEASURE( 0.02539999999999999897 ), #111 );
#116 = DIRECTION ( 'NONE',  ( -3.265724797726275178E-17, 1.000000000000000000, -0.000000000000000000 ) ) ;
#117 = DIRECTION ( 'NONE',  ( -3.265724797726275178E-17, 1.000000000000000000, -0.000000000000000000 ) ) ;
#118 = DIRECTION ( 'NONE',  ( -0.000000000000000000, -1.000000000000000000, -0.000000000000000000 ) ) ;
#119 = ORIENTED_EDGE ( 'NONE', *, *, #168, .F. ) ;
#120 = ADVANCED_FACE ( 'NONE', ( #284 ), #197, .T. ) ;
#121 = MANIFOLD_SOLID_BREP ( 'Revolve - Cutting Edge', #84 ) ;
#122 = ORIENTED_EDGE ( 'NONE', *, *, #243, .F. ) ;
#123 =( CONVERSION_BASED_UNIT ( 'INCH', #22 ) LENGTH_UNIT ( ) NAMED_UNIT ( #96 ) );
#124 = AXIS2_PLACEMENT_3D ( 'NONE', #265, #117, #81 ) ;
#125 = UNCERTAINTY_MEASURE_WITH_UNIT (LENGTH_MEASURE( 1.000000000000000082E-05 ), #73, 'distance_accuracy_value', 'NONE');
#126 = CARTESIAN_POINT ( 'NONE',  ( -6.123233995736766036E-17, 2.500000000000000000, 0.000000000000000000 ) ) ;
#127 = MECHANICAL_DESIGN_GEOMETRIC_PRESENTATION_REPRESENTATION (  '', ( #94 ), #27 ) ;
#128 = CARTESIAN_POINT ( 'NONE',  ( 0.000000000000000000, 0.6250000000000000000, -0.1562500000000000000 ) ) ;
#129 = APPLICATION_PROTOCOL_DEFINITION ( 'draft international standard', 'automotive_design', 1998, #51 ) ;
#130 = DIRECTION ( 'NONE',  ( -1.000000000000000000, -3.265724797726275178E-17, 0.000000000000000000 ) ) ;
#131 = LENGTH_MEASURE_WITH_UNIT ( LENGTH_MEASURE( 0.02539999999999999897 ), #72 );
#132 = PRESENTATION_LAYER_ASSIGNMENT (  '', '', ( #94 ) ) ;
#133 = STYLED_ITEM ( 'NONE', ( #233 ), #266 ) ;
#134 = ORIENTED_EDGE ( 'NONE', *, *, #202, .T. ) ;
#135 = CIRCLE ( 'NONE', #124, 0.1562500000000000833 ) ;
#136 = ADVANCED_FACE ( 'NONE', ( #252 ), #103, .F. ) ;
#137 = EDGE_LOOP ( 'NONE', ( #224, #34, #204, #122 ) ) ;
#138 = FACE_OUTER_BOUND ( 'NONE', #162, .T. ) ;
#139 = DIMENSIONAL_EXPONENTS ( 1.000000000000000000, 0.000000000000000000, 0.000000000000000000, 0.000000000000000000, 0.000000000000000000, 0.000000000000000000, 0.000000000000000000 ) ;
#140 = SURFACE_STYLE_FILL_AREA ( #42 ) ;
#141 = DIRECTION ( 'NONE',  ( -1.000000000000000000, 0.000000000000000000, 0.000000000000000000 ) ) ;
#142 = SURFACE_STYLE_FILL_AREA ( #283 ) ;
#143 = ADVANCED_FACE ( 'NONE', ( #192 ), #101, .F. ) ;
#144 = CIRCLE ( 'NONE', #304, 0.1562500000000000833 ) ;
#145 = FILL_AREA_STYLE ('',( #287 ) ) ;
#146 = PRODUCT_RELATED_PRODUCT_CATEGORY ( 'part', '', ( #190 ) ) ;
#147 = PRESENTATION_STYLE_ASSIGNMENT (( #260 ) ) ;
#148 =( GEOMETRIC_REPRESENTATION_CONTEXT ( 3 ) GLOBAL_UNCERTAINTY_ASSIGNED_CONTEXT ( ( #97 ) ) GLOBAL_UNIT_ASSIGNED_CONTEXT ( ( #182, #205, #270 ) ) REPRESENTATION_CONTEXT ( 'NONE', 'WORKASPACE' ) );
#149 = ORIENTED_EDGE ( 'NONE', *, *, #12, .T. ) ;
#150 = DIRECTION ( 'NONE',  ( -3.265724797726275178E-17, 1.000000000000000000, -0.000000000000000000 ) ) ;
#151 = ORIENTED_EDGE ( 'NONE', *, *, #93, .T. ) ;
#152 = CARTESIAN_POINT ( 'NONE',  ( -6.123233995736766036E-17, 2.500000000000000000, 0.000000000000000000 ) ) ;
#153 = ORIENTED_EDGE ( 'NONE', *, *, #194, .F. ) ;
#154 = DIRECTION ( 'NONE',  ( 1.000000000000000000, 3.265724797726275178E-17, 0.000000000000000000 ) ) ;
#155 = CARTESIAN_POINT ( 'NONE',  ( 1.913510623667739463E-17, 0.000000000000000000, 0.1562500000000000000 ) ) ;
#156 = MECHANICAL_DESIGN_GEOMETRIC_PRESENTATION_REPRESENTATION (  '', ( #215 ), #4 ) ;
#157 = CARTESIAN_POINT ( 'NONE',  ( -0.1562500000000000000, 0.6250000000000000000, 0.000000000000000000 ) ) ;
#158 = AXIS2_PLACEMENT_3D ( 'NONE', #195, #9, #154 ) ;
#159 = VECTOR ( 'NONE', #82, 39.37007874015748143 ) ;
#160 = DIMENSIONAL_EXPONENTS ( 1.000000000000000000, 0.000000000000000000, 0.000000000000000000, 0.000000000000000000, 0.000000000000000000, 0.000000000000000000, 0.000000000000000000 ) ;
#161 = VERTEX_POINT ( 'NONE', #222 ) ;
#162 = EDGE_LOOP ( 'NONE', ( #180, #95 ) ) ;
#163 = DIMENSIONAL_EXPONENTS ( 1.000000000000000000, 0.000000000000000000, 0.000000000000000000, 0.000000000000000000, 0.000000000000000000, 0.000000000000000000, 0.000000000000000000 ) ;
#164 =( LENGTH_UNIT ( ) NAMED_UNIT ( * ) SI_UNIT ( $, .METRE. ) );
#165 = LENGTH_MEASURE_WITH_UNIT ( LENGTH_MEASURE( 0.02539999999999999897 ), #216 );
#166 = SURFACE_STYLE_FILL_AREA ( #1 ) ;
#167 = SURFACE_SIDE_STYLE ('',( #76 ) ) ;
#168 = EDGE_CURVE ( 'NONE', #66, #181, #7, .T. ) ;
#169 =( GEOMETRIC_REPRESENTATION_CONTEXT ( 3 ) GLOBAL_UNCERTAINTY_ASSIGNED_CONTEXT ( ( #268 ) ) GLOBAL_UNIT_ASSIGNED_CONTEXT ( ( #80, #56, #67 ) ) REPRESENTATION_CONTEXT ( 'NONE', 'WORKASPACE' ) );
#170 = CIRCLE ( 'NONE', #48, 0.1562500000000000000 ) ;
#171 = AXIS2_PLACEMENT_3D ( 'NONE', #258, #307, #102 ) ;
#172 = CARTESIAN_POINT ( 'NONE',  ( 0.000000000000000000, 0.000000000000000000, 0.000000000000000000 ) ) ;
#173 =( CONVERSION_BASED_UNIT ( 'INCH', #3 ) LENGTH_UNIT ( ) NAMED_UNIT ( #139 ) );
#174 = CARTESIAN_POINT ( 'NONE',  ( 0.000000000000000000, 0.6250000000000000000, 0.000000000000000000 ) ) ;
#175 = FACE_OUTER_BOUND ( 'NONE', #253, .T. ) ;
#176 = CARTESIAN_POINT ( 'NONE',  ( 0.1562500000000000000, 2.500000000000000000, 1.913510623667739771E-17 ) ) ;
#177 = APPLICATION_CONTEXT ( 'automotive_design' ) ;
#178 = DIRECTION ( 'NONE',  ( -3.265724797726275178E-17, 1.000000000000000000, -0.000000000000000000 ) ) ;
#179 = EDGE_LOOP ( 'NONE', ( #183, #57 ) ) ;
#180 = ORIENTED_EDGE ( 'NONE', *, *, #61, .F. ) ;
#181 = VERTEX_POINT ( 'NONE', #176 ) ;
#182 =( CONVERSION_BASED_UNIT ( 'INCH', #115 ) LENGTH_UNIT ( ) NAMED_UNIT ( #160 ) );
#183 = ORIENTED_EDGE ( 'NONE', *, *, #225, .F. ) ;
#184 = DIRECTION ( 'NONE',  ( 0.000000000000000000, 0.000000000000000000, -1.000000000000000000 ) ) ;
#185 = MECHANICAL_DESIGN_GEOMETRIC_PRESENTATION_REPRESENTATION (  '', ( #133 ), #290 ) ;
#186 = FACE_OUTER_BOUND ( 'NONE', #137, .T. ) ;
#187 = COLOUR_RGB ( '',1.000000000000000000, 0.000000000000000000, 0.000000000000000000 ) ;
#188 = SURFACE_SIDE_STYLE ('',( #142 ) ) ;
#189 = ADVANCED_FACE ( 'NONE', ( #299 ), #272, .T. ) ;
#190 = PRODUCT ( '01257', '01257', '', ( #49 ) ) ;
#191 = DIRECTION ( 'NONE',  ( -3.265724797726275178E-17, 1.000000000000000000, -0.000000000000000000 ) ) ;
#192 = FACE_OUTER_BOUND ( 'NONE', #47, .T. ) ;
#193 = DIRECTION ( 'NONE',  ( -0.000000000000000000, -1.000000000000000000, -0.000000000000000000 ) ) ;
#194 = EDGE_CURVE ( 'NONE', #181, #45, #135, .T. ) ;
#195 = CARTESIAN_POINT ( 'NONE',  ( 0.1562500000000000000, 2.500000000000000000, 0.000000000000000000 ) ) ;
#196 = MECHANICAL_DESIGN_GEOMETRIC_PRESENTATION_REPRESENTATION (  '', ( #289 ), #169 ) ;
#197 = CYLINDRICAL_SURFACE ( 'NONE', #214, 0.1562500000000000278 ) ;
#198 = VECTOR ( 'NONE', #178, 39.37007874015748143 ) ;
#199 =( NAMED_UNIT ( * ) SI_UNIT ( $, .STERADIAN. ) SOLID_ANGLE_UNIT ( ) );
#200 = PRESENTATION_STYLE_ASSIGNMENT (( #256 ) ) ;
#201 = CARTESIAN_POINT ( 'NONE',  ( 0.000000000000000000, 0.6250000000000000000, 0.000000000000000000 ) ) ;
#202 = EDGE_CURVE ( 'NONE', #45, #181, #144, .T. ) ;
#203 = AXIS2_PLACEMENT_3D ( 'NONE', #248, #295, #90 ) ;
#204 = ORIENTED_EDGE ( 'NONE', *, *, #279, .T. ) ;
#205 =( NAMED_UNIT ( * ) PLANE_ANGLE_UNIT ( ) SI_UNIT ( $, .RADIAN. ) );
#206 = LINE ( 'NONE', #155, #31 ) ;
#207 = PRODUCT_DEFINITION_CONTEXT ( 'detailed design', #177, 'design' ) ;
#208 = CARTESIAN_POINT ( 'NONE',  ( 0.000000000000000000, 0.000000000000000000, 0.000000000000000000 ) ) ;
#209 = FACE_OUTER_BOUND ( 'NONE', #269, .T. ) ;
#210 = CARTESIAN_POINT ( 'NONE',  ( -0.1562500000000001388, 2.500000000000000000, 0.000000000000000000 ) ) ;
#211 = DIRECTION ( 'NONE',  ( -3.265724797726275178E-17, 1.000000000000000000, 0.000000000000000000 ) ) ;
#212 = EDGE_CURVE ( 'NONE', #21, #300, #113, .T. ) ;
#213 = MANIFOLD_SOLID_BREP ( 'Revolve - Tool Body (Straight Shanked)', #20 ) ;
#214 = AXIS2_PLACEMENT_3D ( 'NONE', #126, #308, #218 ) ;
#215 = STYLED_ITEM ( 'NONE', ( #200 ), #213 ) ;
#216 =( LENGTH_UNIT ( ) NAMED_UNIT ( * ) SI_UNIT ( $, .METRE. ) );
#217 =( NAMED_UNIT ( * ) SI_UNIT ( $, .STERADIAN. ) SOLID_ANGLE_UNIT ( ) );
#218 = DIRECTION ( 'NONE',  ( -1.000000000000000000, 0.000000000000000000, 0.000000000000000000 ) ) ;
#219 = DIRECTION ( 'NONE',  ( -0.000000000000000000, -1.000000000000000000, -0.000000000000000000 ) ) ;
#220 = LENGTH_MEASURE_WITH_UNIT ( LENGTH_MEASURE( 0.02539999999999999897 ), #264 );
#221 = DIRECTION ( 'NONE',  ( 0.000000000000000000, 0.000000000000000000, 1.000000000000000000 ) ) ;
#222 = CARTESIAN_POINT ( 'NONE',  ( 0.000000000000000000, 0.000000000000000000, -0.1562500000000000000 ) ) ;
#223 = AXIS2_PLACEMENT_3D ( 'NONE', #306, #221, #52 ) ;
#224 = ORIENTED_EDGE ( 'NONE', *, *, #93, .F. ) ;
#225 = EDGE_CURVE ( 'NONE', #15, #66, #64, .T. ) ;
#226 = PRESENTATION_LAYER_ASSIGNMENT (  '', '', ( #107 ) ) ;
#227 = ORIENTED_EDGE ( 'NONE', *, *, #194, .T. ) ;
#228 = EDGE_LOOP ( 'NONE', ( #231, #89, #91, #297 ) ) ;
#229 = FILL_AREA_STYLE_COLOUR ( '', #187 ) ;
#230 = UNCERTAINTY_MEASURE_WITH_UNIT (LENGTH_MEASURE( 1.000000000000000082E-05 ), #123, 'distance_accuracy_value', 'NONE');
#231 = ORIENTED_EDGE ( 'NONE', *, *, #225, .T. ) ;
#232 =( LENGTH_UNIT ( ) NAMED_UNIT ( * ) SI_UNIT ( $, .METRE. ) );
#233 = PRESENTATION_STYLE_ASSIGNMENT (( #254 ) ) ;
#234 = COLOUR_RGB ( '',0.7921568627450980005, 0.8196078431372548767, 0.9333333333333333481 ) ;
#235 =( NAMED_UNIT ( * ) SI_UNIT ( $, .STERADIAN. ) SOLID_ANGLE_UNIT ( ) );
#236 = ADVANCED_BREP_SHAPE_REPRESENTATION ( '01257', ( #121, #213, #223 ), #92 ) ;
#237 = AXIS2_PLACEMENT_3D ( 'NONE', #13, #116, #141 ) ;
#238 =( LENGTH_UNIT ( ) NAMED_UNIT ( * ) SI_UNIT ( $, .METRE. ) );
#239 =( NAMED_UNIT ( * ) PLANE_ANGLE_UNIT ( ) SI_UNIT ( $, .RADIAN. ) );
#240 = DIRECTION ( 'NONE',  ( 0.000000000000000000, 0.000000000000000000, -1.000000000000000000 ) ) ;
#241 = LINE ( 'NONE', #291, #159 ) ;
#242 = ORIENTED_EDGE ( 'NONE', *, *, #243, .T. ) ;
#243 = EDGE_CURVE ( 'NONE', #114, #161, #11, .T. ) ;
#244 = MECHANICAL_DESIGN_GEOMETRIC_PRESENTATION_REPRESENTATION (  '', ( #107 ), #100 ) ;
#245 = COLOUR_RGB ( '',0.7921568627450980005, 0.8196078431372548767, 0.9333333333333333481 ) ;
#246 = FILL_AREA_STYLE_COLOUR ( '', #74 ) ;
#247 = DIMENSIONAL_EXPONENTS ( 1.000000000000000000, 0.000000000000000000, 0.000000000000000000, 0.000000000000000000, 0.000000000000000000, 0.000000000000000000, 0.000000000000000000 ) ;
#248 = CARTESIAN_POINT ( 'NONE',  ( 0.000000000000000000, 0.000000000000000000, 0.000000000000000000 ) ) ;
#249 = CARTESIAN_POINT ( 'NONE',  ( 1.913510623667739463E-17, 0.6250000000000000000, 0.1562500000000000000 ) ) ;
#250 = DIMENSIONAL_EXPONENTS ( 1.000000000000000000, 0.000000000000000000, 0.000000000000000000, 0.000000000000000000, 0.000000000000000000, 0.000000000000000000, 0.000000000000000000 ) ;
#251 = PRESENTATION_STYLE_ASSIGNMENT (( #68 ) ) ;
#252 = FACE_OUTER_BOUND ( 'NONE', #179, .T. ) ;
#253 = EDGE_LOOP ( 'NONE', ( #276, #151, #17, #63 ) ) ;
#254 = SURFACE_STYLE_USAGE ( .BOTH. , #188 ) ;
#255 = CIRCLE ( 'NONE', #237, 0.1562500000000000000 ) ;
#256 = SURFACE_STYLE_USAGE ( .BOTH. , #8 ) ;
#257 =( CONVERSION_BASED_UNIT ( 'INCH', #165 ) LENGTH_UNIT ( ) NAMED_UNIT ( #250 ) );
#258 = CARTESIAN_POINT ( 'NONE',  ( 0.000000000000000000, 0.000000000000000000, 0.000000000000000000 ) ) ;
#259 = PRESENTATION_STYLE_ASSIGNMENT (( #288 ) ) ;
#260 = SURFACE_STYLE_USAGE ( .BOTH. , #167 ) ;
#261 = DIRECTION ( 'NONE',  ( 0.000000000000000000, 1.000000000000000000, 0.000000000000000000 ) ) ;
#262 = PRESENTATION_LAYER_ASSIGNMENT (  '', '', ( #215 ) ) ;
#263 = CYLINDRICAL_SURFACE ( 'NONE', #65, 0.1562500000000000000 ) ;
#264 =( LENGTH_UNIT ( ) NAMED_UNIT ( * ) SI_UNIT ( $, .METRE. ) );
#265 = CARTESIAN_POINT ( 'NONE',  ( -6.123233995736766036E-17, 2.500000000000000000, 0.000000000000000000 ) ) ;
#266 = ADVANCED_FACE ( 'NONE', ( #186 ), #280, .T. ) ;
#267 = DIRECTION ( 'NONE',  ( -0.000000000000000000, -1.000000000000000000, -0.000000000000000000 ) ) ;
#268 = UNCERTAINTY_MEASURE_WITH_UNIT (LENGTH_MEASURE( 1.000000000000000082E-05 ), #80, 'distance_accuracy_value', 'NONE');
#269 = EDGE_LOOP ( 'NONE', ( #149, #242 ) ) ;
#270 =( NAMED_UNIT ( * ) SI_UNIT ( $, .STERADIAN. ) SOLID_ANGLE_UNIT ( ) );
#271 = DIRECTION ( 'NONE',  ( -0.000000000000000000, -1.000000000000000000, -0.000000000000000000 ) ) ;
#272 = CYLINDRICAL_SURFACE ( 'NONE', #274, 0.1562500000000000278 ) ;
#273 = DIMENSIONAL_EXPONENTS ( 1.000000000000000000, 0.000000000000000000, 0.000000000000000000, 0.000000000000000000, 0.000000000000000000, 0.000000000000000000, 0.000000000000000000 ) ;
#274 = AXIS2_PLACEMENT_3D ( 'NONE', #152, #292, #14 ) ;
#275 = AXIS2_PLACEMENT_3D ( 'NONE', #46, #211, #130 ) ;
#276 = ORIENTED_EDGE ( 'NONE', *, *, #61, .T. ) ;
#277 = SURFACE_SIDE_STYLE ('',( #140 ) ) ;
#278 = LENGTH_MEASURE_WITH_UNIT ( LENGTH_MEASURE( 0.02539999999999999897 ), #232 );
#279 = EDGE_CURVE ( 'NONE', #300, #161, #241, .T. ) ;
#280 = CYLINDRICAL_SURFACE ( 'NONE', #77, 0.1562500000000000000 ) ;
#281 = FILL_AREA_STYLE ('',( #110 ) ) ;
#282 = PRESENTATION_LAYER_ASSIGNMENT (  '', '', ( #133 ) ) ;
#283 = FILL_AREA_STYLE ('',( #69 ) ) ;
#284 = FACE_OUTER_BOUND ( 'NONE', #228, .T. ) ;
#285 = CARTESIAN_POINT ( 'NONE',  ( 1.913510623667739463E-17, 0.000000000000000000, 0.1562500000000000000 ) ) ;
#286 =( NAMED_UNIT ( * ) SI_UNIT ( $, .STERADIAN. ) SOLID_ANGLE_UNIT ( ) );
#287 = FILL_AREA_STYLE_COLOUR ( '', #303 ) ;
#288 = SURFACE_STYLE_USAGE ( .BOTH. , #54 ) ;
#289 = STYLED_ITEM ( 'NONE', ( #147 ), #309 ) ;
#290 =( GEOMETRIC_REPRESENTATION_CONTEXT ( 3 ) GLOBAL_UNCERTAINTY_ASSIGNED_CONTEXT ( ( #86 ) ) GLOBAL_UNIT_ASSIGNED_CONTEXT ( ( #26, #239, #199 ) ) REPRESENTATION_CONTEXT ( 'NONE', 'WORKASPACE' ) );
#291 = CARTESIAN_POINT ( 'NONE',  ( 0.000000000000000000, 0.000000000000000000, -0.1562500000000000000 ) ) ;
#292 = DIRECTION ( 'NONE',  ( -3.265724797726275178E-17, 1.000000000000000000, -0.000000000000000000 ) ) ;
#293 = DIRECTION ( 'NONE',  ( 0.000000000000000000, 0.000000000000000000, -1.000000000000000000 ) ) ;
#294 = CARTESIAN_POINT ( 'NONE',  ( -6.123233995736766036E-17, 2.500000000000000000, 0.000000000000000000 ) ) ;
#295 = DIRECTION ( 'NONE',  ( 0.000000000000000000, -1.000000000000000000, -0.000000000000000000 ) ) ;
#296 = CIRCLE ( 'NONE', #78, 0.1562500000000000000 ) ;
#297 = ORIENTED_EDGE ( 'NONE', *, *, #105, .F. ) ;
#298 = ORIENTED_EDGE ( 'NONE', *, *, #105, .T. ) ;
#299 = FACE_OUTER_BOUND ( 'NONE', #87, .T. ) ;
#300 = VERTEX_POINT ( 'NONE', #128 ) ;
#301 = PLANE ( 'NONE',  #203 ) ;
#302 = STYLED_ITEM ( 'NONE', ( #85 ), #98 ) ;
#303 = COLOUR_RGB ( '',1.000000000000000000, 0.000000000000000000, 0.000000000000000000 ) ;
#304 = AXIS2_PLACEMENT_3D ( 'NONE', #294, #150, #83 ) ;
#305 = CARTESIAN_POINT ( 'NONE',  ( 0.000000000000000000, 0.000000000000000000, 0.000000000000000000 ) ) ;
#306 = CARTESIAN_POINT ( 'NONE',  ( 0.000000000000000000, 0.000000000000000000, 0.000000000000000000 ) ) ;
#307 = DIRECTION ( 'NONE',  ( -0.000000000000000000, -1.000000000000000000, -0.000000000000000000 ) ) ;
#308 = DIRECTION ( 'NONE',  ( -3.265724797726275178E-17, 1.000000000000000000, -0.000000000000000000 ) ) ;
#309 = ADVANCED_FACE ( 'NONE', ( #175 ), #263, .T. ) ;
ENDSEC;
END-ISO-10303-21;
