ISO-10303-21;
HEADER;
FILE_DESCRIPTION (( 'STEP AP214' ),
    '1' );
FILE_NAME ('48000.STEP',
    '2023-06-22T20:49:58',
    ( '' ),
    ( '' ),
    'SwSTEP 2.0',
    'SolidWorks 2023',
    '' );
FILE_SCHEMA (( 'AUTOMOTIVE_DESIGN' ));
ENDSEC;

DATA;
#1 = AXIS2_PLACEMENT_3D ( 'NONE', #233, #188, #6 ) ;
#2 = DIRECTION ( 'NONE',  ( 1.000000000000000000, -5.388445916248354013E-16, 0.000000000000000000 ) ) ;
#3 = DIRECTION ( 'NONE',  ( 5.388445916248354013E-16, 1.000000000000000000, -0.000000000000000000 ) ) ;
#4 = CARTESIAN_POINT ( 'NONE',  ( 0.000000000000000000, 0.000000000000000000, 0.000000000000000000 ) ) ;
#5 = SURFACE_STYLE_FILL_AREA ( #124 ) ;
#6 = DIRECTION ( 'NONE',  ( 0.000000000000000000, 0.000000000000000000, -1.000000000000000000 ) ) ;
#7 = AXIS2_PLACEMENT_3D ( 'NONE', #268, #196, #33 ) ;
#8 = ORIENTED_EDGE ( 'NONE', *, *, #141, .F. ) ;
#9 = DIMENSIONAL_EXPONENTS ( 1.000000000000000000, 0.000000000000000000, 0.000000000000000000, 0.000000000000000000, 0.000000000000000000, 0.000000000000000000, 0.000000000000000000 ) ;
#10 = COLOUR_RGB ( '',1.000000000000000000, 0.000000000000000000, 0.000000000000000000 ) ;
#11 = AXIS2_PLACEMENT_3D ( 'NONE', #25, #259, #67 ) ;
#12 = CARTESIAN_POINT ( 'NONE',  ( 7.654042494670959086E-18, 0.2499999999999998057, 0.06250000000000001388 ) ) ;
#13 = LENGTH_MEASURE_WITH_UNIT ( LENGTH_MEASURE( 0.02539999999999999897 ), #84 );
#14 = ORIENTED_EDGE ( 'NONE', *, *, #35, .F. ) ;
#15 = AXIS2_PLACEMENT_3D ( 'NONE', #19, #182, #17 ) ;
#16 =( CONVERSION_BASED_UNIT ( 'INCH', #249 ) LENGTH_UNIT ( ) NAMED_UNIT ( #221 ) );
#17 = DIRECTION ( 'NONE',  ( 0.000000000000000000, 0.000000000000000000, -1.000000000000000000 ) ) ;
#18 = LENGTH_MEASURE_WITH_UNIT ( LENGTH_MEASURE( 0.02539999999999999897 ), #131 );
#19 = CARTESIAN_POINT ( 'NONE',  ( 0.000000000000000000, 0.000000000000000000, 0.000000000000000000 ) ) ;
#20 =( GEOMETRIC_REPRESENTATION_CONTEXT ( 3 ) GLOBAL_UNCERTAINTY_ASSIGNED_CONTEXT ( ( #267 ) ) GLOBAL_UNIT_ASSIGNED_CONTEXT ( ( #16, #107, #82 ) ) REPRESENTATION_CONTEXT ( 'NONE', 'WORKASPACE' ) );
#21 = DIRECTION ( 'NONE',  ( 5.388445916248354013E-16, 1.000000000000000000, -0.000000000000000000 ) ) ;
#22 = DIRECTION ( 'NONE',  ( 0.000000000000000000, 0.000000000000000000, 1.000000000000000000 ) ) ;
#23 = UNCERTAINTY_MEASURE_WITH_UNIT (LENGTH_MEASURE( 1.000000000000000082E-05 ), #28, 'distance_accuracy_value', 'NONE');
#24 = ADVANCED_FACE ( 'NONE', ( #44 ), #109, .F. ) ;
#25 = CARTESIAN_POINT ( 'NONE',  ( 6.735557395310442023E-16, 1.499999999999999778, 0.000000000000000000 ) ) ;
#26 =( LENGTH_UNIT ( ) NAMED_UNIT ( * ) SI_UNIT ( $, .METRE. ) );
#27 = EDGE_CURVE ( 'NONE', #225, #277, #148, .T. ) ;
#28 =( CONVERSION_BASED_UNIT ( 'INCH', #237 ) LENGTH_UNIT ( ) NAMED_UNIT ( #193 ) );
#29 = SURFACE_STYLE_USAGE ( .BOTH. , #309 ) ;
#30 = DIRECTION ( 'NONE',  ( 5.388445916248354013E-16, 1.000000000000000000, -0.000000000000000000 ) ) ;
#31 = EDGE_CURVE ( 'NONE', #83, #225, #301, .T. ) ;
#32 =( GEOMETRIC_REPRESENTATION_CONTEXT ( 3 ) GLOBAL_UNCERTAINTY_ASSIGNED_CONTEXT ( ( #142 ) ) GLOBAL_UNIT_ASSIGNED_CONTEXT ( ( #58, #189, #48 ) ) REPRESENTATION_CONTEXT ( 'NONE', 'WORKASPACE' ) );
#33 = DIRECTION ( 'NONE',  ( 0.000000000000000000, 0.000000000000000000, -1.000000000000000000 ) ) ;
#34 = PRODUCT ( '48000', '48000', '', ( #296 ) ) ;
#35 = EDGE_CURVE ( 'NONE', #300, #258, #278, .T. ) ;
#36 = SURFACE_SIDE_STYLE ('',( #136 ) ) ;
#37 = PRESENTATION_LAYER_ASSIGNMENT (  '', '', ( #76 ) ) ;
#38 = AXIS2_PLACEMENT_3D ( 'NONE', #191, #73, #236 ) ;
#39 = FILL_AREA_STYLE ('',( #207 ) ) ;
#40 = DIRECTION ( 'NONE',  ( -0.000000000000000000, -1.000000000000000000, -0.000000000000000000 ) ) ;
#41 =( NAMED_UNIT ( * ) SI_UNIT ( $, .STERADIAN. ) SOLID_ANGLE_UNIT ( ) );
#42 = FACE_OUTER_BOUND ( 'NONE', #185, .T. ) ;
#43 = DIRECTION ( 'NONE',  ( 0.000000000000000000, 1.000000000000000000, 0.000000000000000000 ) ) ;
#44 = FACE_OUTER_BOUND ( 'NONE', #85, .T. ) ;
#45 = AXIS2_PLACEMENT_3D ( 'NONE', #95, #194, #168 ) ;
#46 = CARTESIAN_POINT ( 'NONE',  ( 0.06250000000000001388, 0.2499999999999997502, 7.654042494670939056E-18 ) ) ;
#47 = VERTEX_POINT ( 'NONE', #12 ) ;
#48 =( NAMED_UNIT ( * ) SI_UNIT ( $, .STERADIAN. ) SOLID_ANGLE_UNIT ( ) );
#49 = FILL_AREA_STYLE_COLOUR ( '', #10 ) ;
#50 = DIRECTION ( 'NONE',  ( -0.000000000000000000, -1.000000000000000000, -0.000000000000000000 ) ) ;
#51 = FILL_AREA_STYLE ('',( #49 ) ) ;
#52 = DIMENSIONAL_EXPONENTS ( 1.000000000000000000, 0.000000000000000000, 0.000000000000000000, 0.000000000000000000, 0.000000000000000000, 0.000000000000000000, 0.000000000000000000 ) ;
#53 = SURFACE_STYLE_USAGE ( .BOTH. , #294 ) ;
#54 = ADVANCED_BREP_SHAPE_REPRESENTATION ( '48000', ( #149, #159, #204 ), #245 ) ;
#55 = DIRECTION ( 'NONE',  ( -0.000000000000000000, -1.000000000000000000, -0.000000000000000000 ) ) ;
#56 = PRESENTATION_STYLE_ASSIGNMENT (( #275 ) ) ;
#57 = ORIENTED_EDGE ( 'NONE', *, *, #60, .T. ) ;
#58 =( CONVERSION_BASED_UNIT ( 'INCH', #13 ) LENGTH_UNIT ( ) NAMED_UNIT ( #173 ) );
#59 = DIRECTION ( 'NONE',  ( 5.388445916248354013E-16, 1.000000000000000000, -0.000000000000000000 ) ) ;
#60 = EDGE_CURVE ( 'NONE', #258, #300, #254, .T. ) ;
#61 = ORIENTED_EDGE ( 'NONE', *, *, #166, .T. ) ;
#62 = PRESENTATION_STYLE_ASSIGNMENT (( #264 ) ) ;
#63 = DIRECTION ( 'NONE',  ( -1.000000000000000000, 5.463695987328525451E-16, 0.000000000000000000 ) ) ;
#64 = MECHANICAL_DESIGN_GEOMETRIC_PRESENTATION_REPRESENTATION (  '', ( #172 ), #198 ) ;
#65 = UNCERTAINTY_MEASURE_WITH_UNIT (LENGTH_MEASURE( 1.000000000000000082E-05 ), #165, 'distance_accuracy_value', 'NONE');
#66 = ORIENTED_EDGE ( 'NONE', *, *, #27, .T. ) ;
#67 = DIRECTION ( 'NONE',  ( -1.000000000000000000, 0.000000000000000000, 0.000000000000000000 ) ) ;
#68 = UNCERTAINTY_MEASURE_WITH_UNIT (LENGTH_MEASURE( 1.000000000000000082E-05 ), #171, 'distance_accuracy_value', 'NONE');
#69 = CIRCLE ( 'NONE', #240, 0.06250000000000001388 ) ;
#70 = ADVANCED_FACE ( 'NONE', ( #42 ), #133, .T. ) ;
#71 = CARTESIAN_POINT ( 'NONE',  ( 0.06250000000000034694, 1.499999999999999778, 7.654042494670917485E-18 ) ) ;
#72 = SURFACE_STYLE_FILL_AREA ( #161 ) ;
#73 = DIRECTION ( 'NONE',  ( 5.388445916248354013E-16, 1.000000000000000000, -0.000000000000000000 ) ) ;
#74 = DIRECTION ( 'NONE',  ( 0.000000000000000000, 0.000000000000000000, -1.000000000000000000 ) ) ;
#75 = LENGTH_MEASURE_WITH_UNIT ( LENGTH_MEASURE( 0.02539999999999999897 ), #26 );
#76 = STYLED_ITEM ( 'NONE', ( #93 ), #78 ) ;
#77 = AXIS2_PLACEMENT_3D ( 'NONE', #210, #3, #137 ) ;
#78 = ADVANCED_FACE ( 'NONE', ( #163 ), #186, .T. ) ;
#79 = LINE ( 'NONE', #104, #130 ) ;
#80 = ORIENTED_EDGE ( 'NONE', *, *, #35, .T. ) ;
#81 = EDGE_CURVE ( 'NONE', #251, #178, #286, .T. ) ;
#82 =( NAMED_UNIT ( * ) SI_UNIT ( $, .STERADIAN. ) SOLID_ANGLE_UNIT ( ) );
#83 = VERTEX_POINT ( 'NONE', #283 ) ;
#84 =( LENGTH_UNIT ( ) NAMED_UNIT ( * ) SI_UNIT ( $, .METRE. ) );
#85 = EDGE_LOOP ( 'NONE', ( #14, #112 ) ) ;
#86 = EDGE_CURVE ( 'NONE', #47, #83, #102, .T. ) ;
#87 = ORIENTED_EDGE ( 'NONE', *, *, #250, .T. ) ;
#88 = CARTESIAN_POINT ( 'NONE',  ( 9.073546685104240443E-33, 0.2499999999999998057, 0.000000000000000000 ) ) ;
#89 = FILL_AREA_STYLE ('',( #110 ) ) ;
#90 = DIRECTION ( 'NONE',  ( -1.000000000000000000, 5.388445916248354013E-16, 0.000000000000000000 ) ) ;
#91 = PRESENTATION_LAYER_ASSIGNMENT (  '', '', ( #190 ) ) ;
#92 = LINE ( 'NONE', #71, #223 ) ;
#93 = PRESENTATION_STYLE_ASSIGNMENT (( #29 ) ) ;
#94 =( LENGTH_UNIT ( ) NAMED_UNIT ( * ) SI_UNIT ( $, .METRE. ) );
#95 = CARTESIAN_POINT ( 'NONE',  ( 0.000000000000000000, 0.000000000000000000, 0.000000000000000000 ) ) ;
#96 = PRODUCT_RELATED_PRODUCT_CATEGORY ( 'part', '', ( #34 ) ) ;
#97 = MECHANICAL_DESIGN_GEOMETRIC_PRESENTATION_REPRESENTATION (  '', ( #134 ), #222 ) ;
#98 =( NAMED_UNIT ( * ) PLANE_ANGLE_UNIT ( ) SI_UNIT ( $, .RADIAN. ) );
#99 = CARTESIAN_POINT ( 'NONE',  ( 0.06250000000000001388, 1.499999999999999778, 7.654042494670939056E-18 ) ) ;
#100 = SURFACE_STYLE_FILL_AREA ( #51 ) ;
#101 = SURFACE_SIDE_STYLE ('',( #5 ) ) ;
#102 = CIRCLE ( 'NONE', #1, 0.06250000000000001388 ) ;
#103 = LENGTH_MEASURE_WITH_UNIT ( LENGTH_MEASURE( 0.02539999999999999897 ), #127 );
#104 = CARTESIAN_POINT ( 'NONE',  ( 7.654042494670959086E-18, 0.000000000000000000, 0.06250000000000001388 ) ) ;
#105 = VECTOR ( 'NONE', #40, 39.37007874015748143 ) ;
#106 = PRESENTATION_LAYER_ASSIGNMENT (  '', '', ( #134 ) ) ;
#107 =( NAMED_UNIT ( * ) PLANE_ANGLE_UNIT ( ) SI_UNIT ( $, .RADIAN. ) );
#108 = EDGE_CURVE ( 'NONE', #47, #277, #79, .T. ) ;
#109 = PLANE ( 'NONE',  #202 ) ;
#110 = FILL_AREA_STYLE_COLOUR ( '', #218 ) ;
#111 = AXIS2_PLACEMENT_3D ( 'NONE', #235, #30, #211 ) ;
#112 = ORIENTED_EDGE ( 'NONE', *, *, #60, .F. ) ;
#113 = CARTESIAN_POINT ( 'NONE',  ( 0.000000000000000000, 0.2499999999999998057, 0.000000000000000000 ) ) ;
#114 = ORIENTED_EDGE ( 'NONE', *, *, #81, .T. ) ;
#115 = ADVANCED_FACE ( 'NONE', ( #243 ), #147, .T. ) ;
#116 = ORIENTED_EDGE ( 'NONE', *, *, #31, .T. ) ;
#117 = CARTESIAN_POINT ( 'NONE',  ( -0.06249999999999866773, 1.499999999999999778, 0.000000000000000000 ) ) ;
#118 = ORIENTED_EDGE ( 'NONE', *, *, #170, .T. ) ;
#119 = PRESENTATION_LAYER_ASSIGNMENT (  '', '', ( #303 ) ) ;
#120 = CARTESIAN_POINT ( 'NONE',  ( 0.000000000000000000, 0.000000000000000000, -0.06250000000000001388 ) ) ;
#121 = DIRECTION ( 'NONE',  ( 1.000000000000000000, 0.000000000000000000, 0.000000000000000000 ) ) ;
#122 =( NAMED_UNIT ( * ) PLANE_ANGLE_UNIT ( ) SI_UNIT ( $, .RADIAN. ) );
#123 = SURFACE_STYLE_USAGE ( .BOTH. , #287 ) ;
#124 = FILL_AREA_STYLE ('',( #150 ) ) ;
#125 = MECHANICAL_DESIGN_GEOMETRIC_PRESENTATION_REPRESENTATION (  '', ( #203 ), #32 ) ;
#126 = UNCERTAINTY_MEASURE_WITH_UNIT (LENGTH_MEASURE( 1.000000000000000082E-05 ), #226, 'distance_accuracy_value', 'NONE');
#127 =( LENGTH_UNIT ( ) NAMED_UNIT ( * ) SI_UNIT ( $, .METRE. ) );
#128 = DIMENSIONAL_EXPONENTS ( 1.000000000000000000, 0.000000000000000000, 0.000000000000000000, 0.000000000000000000, 0.000000000000000000, 0.000000000000000000, 0.000000000000000000 ) ;
#129 =( CONVERSION_BASED_UNIT ( 'INCH', #103 ) LENGTH_UNIT ( ) NAMED_UNIT ( #52 ) );
#130 = VECTOR ( 'NONE', #55, 39.37007874015748143 ) ;
#131 =( LENGTH_UNIT ( ) NAMED_UNIT ( * ) SI_UNIT ( $, .METRE. ) );
#132 = ORIENTED_EDGE ( 'NONE', *, *, #31, .F. ) ;
#133 = PLANE ( 'NONE',  #45 ) ;
#134 = STYLED_ITEM ( 'NONE', ( #260 ), #70 ) ;
#135 = DIRECTION ( 'NONE',  ( 5.388445916248354013E-16, 1.000000000000000000, -0.000000000000000000 ) ) ;
#136 = SURFACE_STYLE_FILL_AREA ( #39 ) ;
#137 = DIRECTION ( 'NONE',  ( -1.000000000000000000, 0.000000000000000000, 0.000000000000000000 ) ) ;
#138 = ORIENTED_EDGE ( 'NONE', *, *, #108, .F. ) ;
#139 =( NAMED_UNIT ( * ) SI_UNIT ( $, .STERADIAN. ) SOLID_ANGLE_UNIT ( ) );
#140 = COLOUR_RGB ( '',0.7921568627450980005, 0.8196078431372548767, 0.9333333333333333481 ) ;
#141 = EDGE_CURVE ( 'NONE', #300, #178, #292, .T. ) ;
#142 = UNCERTAINTY_MEASURE_WITH_UNIT (LENGTH_MEASURE( 1.000000000000000082E-05 ), #58, 'distance_accuracy_value', 'NONE');
#143 = CARTESIAN_POINT ( 'NONE',  ( 7.654042494670959086E-18, 0.000000000000000000, 0.06250000000000001388 ) ) ;
#144 = ADVANCED_FACE ( 'NONE', ( #174 ), #265, .T. ) ;
#145 = MECHANICAL_DESIGN_GEOMETRIC_PRESENTATION_REPRESENTATION (  '', ( #76 ), #293 ) ;
#146 = CIRCLE ( 'NONE', #77, 0.06249999999999934081 ) ;
#147 = CYLINDRICAL_SURFACE ( 'NONE', #7, 0.06250000000000001388 ) ;
#148 = CIRCLE ( 'NONE', #15, 0.06250000000000001388 ) ;
#149 = MANIFOLD_SOLID_BREP ( 'Revolve - Cutting Edge', #164 ) ;
#150 = FILL_AREA_STYLE_COLOUR ( '', #215 ) ;
#151 = PRODUCT_DEFINITION_SHAPE ( 'NONE', 'NONE',  #247 ) ;
#152 = DIRECTION ( 'NONE',  ( 5.388445916248354013E-16, 1.000000000000000000, -0.000000000000000000 ) ) ;
#153 = AXIS2_PLACEMENT_3D ( 'NONE', #4, #307, #239 ) ;
#154 = DIRECTION ( 'NONE',  ( 0.000000000000000000, -0.000000000000000000, 1.000000000000000000 ) ) ;
#155 = ORIENTED_EDGE ( 'NONE', *, *, #166, .F. ) ;
#156 = ORIENTED_EDGE ( 'NONE', *, *, #86, .F. ) ;
#157 = ORIENTED_EDGE ( 'NONE', *, *, #108, .T. ) ;
#158 = PRESENTATION_LAYER_ASSIGNMENT (  '', '', ( #172 ) ) ;
#159 = MANIFOLD_SOLID_BREP ( 'Revolve - Tool Body (Straight Shanked)', #252 ) ;
#160 = CIRCLE ( 'NONE', #241, 0.06250000000000001388 ) ;
#161 = FILL_AREA_STYLE ('',( #276 ) ) ;
#162 = ORIENTED_EDGE ( 'NONE', *, *, #81, .F. ) ;
#163 = FACE_OUTER_BOUND ( 'NONE', #179, .T. ) ;
#164 = CLOSED_SHELL ( 'NONE', ( #115, #144, #78, #70 ) ) ;
#165 =( CONVERSION_BASED_UNIT ( 'INCH', #216 ) LENGTH_UNIT ( ) NAMED_UNIT ( #262 ) );
#166 = EDGE_CURVE ( 'NONE', #83, #47, #69, .T. ) ;
#167 = CARTESIAN_POINT ( 'NONE',  ( 0.000000000000000000, 0.000000000000000000, 0.000000000000000000 ) ) ;
#168 = DIRECTION ( 'NONE',  ( 0.000000000000000000, 0.000000000000000000, -1.000000000000000000 ) ) ;
#169 = CARTESIAN_POINT ( 'NONE',  ( 0.06250000000000001388, 1.499999999999999778, 0.000000000000000000 ) ) ;
#170 = EDGE_CURVE ( 'NONE', #258, #251, #92, .T. ) ;
#171 =( CONVERSION_BASED_UNIT ( 'INCH', #75 ) LENGTH_UNIT ( ) NAMED_UNIT ( #9 ) );
#172 = STYLED_ITEM ( 'NONE', ( #269 ), #149 ) ;
#173 = DIMENSIONAL_EXPONENTS ( 1.000000000000000000, 0.000000000000000000, 0.000000000000000000, 0.000000000000000000, 0.000000000000000000, 0.000000000000000000, 0.000000000000000000 ) ;
#174 = FACE_OUTER_BOUND ( 'NONE', #224, .T. ) ;
#175 = VECTOR ( 'NONE', #152, 39.37007874015748143 ) ;
#176 =( NAMED_UNIT ( * ) SI_UNIT ( $, .STERADIAN. ) SOLID_ANGLE_UNIT ( ) );
#177 = CARTESIAN_POINT ( 'NONE',  ( 0.000000000000000000, 0.2499999999999998057, 0.000000000000000000 ) ) ;
#178 = VERTEX_POINT ( 'NONE', #117 ) ;
#179 = EDGE_LOOP ( 'NONE', ( #138, #302, #116, #280 ) ) ;
#180 = SURFACE_STYLE_FILL_AREA ( #89 ) ;
#181 = DIRECTION ( 'NONE',  ( -1.000000000000000000, 5.463695987328525451E-16, 0.000000000000000000 ) ) ;
#182 = DIRECTION ( 'NONE',  ( -0.000000000000000000, -1.000000000000000000, -0.000000000000000000 ) ) ;
#183 = MECHANICAL_DESIGN_GEOMETRIC_PRESENTATION_REPRESENTATION (  '', ( #303 ), #20 ) ;
#184 = AXIS2_PLACEMENT_3D ( 'NONE', #169, #289, #2 ) ;
#185 = EDGE_LOOP ( 'NONE', ( #66, #206 ) ) ;
#186 = CYLINDRICAL_SURFACE ( 'NONE', #153, 0.06250000000000001388 ) ;
#187 = CYLINDRICAL_SURFACE ( 'NONE', #11, 0.06249999999999967387 ) ;
#188 = DIRECTION ( 'NONE',  ( -0.000000000000000000, -1.000000000000000000, -0.000000000000000000 ) ) ;
#189 =( NAMED_UNIT ( * ) PLANE_ANGLE_UNIT ( ) SI_UNIT ( $, .RADIAN. ) );
#190 = STYLED_ITEM ( 'NONE', ( #220 ), #115 ) ;
#191 = CARTESIAN_POINT ( 'NONE',  ( 6.735557395310442023E-16, 1.499999999999999778, 0.000000000000000000 ) ) ;
#192 =( NAMED_UNIT ( * ) SI_UNIT ( $, .STERADIAN. ) SOLID_ANGLE_UNIT ( ) );
#193 = DIMENSIONAL_EXPONENTS ( 1.000000000000000000, 0.000000000000000000, 0.000000000000000000, 0.000000000000000000, 0.000000000000000000, 0.000000000000000000, 0.000000000000000000 ) ;
#194 = DIRECTION ( 'NONE',  ( 0.000000000000000000, -1.000000000000000000, -0.000000000000000000 ) ) ;
#195 = FILL_AREA_STYLE_COLOUR ( '', #299 ) ;
#196 = DIRECTION ( 'NONE',  ( -0.000000000000000000, -1.000000000000000000, -0.000000000000000000 ) ) ;
#197 = EDGE_CURVE ( 'NONE', #277, #225, #160, .T. ) ;
#198 =( GEOMETRIC_REPRESENTATION_CONTEXT ( 3 ) GLOBAL_UNCERTAINTY_ASSIGNED_CONTEXT ( ( #126 ) ) GLOBAL_UNIT_ASSIGNED_CONTEXT ( ( #226, #305, #41 ) ) REPRESENTATION_CONTEXT ( 'NONE', 'WORKASPACE' ) );
#199 = UNCERTAINTY_MEASURE_WITH_UNIT (LENGTH_MEASURE( 1.000000000000000082E-05 ), #129, 'distance_accuracy_value', 'NONE');
#200 = SURFACE_SIDE_STYLE ('',( #180 ) ) ;
#201 = CARTESIAN_POINT ( 'NONE',  ( -1.213184216936841517E-31, 0.2499999999999998057, 0.000000000000000000 ) ) ;
#202 = AXIS2_PLACEMENT_3D ( 'NONE', #88, #135, #90 ) ;
#203 = STYLED_ITEM ( 'NONE', ( #56 ), #159 ) ;
#204 = AXIS2_PLACEMENT_3D ( 'NONE', #234, #22, #121 ) ;
#205 = SURFACE_STYLE_USAGE ( .BOTH. , #36 ) ;
#206 = ORIENTED_EDGE ( 'NONE', *, *, #197, .T. ) ;
#207 = FILL_AREA_STYLE_COLOUR ( '', #140 ) ;
#208 = ORIENTED_EDGE ( 'NONE', *, *, #141, .T. ) ;
#209 = EDGE_LOOP ( 'NONE', ( #61, #157, #274, #132 ) ) ;
#210 = CARTESIAN_POINT ( 'NONE',  ( 6.735557395310442023E-16, 1.499999999999999778, 0.000000000000000000 ) ) ;
#211 = DIRECTION ( 'NONE',  ( -1.000000000000000000, 0.000000000000000000, 0.000000000000000000 ) ) ;
#212 = PLANE ( 'NONE',  #184 ) ;
#213 =( NAMED_UNIT ( * ) PLANE_ANGLE_UNIT ( ) SI_UNIT ( $, .RADIAN. ) );
#214 = CARTESIAN_POINT ( 'NONE',  ( -0.06250000000000001388, 0.2499999999999998335, 0.000000000000000000 ) ) ;
#215 = COLOUR_RGB ( '',1.000000000000000000, 0.000000000000000000, 0.000000000000000000 ) ;
#216 = LENGTH_MEASURE_WITH_UNIT ( LENGTH_MEASURE( 0.02539999999999999897 ), #285 );
#217 =( NAMED_UNIT ( * ) PLANE_ANGLE_UNIT ( ) SI_UNIT ( $, .RADIAN. ) );
#218 = COLOUR_RGB ( '',0.7921568627450980005, 0.8196078431372548767, 0.9333333333333333481 ) ;
#219 = PRODUCT_DEFINITION_FORMATION_WITH_SPECIFIED_SOURCE ( 'ANY', '', #34, .NOT_KNOWN. ) ;
#220 = PRESENTATION_STYLE_ASSIGNMENT (( #53 ) ) ;
#221 = DIMENSIONAL_EXPONENTS ( 1.000000000000000000, 0.000000000000000000, 0.000000000000000000, 0.000000000000000000, 0.000000000000000000, 0.000000000000000000, 0.000000000000000000 ) ;
#222 =( GEOMETRIC_REPRESENTATION_CONTEXT ( 3 ) GLOBAL_UNCERTAINTY_ASSIGNED_CONTEXT ( ( #65 ) ) GLOBAL_UNIT_ASSIGNED_CONTEXT ( ( #165, #213, #139 ) ) REPRESENTATION_CONTEXT ( 'NONE', 'WORKASPACE' ) );
#223 = VECTOR ( 'NONE', #21, 39.37007874015748143 ) ;
#224 = EDGE_LOOP ( 'NONE', ( #155, #156 ) ) ;
#225 = VERTEX_POINT ( 'NONE', #120 ) ;
#226 =( CONVERSION_BASED_UNIT ( 'INCH', #18 ) LENGTH_UNIT ( ) NAMED_UNIT ( #128 ) );
#227 = ORIENTED_EDGE ( 'NONE', *, *, #170, .F. ) ;
#228 = ADVANCED_FACE ( 'NONE', ( #257 ), #212, .F. ) ;
#229 = DIRECTION ( 'NONE',  ( 0.000000000000000000, 0.000000000000000000, -1.000000000000000000 ) ) ;
#230 = EDGE_LOOP ( 'NONE', ( #227, #57, #208, #162 ) ) ;
#231 = APPLICATION_PROTOCOL_DEFINITION ( 'draft international standard', 'automotive_design', 1998, #290 ) ;
#232 = COLOUR_RGB ( '',1.000000000000000000, 0.000000000000000000, 0.000000000000000000 ) ;
#233 = CARTESIAN_POINT ( 'NONE',  ( 0.000000000000000000, 0.2499999999999998057, 0.000000000000000000 ) ) ;
#234 = CARTESIAN_POINT ( 'NONE',  ( 0.000000000000000000, 0.000000000000000000, 0.000000000000000000 ) ) ;
#235 = CARTESIAN_POINT ( 'NONE',  ( 6.735557395310442023E-16, 1.499999999999999778, 0.000000000000000000 ) ) ;
#236 = DIRECTION ( 'NONE',  ( -1.000000000000000000, 0.000000000000000000, 0.000000000000000000 ) ) ;
#237 = LENGTH_MEASURE_WITH_UNIT ( LENGTH_MEASURE( 0.02539999999999999897 ), #94 );
#238 = PRESENTATION_LAYER_ASSIGNMENT (  '', '', ( #203 ) ) ;
#239 = DIRECTION ( 'NONE',  ( 0.000000000000000000, 0.000000000000000000, -1.000000000000000000 ) ) ;
#240 = AXIS2_PLACEMENT_3D ( 'NONE', #177, #284, #74 ) ;
#241 = AXIS2_PLACEMENT_3D ( 'NONE', #167, #50, #229 ) ;
#242 = FILL_AREA_STYLE ('',( #195 ) ) ;
#243 = FACE_OUTER_BOUND ( 'NONE', #209, .T. ) ;
#244 =( GEOMETRIC_REPRESENTATION_CONTEXT ( 3 ) GLOBAL_UNCERTAINTY_ASSIGNED_CONTEXT ( ( #199 ) ) GLOBAL_UNIT_ASSIGNED_CONTEXT ( ( #129, #217, #176 ) ) REPRESENTATION_CONTEXT ( 'NONE', 'WORKASPACE' ) );
#245 =( GEOMETRIC_REPRESENTATION_CONTEXT ( 3 ) GLOBAL_UNCERTAINTY_ASSIGNED_CONTEXT ( ( #23 ) ) GLOBAL_UNIT_ASSIGNED_CONTEXT ( ( #28, #122, #291 ) ) REPRESENTATION_CONTEXT ( 'NONE', 'WORKASPACE' ) );
#246 = CARTESIAN_POINT ( 'NONE',  ( 0.000000000000000000, 0.000000000000000000, -0.06250000000000001388 ) ) ;
#247 = PRODUCT_DEFINITION ( 'UNKNOWN', '', #219, #281 ) ;
#248 = DIRECTION ( 'NONE',  ( 5.388445916248354013E-16, 1.000000000000000000, -0.000000000000000000 ) ) ;
#249 = LENGTH_MEASURE_WITH_UNIT ( LENGTH_MEASURE( 0.02539999999999999897 ), #255 );
#250 = EDGE_CURVE ( 'NONE', #178, #251, #146, .T. ) ;
#251 = VERTEX_POINT ( 'NONE', #99 ) ;
#252 = CLOSED_SHELL ( 'NONE', ( #288, #24, #271, #228 ) ) ;
#253 = APPLICATION_CONTEXT ( 'automotive_design' ) ;
#254 = CIRCLE ( 'NONE', #263, 0.06250000000000001388 ) ;
#255 =( LENGTH_UNIT ( ) NAMED_UNIT ( * ) SI_UNIT ( $, .METRE. ) );
#256 = CARTESIAN_POINT ( 'NONE',  ( -1.213184216936841517E-31, 0.2499999999999998057, 0.000000000000000000 ) ) ;
#257 = FACE_OUTER_BOUND ( 'NONE', #304, .T. ) ;
#258 = VERTEX_POINT ( 'NONE', #46 ) ;
#259 = DIRECTION ( 'NONE',  ( 5.388445916248354013E-16, 1.000000000000000000, -0.000000000000000000 ) ) ;
#260 = PRESENTATION_STYLE_ASSIGNMENT (( #123 ) ) ;
#261 = FACE_OUTER_BOUND ( 'NONE', #270, .T. ) ;
#262 = DIMENSIONAL_EXPONENTS ( 1.000000000000000000, 0.000000000000000000, 0.000000000000000000, 0.000000000000000000, 0.000000000000000000, 0.000000000000000000, 0.000000000000000000 ) ;
#263 = AXIS2_PLACEMENT_3D ( 'NONE', #201, #248, #63 ) ;
#264 = SURFACE_STYLE_USAGE ( .BOTH. , #101 ) ;
#265 = PLANE ( 'NONE',  #279 ) ;
#266 = SURFACE_STYLE_FILL_AREA ( #242 ) ;
#267 = UNCERTAINTY_MEASURE_WITH_UNIT (LENGTH_MEASURE( 1.000000000000000082E-05 ), #16, 'distance_accuracy_value', 'NONE');
#268 = CARTESIAN_POINT ( 'NONE',  ( 0.000000000000000000, 0.000000000000000000, 0.000000000000000000 ) ) ;
#269 = PRESENTATION_STYLE_ASSIGNMENT (( #205 ) ) ;
#270 = EDGE_LOOP ( 'NONE', ( #80, #118, #306, #8 ) ) ;
#271 = ADVANCED_FACE ( 'NONE', ( #282 ), #187, .T. ) ;
#272 = MECHANICAL_DESIGN_GEOMETRIC_PRESENTATION_REPRESENTATION (  '', ( #190 ), #244 ) ;
#273 = APPLICATION_PROTOCOL_DEFINITION ( 'draft international standard', 'automotive_design', 1998, #253 ) ;
#274 = ORIENTED_EDGE ( 'NONE', *, *, #27, .F. ) ;
#275 = SURFACE_STYLE_USAGE ( .BOTH. , #200 ) ;
#276 = FILL_AREA_STYLE_COLOUR ( '', #232 ) ;
#277 = VERTEX_POINT ( 'NONE', #143 ) ;
#278 = CIRCLE ( 'NONE', #298, 0.06250000000000001388 ) ;
#279 = AXIS2_PLACEMENT_3D ( 'NONE', #113, #43, #154 ) ;
#280 = ORIENTED_EDGE ( 'NONE', *, *, #197, .F. ) ;
#281 = PRODUCT_DEFINITION_CONTEXT ( 'detailed design', #253, 'design' ) ;
#282 = FACE_OUTER_BOUND ( 'NONE', #230, .T. ) ;
#283 = CARTESIAN_POINT ( 'NONE',  ( 0.000000000000000000, 0.2499999999999998057, -0.06250000000000001388 ) ) ;
#284 = DIRECTION ( 'NONE',  ( -0.000000000000000000, -1.000000000000000000, -0.000000000000000000 ) ) ;
#285 =( LENGTH_UNIT ( ) NAMED_UNIT ( * ) SI_UNIT ( $, .METRE. ) );
#286 = CIRCLE ( 'NONE', #111, 0.06249999999999934081 ) ;
#287 = SURFACE_SIDE_STYLE ('',( #72 ) ) ;
#288 = ADVANCED_FACE ( 'NONE', ( #261 ), #308, .T. ) ;
#289 = DIRECTION ( 'NONE',  ( -5.388445916248354013E-16, -1.000000000000000000, 0.000000000000000000 ) ) ;
#290 = APPLICATION_CONTEXT ( 'automotive_design' ) ;
#291 =( NAMED_UNIT ( * ) SI_UNIT ( $, .STERADIAN. ) SOLID_ANGLE_UNIT ( ) );
#292 = LINE ( 'NONE', #297, #175 ) ;
#293 =( GEOMETRIC_REPRESENTATION_CONTEXT ( 3 ) GLOBAL_UNCERTAINTY_ASSIGNED_CONTEXT ( ( #68 ) ) GLOBAL_UNIT_ASSIGNED_CONTEXT ( ( #171, #98, #192 ) ) REPRESENTATION_CONTEXT ( 'NONE', 'WORKASPACE' ) );
#294 = SURFACE_SIDE_STYLE ('',( #266 ) ) ;
#295 = SHAPE_DEFINITION_REPRESENTATION ( #151, #54 ) ;
#296 = PRODUCT_CONTEXT ( 'NONE', #290, 'mechanical' ) ;
#297 = CARTESIAN_POINT ( 'NONE',  ( -0.06249999999999900080, 1.499999999999999778, 0.000000000000000000 ) ) ;
#298 = AXIS2_PLACEMENT_3D ( 'NONE', #256, #59, #181 ) ;
#299 = COLOUR_RGB ( '',1.000000000000000000, 0.000000000000000000, 0.000000000000000000 ) ;
#300 = VERTEX_POINT ( 'NONE', #214 ) ;
#301 = LINE ( 'NONE', #246, #105 ) ;
#302 = ORIENTED_EDGE ( 'NONE', *, *, #86, .T. ) ;
#303 = STYLED_ITEM ( 'NONE', ( #62 ), #144 ) ;
#304 = EDGE_LOOP ( 'NONE', ( #87, #114 ) ) ;
#305 =( NAMED_UNIT ( * ) PLANE_ANGLE_UNIT ( ) SI_UNIT ( $, .RADIAN. ) );
#306 = ORIENTED_EDGE ( 'NONE', *, *, #250, .F. ) ;
#307 = DIRECTION ( 'NONE',  ( -0.000000000000000000, -1.000000000000000000, -0.000000000000000000 ) ) ;
#308 = CYLINDRICAL_SURFACE ( 'NONE', #38, 0.06249999999999967387 ) ;
#309 = SURFACE_SIDE_STYLE ('',( #100 ) ) ;
ENDSEC;
END-ISO-10303-21;
