ISO-10303-21;
HEADER;
FILE_DESCRIPTION (( 'STEP AP214' ),
    '1' );
FILE_NAME ('Micro_RMEM-011-2.STEP',
    '2021-09-01T23:54:05',
    ( '' ),
    ( '' ),
    'SwSTEP 2.0',
    'SolidWorks 2020',
    '' );
FILE_SCHEMA (( 'AUTOMOTIVE_DESIGN' ));
ENDSEC;

DATA;
#1 = ORIENTED_EDGE ( 'NONE', *, *, #106, .F. ) ;
#2 = CARTESIAN_POINT ( 'NONE',  ( -0.05905499999999996169, 0.0000000000000000000, 0.3421582500773117097 ) ) ;
#3 = CARTESIAN_POINT ( 'NONE',  ( 0.0000000000000000000, 0.0000000000000000000, 1.496062999999999921 ) ) ;
#4 = CARTESIAN_POINT ( 'NONE',  ( -0.02163184649999999945, 0.0000000000000000000, 2.649137157587187450E-18 ) ) ;
#5 = LINE ( 'NONE', #4, #52 ) ;
#6 = VECTOR ( 'NONE', #266, 39.37007874015748143 ) ;
#7 = CARTESIAN_POINT ( 'NONE',  ( 0.0000000000000000000, 0.0000000000000000000, 1.481062999999999574 ) ) ;
#8 = LINE ( 'NONE', #102, #270 ) ;
#9 = MECHANICAL_DESIGN_GEOMETRIC_PRESENTATION_REPRESENTATION (  '', ( #287 ), #131 ) ;
#10 = DIRECTION ( 'NONE',  ( -1.224646799147353207E-16, -0.0000000000000000000, -1.000000000000000000 ) ) ;
#11 = APPLICATION_CONTEXT ( 'automotive_design' ) ;
#12 = ORIENTED_EDGE ( 'NONE', *, *, #173, .T. ) ;
#13 = ADVANCED_FACE ( 'NONE', ( #46 ), #155, .T. ) ;
#14 = CARTESIAN_POINT ( 'NONE',  ( 0.04405499999999973326, 5.395181473643630390E-18, 1.496062999999999921 ) ) ;
#15 =( GEOMETRIC_REPRESENTATION_CONTEXT ( 3 ) GLOBAL_UNCERTAINTY_ASSIGNED_CONTEXT ( ( #197 ) ) GLOBAL_UNIT_ASSIGNED_CONTEXT ( ( #265, #181, #38 ) ) REPRESENTATION_CONTEXT ( 'NONE', 'WORKASPACE' ) );
#16 = CIRCLE ( 'NONE', #175, 0.02163184649999999945 ) ;
#17 = DIRECTION ( 'NONE',  ( -1.000000000000000000, 0.0000000000000000000, 0.0000000000000000000 ) ) ;
#18 =( NAMED_UNIT ( * ) SI_UNIT ( $, .STERADIAN. ) SOLID_ANGLE_UNIT ( ) );
#19 = EDGE_LOOP ( 'NONE', ( #188, #12, #277, #166 ) ) ;
#20 = PRESENTATION_STYLE_ASSIGNMENT (( #210 ) ) ;
#21 = ORIENTED_EDGE ( 'NONE', *, *, #179, .T. ) ;
#22 = AXIS2_PLACEMENT_3D ( 'NONE', #3, #87, #143 ) ;
#23 = AXIS2_PLACEMENT_3D ( 'NONE', #130, #268, #178 ) ;
#24 = VERTEX_POINT ( 'NONE', #145 ) ;
#25 = CYLINDRICAL_SURFACE ( 'NONE', #160, 0.05905500000000000332 ) ;
#26 = CARTESIAN_POINT ( 'NONE',  ( 0.0000000000000000000, 0.0000000000000000000, 1.496062999999999921 ) ) ;
#27 = EDGE_CURVE ( 'NONE', #79, #254, #235, .T. ) ;
#28 = CIRCLE ( 'NONE', #31, 0.04405499999999973326 ) ;
#29 = DIRECTION ( 'NONE',  ( 1.000000000000000000, 0.0000000000000000000, 0.0000000000000000000 ) ) ;
#30 = CARTESIAN_POINT ( 'NONE',  ( 4.190230057590394034E-17, 0.0000000000000000000, 0.3421582500773117097 ) ) ;
#31 = AXIS2_PLACEMENT_3D ( 'NONE', #278, #283, #192 ) ;
#32 = ADVANCED_FACE ( 'NONE', ( #237 ), #25, .T. ) ;
#33 =( LENGTH_UNIT ( ) NAMED_UNIT ( * ) SI_UNIT ( $, .METRE. ) );
#34 = DIRECTION ( 'NONE',  ( 1.224646799147353207E-16, 0.0000000000000000000, 1.000000000000000000 ) ) ;
#35 = DIRECTION ( 'NONE',  ( -0.1736481776669312194, 2.126576849575783625E-17, 0.9848077530122080203 ) ) ;
#36 = AXIS2_PLACEMENT_3D ( 'NONE', #183, #190, #138 ) ;
#37 = CARTESIAN_POINT ( 'NONE',  ( -0.05905500000000000332, 0.0000000000000000000, 1.481062999999999574 ) ) ;
#38 =( NAMED_UNIT ( * ) SI_UNIT ( $, .STERADIAN. ) SOLID_ANGLE_UNIT ( ) );
#39 = FACE_OUTER_BOUND ( 'NONE', #187, .T. ) ;
#40 = CIRCLE ( 'NONE', #247, 0.02163184649999999945 ) ;
#41 = ORIENTED_EDGE ( 'NONE', *, *, #286, .T. ) ;
#42 = EDGE_LOOP ( 'NONE', ( #164, #88, #165, #233 ) ) ;
#43 = VERTEX_POINT ( 'NONE', #2 ) ;
#44 = AXIS2_PLACEMENT_3D ( 'NONE', #249, #10, #205 ) ;
#45 = ORIENTED_EDGE ( 'NONE', *, *, #63, .F. ) ;
#46 = FACE_OUTER_BOUND ( 'NONE', #139, .T. ) ;
#47 = SURFACE_SIDE_STYLE ('',( #240 ) ) ;
#48 = DIRECTION ( 'NONE',  ( 1.000000000000000000, 0.0000000000000000000, 0.0000000000000000000 ) ) ;
#49 = PRODUCT_DEFINITION_SHAPE ( 'NONE', 'NONE',  #170 ) ;
#50 = FILL_AREA_STYLE_COLOUR ( '', #298 ) ;
#51 = SURFACE_STYLE_USAGE ( .BOTH. , #47 ) ;
#52 = VECTOR ( 'NONE', #99, 39.37007874015748143 ) ;
#53 = DIRECTION ( 'NONE',  ( -1.224646799147353207E-16, -0.0000000000000000000, -1.000000000000000000 ) ) ;
#54 = DIRECTION ( 'NONE',  ( -0.0000000000000000000, -0.0000000000000000000, -1.000000000000000000 ) ) ;
#55 = ADVANCED_FACE ( 'NONE', ( #215 ), #61, .T. ) ;
#56 = CARTESIAN_POINT ( 'NONE',  ( 0.05905500000000004496, 7.232151672364700045E-18, 0.3421582500773117097 ) ) ;
#57 = AXIS2_PLACEMENT_3D ( 'NONE', #154, #285, #264 ) ;
#58 = CARTESIAN_POINT ( 'NONE',  ( 0.0000000000000000000, 0.0000000000000000000, 1.496062999999999921 ) ) ;
#59 = DIMENSIONAL_EXPONENTS ( 1.000000000000000000, 0.0000000000000000000, 0.0000000000000000000, 0.0000000000000000000, 0.0000000000000000000, 0.0000000000000000000, 0.0000000000000000000 ) ;
#60 = ORIENTED_EDGE ( 'NONE', *, *, #222, .F. ) ;
#61 = CONICAL_SURFACE ( 'NONE', #36, 0.04405499999999973326, 0.7853981633974491672 ) ;
#62 = ORIENTED_EDGE ( 'NONE', *, *, #132, .F. ) ;
#63 = EDGE_CURVE ( 'NONE', #64, #105, #5, .T. ) ;
#64 = VERTEX_POINT ( 'NONE', #126 ) ;
#65 = ORIENTED_EDGE ( 'NONE', *, *, #212, .T. ) ;
#66 = CIRCLE ( 'NONE', #57, 0.04405499999999973326 ) ;
#67 = EDGE_LOOP ( 'NONE', ( #21, #161, #1, #45 ) ) ;
#68 = DIRECTION ( 'NONE',  ( -1.000000000000000000, 0.0000000000000000000, 1.224646799147353207E-16 ) ) ;
#69 = CARTESIAN_POINT ( 'NONE',  ( 3.244257340541466344E-34, 0.0000000000000000000, 2.649137157587187450E-18 ) ) ;
#70 = AXIS2_PLACEMENT_3D ( 'NONE', #58, #54, #17 ) ;
#71 = DIRECTION ( 'NONE',  ( 1.000000000000000000, 0.0000000000000000000, -0.0000000000000000000 ) ) ;
#72 = EDGE_CURVE ( 'NONE', #291, #257, #28, .T. ) ;
#73 =( CONVERSION_BASED_UNIT ( 'INCH', #284 ) LENGTH_UNIT ( ) NAMED_UNIT ( #107 ) );
#74 = STYLED_ITEM ( 'NONE', ( #167 ), #110 ) ;
#75 = DIRECTION ( 'NONE',  ( 1.224646799147353207E-16, 0.0000000000000000000, 1.000000000000000000 ) ) ;
#76 = CARTESIAN_POINT ( 'NONE',  ( 0.04405499999999973326, 6.313666573004162521E-18, 1.496062999999999921 ) ) ;
#77 = PLANE ( 'NONE',  #282 ) ;
#78 = AXIS2_PLACEMENT_3D ( 'NONE', #30, #53, #48 ) ;
#79 = VERTEX_POINT ( 'NONE', #174 ) ;
#80 = ADVANCED_FACE ( 'NONE', ( #124 ), #150, .T. ) ;
#81 = LINE ( 'NONE', #14, #251 ) ;
#82 = EDGE_LOOP ( 'NONE', ( #272, #94, #112, #119 ) ) ;
#83 = SURFACE_STYLE_FILL_AREA ( #186 ) ;
#84 = ADVANCED_FACE ( 'NONE', ( #191 ), #98, .T. ) ;
#85 = CARTESIAN_POINT ( 'NONE',  ( 0.05905500000000000332, 7.232151672364695422E-18, 1.496062999999999921 ) ) ;
#86 = UNCERTAINTY_MEASURE_WITH_UNIT (LENGTH_MEASURE( 1.000000000000000082E-05 ), #73, 'distance_accuracy_value', 'NONE');
#87 = DIRECTION ( 'NONE',  ( 0.0000000000000000000, 0.0000000000000000000, -1.000000000000000000 ) ) ;
#88 = ORIENTED_EDGE ( 'NONE', *, *, #136, .F. ) ;
#89 = FILL_AREA_STYLE_COLOUR ( '', #109 ) ;
#90 = ORIENTED_EDGE ( 'NONE', *, *, #27, .T. ) ;
#91 = AXIS2_PLACEMENT_3D ( 'NONE', #260, #279, #121 ) ;
#92 = PRODUCT_DEFINITION_FORMATION_WITH_SPECIFIED_SOURCE ( 'ANY', '', #172, .NOT_KNOWN. ) ;
#93 = EDGE_CURVE ( 'NONE', #43, #254, #230, .T. ) ;
#94 = ORIENTED_EDGE ( 'NONE', *, *, #243, .T. ) ;
#95 = CARTESIAN_POINT ( 'NONE',  ( 0.0000000000000000000, 0.0000000000000000000, 0.0000000000000000000 ) ) ;
#96 = DIRECTION ( 'NONE',  ( -1.224646799147353207E-16, -0.0000000000000000000, -1.000000000000000000 ) ) ;
#97 =( GEOMETRIC_REPRESENTATION_CONTEXT ( 3 ) GLOBAL_UNCERTAINTY_ASSIGNED_CONTEXT ( ( #86 ) ) GLOBAL_UNIT_ASSIGNED_CONTEXT ( ( #73, #224, #122 ) ) REPRESENTATION_CONTEXT ( 'NONE', 'WORKASPACE' ) );
#98 = PLANE ( 'NONE',  #135 ) ;
#99 = DIRECTION ( 'NONE',  ( -1.224646799147353207E-16, -0.0000000000000000000, -1.000000000000000000 ) ) ;
#100 = DIRECTION ( 'NONE',  ( -1.000000000000000000, 0.0000000000000000000, 1.224646799147353207E-16 ) ) ;
#101 = AXIS2_PLACEMENT_3D ( 'NONE', #228, #34, #250 ) ;
#102 = CARTESIAN_POINT ( 'NONE',  ( -0.05905500000000000332, 0.0000000000000000000, 1.496062999999999921 ) ) ;
#103 = CARTESIAN_POINT ( 'NONE',  ( 0.0000000000000000000, 0.0000000000000000000, 0.0000000000000000000 ) ) ;
#104 = CARTESIAN_POINT ( 'NONE',  ( 1.591073367920233116E-17, 0.0000000000000000000, 0.1299210000000000087 ) ) ;
#105 = VERTEX_POINT ( 'NONE', #262 ) ;
#106 = EDGE_CURVE ( 'NONE', #105, #24, #216, .T. ) ;
#107 = DIMENSIONAL_EXPONENTS ( 1.000000000000000000, 0.0000000000000000000, 0.0000000000000000000, 0.0000000000000000000, 0.0000000000000000000, 0.0000000000000000000, 0.0000000000000000000 ) ;
#108 = LINE ( 'NONE', #288, #180 ) ;
#109 = COLOUR_RGB ( '',0.7921568627450980005, 0.8196078431372548767, 0.9333333333333333481 ) ;
#110 = MANIFOLD_SOLID_BREP ( 'Cut-Revolve1', #128 ) ;
#111 = APPLICATION_PROTOCOL_DEFINITION ( 'draft international standard', 'automotive_design', 1998, #220 ) ;
#112 = ORIENTED_EDGE ( 'NONE', *, *, #93, .T. ) ;
#113 = ORIENTED_EDGE ( 'NONE', *, *, #286, .F. ) ;
#114 = AXIS2_PLACEMENT_3D ( 'NONE', #219, #75, #201 ) ;
#115 = ORIENTED_EDGE ( 'NONE', *, *, #27, .F. ) ;
#116 = SHAPE_DEFINITION_REPRESENTATION ( #49, #194 ) ;
#117 = DIRECTION ( 'NONE',  ( -0.0000000000000000000, -0.0000000000000000000, -1.000000000000000000 ) ) ;
#118 = EDGE_CURVE ( 'NONE', #162, #254, #195, .T. ) ;
#119 = ORIENTED_EDGE ( 'NONE', *, *, #118, .F. ) ;
#120 = FACE_OUTER_BOUND ( 'NONE', #82, .T. ) ;
#121 = DIRECTION ( 'NONE',  ( 1.000000000000000000, 0.0000000000000000000, 0.0000000000000000000 ) ) ;
#122 =( NAMED_UNIT ( * ) SI_UNIT ( $, .STERADIAN. ) SOLID_ANGLE_UNIT ( ) );
#123 = VECTOR ( 'NONE', #221, 39.37007874015748143 ) ;
#124 = FACE_OUTER_BOUND ( 'NONE', #295, .T. ) ;
#125 = UNCERTAINTY_MEASURE_WITH_UNIT (LENGTH_MEASURE( 1.000000000000000082E-05 ), #269, 'distance_accuracy_value', 'NONE');
#126 = CARTESIAN_POINT ( 'NONE',  ( -0.02163184649999998210, 4.940644414975941051E-18, 0.1299210000000000087 ) ) ;
#127 = CARTESIAN_POINT ( 'NONE',  ( 0.02163184650000001680, 0.0000000000000000000, 0.1299210000000000087 ) ) ;
#128 = CLOSED_SHELL ( 'NONE', ( #217, #152, #55, #32, #241, #84, #13, #280, #80, #189 ) ) ;
#129 = AXIS2_PLACEMENT_3D ( 'NONE', #95, #281, #149 ) ;
#130 = CARTESIAN_POINT ( 'NONE',  ( 0.0000000000000000000, 0.0000000000000000000, 1.481062999999999574 ) ) ;
#131 =( GEOMETRIC_REPRESENTATION_CONTEXT ( 3 ) GLOBAL_UNCERTAINTY_ASSIGNED_CONTEXT ( ( #125 ) ) GLOBAL_UNIT_ASSIGNED_CONTEXT ( ( #269, #274, #18 ) ) REPRESENTATION_CONTEXT ( 'NONE', 'WORKASPACE' ) );
#132 = EDGE_CURVE ( 'NONE', #254, #43, #263, .T. ) ;
#133 = FACE_OUTER_BOUND ( 'NONE', #42, .T. ) ;
#134 = LINE ( 'NONE', #226, #6 ) ;
#135 = AXIS2_PLACEMENT_3D ( 'NONE', #148, #171, #71 ) ;
#136 = EDGE_CURVE ( 'NONE', #162, #64, #40, .T. ) ;
#137 = ORIENTED_EDGE ( 'NONE', *, *, #173, .F. ) ;
#138 = DIRECTION ( 'NONE',  ( -1.000000000000000000, 0.0000000000000000000, 0.0000000000000000000 ) ) ;
#139 = EDGE_LOOP ( 'NONE', ( #137, #234, #65, #258 ) ) ;
#140 = AXIS2_PLACEMENT_3D ( 'NONE', #69, #196, #68 ) ;
#141 = PRODUCT_CONTEXT ( 'NONE', #11, 'mechanical' ) ;
#142 = EDGE_CURVE ( 'NONE', #24, #105, #16, .T. ) ;
#143 = DIRECTION ( 'NONE',  ( -1.000000000000000000, 0.0000000000000000000, 0.0000000000000000000 ) ) ;
#144 = DIRECTION ( 'NONE',  ( 0.0000000000000000000, 0.0000000000000000000, 1.000000000000000000 ) ) ;
#145 = CARTESIAN_POINT ( 'NONE',  ( 0.02163184649999999945, 2.649137157587187450E-18, 0.0000000000000000000 ) ) ;
#146 = PRESENTATION_LAYER_ASSIGNMENT (  '', '', ( #287 ) ) ;
#147 = EDGE_CURVE ( 'NONE', #255, #79, #156, .T. ) ;
#148 = CARTESIAN_POINT ( 'NONE',  ( 0.0000000000000000000, 0.0000000000000000000, 1.496062999999999921 ) ) ;
#149 = DIRECTION ( 'NONE',  ( -1.000000000000000000, 0.0000000000000000000, 1.224646799147353207E-16 ) ) ;
#150 = CYLINDRICAL_SURFACE ( 'NONE', #129, 0.02163184649999999945 ) ;
#151 = CIRCLE ( 'NONE', #23, 0.05905500000000000332 ) ;
#152 = ADVANCED_FACE ( 'NONE', ( #120 ), #200, .T. ) ;
#153 = DIRECTION ( 'NONE',  ( -1.000000000000000000, 0.0000000000000000000, 0.0000000000000000000 ) ) ;
#154 = CARTESIAN_POINT ( 'NONE',  ( 0.0000000000000000000, 0.0000000000000000000, 1.496062999999999921 ) ) ;
#155 = CONICAL_SURFACE ( 'NONE', #22, 0.04405499999999973326, 0.7853981633974491672 ) ;
#156 = CIRCLE ( 'NONE', #293, 0.05905500000000000332 ) ;
#157 = DIRECTION ( 'NONE',  ( -1.224646799147353207E-16, -0.0000000000000000000, -1.000000000000000000 ) ) ;
#158 = DIRECTION ( 'NONE',  ( -0.7071067811865482389, 0.0000000000000000000, -0.7071067811865469066 ) ) ;
#159 = CYLINDRICAL_SURFACE ( 'NONE', #44, 0.02163184649999999945 ) ;
#160 = AXIS2_PLACEMENT_3D ( 'NONE', #26, #117, #214 ) ;
#161 = ORIENTED_EDGE ( 'NONE', *, *, #222, .T. ) ;
#162 = VERTEX_POINT ( 'NONE', #127 ) ;
#163 = CARTESIAN_POINT ( 'NONE',  ( 0.0000000000000000000, 0.0000000000000000000, 0.0000000000000000000 ) ) ;
#164 = ORIENTED_EDGE ( 'NONE', *, *, #243, .F. ) ;
#165 = ORIENTED_EDGE ( 'NONE', *, *, #118, .T. ) ;
#166 = ORIENTED_EDGE ( 'NONE', *, *, #212, .F. ) ;
#167 = PRESENTATION_STYLE_ASSIGNMENT (( #51 ) ) ;
#168 = DIRECTION ( 'NONE',  ( -1.224646799147353207E-16, -0.0000000000000000000, -1.000000000000000000 ) ) ;
#169 = PRESENTATION_LAYER_ASSIGNMENT (  '', '', ( #74 ) ) ;
#170 = PRODUCT_DEFINITION ( 'UNKNOWN', '', #92, #223 ) ;
#171 = DIRECTION ( 'NONE',  ( 0.0000000000000000000, 0.0000000000000000000, 1.000000000000000000 ) ) ;
#172 = PRODUCT ( 'Micro_RMEM-011-2', 'Micro_RMEM-011-2', '', ( #141 ) ) ;
#173 = EDGE_CURVE ( 'NONE', #291, #79, #81, .T. ) ;
#174 = CARTESIAN_POINT ( 'NONE',  ( 0.05905500000000000332, 7.232151672364695422E-18, 1.481062999999999574 ) ) ;
#175 = AXIS2_PLACEMENT_3D ( 'NONE', #225, #96, #100 ) ;
#176 = DIRECTION ( 'NONE',  ( 1.000000000000000000, 0.0000000000000000000, -0.0000000000000000000 ) ) ;
#177 = LENGTH_MEASURE_WITH_UNIT ( LENGTH_MEASURE( 0.02539999999999999897 ), #290 );
#178 = DIRECTION ( 'NONE',  ( 1.000000000000000000, 0.0000000000000000000, 0.0000000000000000000 ) ) ;
#179 = EDGE_CURVE ( 'NONE', #64, #162, #227, .T. ) ;
#180 = VECTOR ( 'NONE', #158, 39.37007874015748143 ) ;
#181 =( NAMED_UNIT ( * ) PLANE_ANGLE_UNIT ( ) SI_UNIT ( $, .RADIAN. ) );
#182 = CYLINDRICAL_SURFACE ( 'NONE', #70, 0.05905500000000000332 ) ;
#183 = CARTESIAN_POINT ( 'NONE',  ( 0.0000000000000000000, 0.0000000000000000000, 1.496062999999999921 ) ) ;
#184 =( LENGTH_UNIT ( ) NAMED_UNIT ( * ) SI_UNIT ( $, .METRE. ) );
#185 = ORIENTED_EDGE ( 'NONE', *, *, #93, .F. ) ;
#186 = FILL_AREA_STYLE ('',( #89 ) ) ;
#187 = EDGE_LOOP ( 'NONE', ( #273, #206 ) ) ;
#188 = ORIENTED_EDGE ( 'NONE', *, *, #72, .F. ) ;
#189 = ADVANCED_FACE ( 'NONE', ( #39 ), #77, .F. ) ;
#190 = DIRECTION ( 'NONE',  ( 0.0000000000000000000, 0.0000000000000000000, -1.000000000000000000 ) ) ;
#191 = FACE_OUTER_BOUND ( 'NONE', #209, .T. ) ;
#192 = DIRECTION ( 'NONE',  ( 1.000000000000000000, 0.0000000000000000000, 0.0000000000000000000 ) ) ;
#193 = CONICAL_SURFACE ( 'NONE', #101, 0.02163184649999999945, 0.1745329251994339192 ) ;
#194 = ADVANCED_BREP_SHAPE_REPRESENTATION ( 'Micro_RMEM-011-2', ( #110, #271 ), #15 ) ;
#195 = LINE ( 'NONE', #261, #123 ) ;
#196 = DIRECTION ( 'NONE',  ( -1.224646799147353207E-16, -0.0000000000000000000, -1.000000000000000000 ) ) ;
#197 = UNCERTAINTY_MEASURE_WITH_UNIT (LENGTH_MEASURE( 1.000000000000000082E-05 ), #265, 'distance_accuracy_value', 'NONE');
#198 = DIRECTION ( 'NONE',  ( -0.0000000000000000000, -0.0000000000000000000, -1.000000000000000000 ) ) ;
#199 = VECTOR ( 'NONE', #297, 39.37007874015748143 ) ;
#200 = CONICAL_SURFACE ( 'NONE', #114, 0.02163184649999999945, 0.1745329251994339192 ) ;
#201 = DIRECTION ( 'NONE',  ( 1.000000000000000000, 0.0000000000000000000, 0.0000000000000000000 ) ) ;
#202 = FACE_OUTER_BOUND ( 'NONE', #67, .T. ) ;
#203 = ORIENTED_EDGE ( 'NONE', *, *, #136, .T. ) ;
#204 = VECTOR ( 'NONE', #35, 39.37007874015747433 ) ;
#205 = DIRECTION ( 'NONE',  ( -1.000000000000000000, 0.0000000000000000000, 1.224646799147353207E-16 ) ) ;
#206 = ORIENTED_EDGE ( 'NONE', *, *, #142, .T. ) ;
#207 = EDGE_CURVE ( 'NONE', #79, #255, #151, .T. ) ;
#208 = ORIENTED_EDGE ( 'NONE', *, *, #72, .T. ) ;
#209 = EDGE_LOOP ( 'NONE', ( #246, #208 ) ) ;
#210 = SURFACE_STYLE_USAGE ( .BOTH. , #213 ) ;
#211 = ORIENTED_EDGE ( 'NONE', *, *, #63, .T. ) ;
#212 = EDGE_CURVE ( 'NONE', #257, #255, #108, .T. ) ;
#213 = SURFACE_SIDE_STYLE ('',( #83 ) ) ;
#214 = DIRECTION ( 'NONE',  ( -1.000000000000000000, 0.0000000000000000000, 0.0000000000000000000 ) ) ;
#215 = FACE_OUTER_BOUND ( 'NONE', #19, .T. ) ;
#216 = CIRCLE ( 'NONE', #140, 0.02163184649999999945 ) ;
#217 = ADVANCED_FACE ( 'NONE', ( #202 ), #159, .T. ) ;
#218 = PRODUCT_RELATED_PRODUCT_CATEGORY ( 'part', '', ( #172 ) ) ;
#219 = CARTESIAN_POINT ( 'NONE',  ( 1.591073367920233116E-17, 0.0000000000000000000, 0.1299210000000000087 ) ) ;
#220 = APPLICATION_CONTEXT ( 'automotive_design' ) ;
#221 = DIRECTION ( 'NONE',  ( 0.1736481776669314137, 0.0000000000000000000, 0.9848077530122077983 ) ) ;
#222 = EDGE_CURVE ( 'NONE', #162, #24, #134, .T. ) ;
#223 = PRODUCT_DEFINITION_CONTEXT ( 'detailed design', #220, 'design' ) ;
#224 =( NAMED_UNIT ( * ) PLANE_ANGLE_UNIT ( ) SI_UNIT ( $, .RADIAN. ) );
#225 = CARTESIAN_POINT ( 'NONE',  ( 3.244257340541466344E-34, 0.0000000000000000000, 2.649137157587187450E-18 ) ) ;
#226 = CARTESIAN_POINT ( 'NONE',  ( 0.02163184649999999945, 2.649137157587187450E-18, -2.649137157587187450E-18 ) ) ;
#227 = CIRCLE ( 'NONE', #267, 0.02163184649999999945 ) ;
#228 = CARTESIAN_POINT ( 'NONE',  ( 1.591073367920233116E-17, 0.0000000000000000000, 0.1299210000000000087 ) ) ;
#229 = EDGE_LOOP ( 'NONE', ( #115, #232, #41, #62 ) ) ;
#230 = CIRCLE ( 'NONE', #91, 0.05905500000000000332 ) ;
#231 = DIRECTION ( 'NONE',  ( 0.7071067811865482389, 8.659560562354941486E-17, -0.7071067811865469066 ) ) ;
#232 = ORIENTED_EDGE ( 'NONE', *, *, #207, .T. ) ;
#233 = ORIENTED_EDGE ( 'NONE', *, *, #132, .T. ) ;
#234 = ORIENTED_EDGE ( 'NONE', *, *, #296, .F. ) ;
#235 = LINE ( 'NONE', #85, #199 ) ;
#236 = APPLICATION_PROTOCOL_DEFINITION ( 'draft international standard', 'automotive_design', 1998, #11 ) ;
#237 = FACE_OUTER_BOUND ( 'NONE', #275, .T. ) ;
#238 = DIRECTION ( 'NONE',  ( -1.000000000000000000, 0.0000000000000000000, 0.0000000000000000000 ) ) ;
#239 = FILL_AREA_STYLE ('',( #50 ) ) ;
#240 = SURFACE_STYLE_FILL_AREA ( #239 ) ;
#241 = ADVANCED_FACE ( 'NONE', ( #294 ), #182, .T. ) ;
#242 = CARTESIAN_POINT ( 'NONE',  ( 1.591073367920233116E-17, 0.0000000000000000000, 0.1299210000000000087 ) ) ;
#243 = EDGE_CURVE ( 'NONE', #64, #43, #289, .T. ) ;
#244 = CARTESIAN_POINT ( 'NONE',  ( -0.04405499999999973326, 0.0000000000000000000, 1.496062999999999921 ) ) ;
#245 = CARTESIAN_POINT ( 'NONE',  ( -0.02163184649999998210, 2.649137157587187450E-18, 0.1299210000000000087 ) ) ;
#246 = ORIENTED_EDGE ( 'NONE', *, *, #296, .T. ) ;
#247 = AXIS2_PLACEMENT_3D ( 'NONE', #242, #168, #238 ) ;
#248 = DIRECTION ( 'NONE',  ( 0.0000000000000000000, 0.0000000000000000000, 1.000000000000000000 ) ) ;
#249 = CARTESIAN_POINT ( 'NONE',  ( 0.0000000000000000000, 0.0000000000000000000, 0.0000000000000000000 ) ) ;
#250 = DIRECTION ( 'NONE',  ( 1.000000000000000000, 0.0000000000000000000, 0.0000000000000000000 ) ) ;
#251 = VECTOR ( 'NONE', #231, 39.37007874015748143 ) ;
#252 = ORIENTED_EDGE ( 'NONE', *, *, #147, .T. ) ;
#253 = DIRECTION ( 'NONE',  ( 1.000000000000000000, 0.0000000000000000000, 0.0000000000000000000 ) ) ;
#254 = VERTEX_POINT ( 'NONE', #56 ) ;
#255 = VERTEX_POINT ( 'NONE', #37 ) ;
#256 = MECHANICAL_DESIGN_GEOMETRIC_PRESENTATION_REPRESENTATION (  '', ( #74 ), #97 ) ;
#257 = VERTEX_POINT ( 'NONE', #244 ) ;
#258 = ORIENTED_EDGE ( 'NONE', *, *, #207, .F. ) ;
#259 = DIRECTION ( 'NONE',  ( 0.0000000000000000000, 0.0000000000000000000, -1.000000000000000000 ) ) ;
#260 = CARTESIAN_POINT ( 'NONE',  ( 4.190230057590394034E-17, 0.0000000000000000000, 0.3421582500773117097 ) ) ;
#261 = CARTESIAN_POINT ( 'NONE',  ( 0.02163184650000001680, 0.0000000000000000000, 0.1299210000000000087 ) ) ;
#262 = CARTESIAN_POINT ( 'NONE',  ( -0.02163184649999999945, 0.0000000000000000000, 5.298274315174374899E-18 ) ) ;
#263 = CIRCLE ( 'NONE', #78, 0.05905500000000000332 ) ;
#264 = DIRECTION ( 'NONE',  ( 1.000000000000000000, 0.0000000000000000000, 0.0000000000000000000 ) ) ;
#265 =( CONVERSION_BASED_UNIT ( 'INCH', #177 ) LENGTH_UNIT ( ) NAMED_UNIT ( #59 ) );
#266 = DIRECTION ( 'NONE',  ( -1.224646799147353207E-16, -0.0000000000000000000, -1.000000000000000000 ) ) ;
#267 = AXIS2_PLACEMENT_3D ( 'NONE', #104, #157, #153 ) ;
#268 = DIRECTION ( 'NONE',  ( 0.0000000000000000000, 0.0000000000000000000, -1.000000000000000000 ) ) ;
#269 =( CONVERSION_BASED_UNIT ( 'INCH', #276 ) LENGTH_UNIT ( ) NAMED_UNIT ( #292 ) );
#270 = VECTOR ( 'NONE', #198, 39.37007874015748143 ) ;
#271 = AXIS2_PLACEMENT_3D ( 'NONE', #163, #144, #253 ) ;
#272 = ORIENTED_EDGE ( 'NONE', *, *, #179, .F. ) ;
#273 = ORIENTED_EDGE ( 'NONE', *, *, #106, .T. ) ;
#274 =( NAMED_UNIT ( * ) PLANE_ANGLE_UNIT ( ) SI_UNIT ( $, .RADIAN. ) );
#275 = EDGE_LOOP ( 'NONE', ( #252, #90, #185, #113 ) ) ;
#276 = LENGTH_MEASURE_WITH_UNIT ( LENGTH_MEASURE( 0.02539999999999999897 ), #184 );
#277 = ORIENTED_EDGE ( 'NONE', *, *, #147, .F. ) ;
#278 = CARTESIAN_POINT ( 'NONE',  ( 0.0000000000000000000, 0.0000000000000000000, 1.496062999999999921 ) ) ;
#279 = DIRECTION ( 'NONE',  ( -1.224646799147353207E-16, -0.0000000000000000000, -1.000000000000000000 ) ) ;
#280 = ADVANCED_FACE ( 'NONE', ( #133 ), #193, .T. ) ;
#281 = DIRECTION ( 'NONE',  ( -1.224646799147353207E-16, -0.0000000000000000000, -1.000000000000000000 ) ) ;
#282 = AXIS2_PLACEMENT_3D ( 'NONE', #103, #248, #176 ) ;
#283 = DIRECTION ( 'NONE',  ( 0.0000000000000000000, 0.0000000000000000000, 1.000000000000000000 ) ) ;
#284 = LENGTH_MEASURE_WITH_UNIT ( LENGTH_MEASURE( 0.02539999999999999897 ), #33 );
#285 = DIRECTION ( 'NONE',  ( 0.0000000000000000000, 0.0000000000000000000, 1.000000000000000000 ) ) ;
#286 = EDGE_CURVE ( 'NONE', #255, #43, #8, .T. ) ;
#287 = STYLED_ITEM ( 'NONE', ( #20 ), #194 ) ;
#288 = CARTESIAN_POINT ( 'NONE',  ( -0.04405499999999973326, 0.0000000000000000000, 1.496062999999999921 ) ) ;
#289 = LINE ( 'NONE', #245, #204 ) ;
#290 =( LENGTH_UNIT ( ) NAMED_UNIT ( * ) SI_UNIT ( $, .METRE. ) );
#291 = VERTEX_POINT ( 'NONE', #76 ) ;
#292 = DIMENSIONAL_EXPONENTS ( 1.000000000000000000, 0.0000000000000000000, 0.0000000000000000000, 0.0000000000000000000, 0.0000000000000000000, 0.0000000000000000000, 0.0000000000000000000 ) ;
#293 = AXIS2_PLACEMENT_3D ( 'NONE', #7, #259, #29 ) ;
#294 = FACE_OUTER_BOUND ( 'NONE', #229, .T. ) ;
#295 = EDGE_LOOP ( 'NONE', ( #60, #203, #211, #299 ) ) ;
#296 = EDGE_CURVE ( 'NONE', #257, #291, #66, .T. ) ;
#297 = DIRECTION ( 'NONE',  ( -0.0000000000000000000, -0.0000000000000000000, -1.000000000000000000 ) ) ;
#298 = COLOUR_RGB ( '',0.7921568627450980005, 0.8196078431372548767, 0.9333333333333333481 ) ;
#299 = ORIENTED_EDGE ( 'NONE', *, *, #142, .F. ) ;
ENDSEC;
END-ISO-10303-21;
